  0
SECTION
  2
HEADER
  9
$ACADVER
  1
AC1006
  9
$EXTMIN
 10
3.336520
 20
0.436480
  9
$EXTMAX
 10
5.178800
 20
9.045960
  9
$LTSCALE
 40
0.044000
  9
$PDMODE
 70
    35
  9
$PDSIZE
 40
0.035200
  0
ENDSEC
  0
SECTION
  2
TABLES
  0
TABLE
  2
LTYPE
 70
     9
  0
LTYPE
  2
CONTINUOUS
 70
    64
  3
Solid line
 72
    65
 73
     0
 40
0.000000
  0
LTYPE
  2
DASHED
 70
    64
  3
__ __ __ __ __ __ __ __ __ __ __ __ __ __ __
 72
    65
 73
     2
 40
0.000330
 49
0.000220
 49
-0.000110
  0
LTYPE
  2
HIDDEN
 70
    64
  3
 _ _ _ _ _ _ _ _ _ _ _ _ _ _ _ _ _ _ _ _ _ _
 72
    65
 73
     2
 40
0.000165
 49
0.000110
 49
-0.000055
  0
LTYPE
  2
CENTER
 70
    64
  3
____ _ ____ _ ____ _ ____ _ ____ _ ____ _ ____
 72
    65
 73
     4
 40
0.000880
 49
0.000550
 49
-0.000110
 49
0.000110
 49
-0.000110
  0
LTYPE
  2
PHANTOM
 70
    64
  3
_____ _ _ _____ _ _ _____ _ _ _____ _ _ ____
 72
    65
 73
     6
 40
0.001100
 49
0.000550
 49
-0.000110
 49
0.000110
 49
-0.000110
 49
0.000110
 49
-0.000110
  0
LTYPE
  2
DOT
 70
    64
  3
...............................................
 72
    65
 73
     2
 40
0.000110
 49
0.000000
 49
-0.000110
  0
LTYPE
  2
DASHDOT
 70
    64
  3
__ . __ . __ . __ . __ . __ . __ . __ . __ . __
 72
    65
 73
     4
 40
0.000440
 49
0.000220
 49
-0.000110
 49
0.000000
 49
-0.000110
  0
LTYPE
  2
BORDER
 70
    64
  3
__ __ . __ __ . __ __ . __ __ . __ __ . __ __
 72
    65
 73
     6
 40
0.000770
 49
0.000220
 49
-0.000110
 49
0.000220
 49
-0.000110
 49
0.000000
 49
-0.000110
  0
LTYPE
  2
DIVIDE
 70
    64
  3
__ . . __ . . __ . . __ . . __ . . __ . . __
 72
    65
 73
     6
 40
0.000550
 49
0.000220
 49
-0.000110
 49
0.000000
 49
-0.000110
 49
0.000000
 49
-0.000110
  0
LTYPE
  2
DOTDOT
 70
    64
  3
 . .  . .  . .  . .  . .  . . 
 72
    65
 73
     5
 40
0.000242
 49
-0.000110
 49
0.000000
 49
-0.000110
 49
0.000000
 49
-0.000110
  0
ENDTAB
  0
TABLE
  2
STYLE
 70
     2
  0
STYLE
 70
     0
  2
SN0
 40
0.000000
 41
0.000440
 50
0.000000
 71
     0
 42
0.000000
  3
ROMAND
  0
STYLE
 70
    68
  2
SV0
 40
0.000000
 41
0.000440
 50
0.000000
 71
     0
 42
0.000000
  3
ROMAND
  0
ENDTAB
  0
TABLE
  2
LAYER
 70
     3
  0
LAYER
  2
FOREGROUND
 70
    64
 62
     7
  6
CONTINUOUS
  0
LAYER
  2
BACKGROUND
 70
    65
 62
    -7
  6
CONTINUOUS
  0
LAYER
  2
0
 70
    64
 62
     7
  6
CONTINUOUS
  0
ENDTAB
  0
ENDSEC
  0
SECTION
  2
ENTITIES
  0
POLYLINE
  8
FOREGROUND
  6
CONTINUOUS
 66
     1
 40
0.000000
 41
0.000000
  0
VERTEX
  8
FOREGROUND
  6
CONTINUOUS
 10
0.000000
 20
9.482440
  0
VERTEX
  8
FOREGROUND
  6
CONTINUOUS
 10
8.499920
 20
9.482440
  0
VERTEX
  8
FOREGROUND
  6
CONTINUOUS
 10
8.499920
 20
-1.517560
  0
VERTEX
  8
FOREGROUND
  6
CONTINUOUS
 10
0.000000
 20
-1.517560
  0
VERTEX
  8
FOREGROUND
  6
CONTINUOUS
 10
0.000000
 20
9.482440
  0
SEQEND
  8
0
  0
POLYLINE
  8
FOREGROUND
  6
CONTINUOUS
 66
     1
 40
0.000000
 41
0.000000
  0
VERTEX
  8
FOREGROUND
  6
CONTINUOUS
 10
0.000000
 20
9.482440
  0
VERTEX
  8
FOREGROUND
  6
CONTINUOUS
 10
8.499920
 20
9.482440
  0
VERTEX
  8
FOREGROUND
  6
CONTINUOUS
 10
8.499920
 20
-1.517560
  0
VERTEX
  8
FOREGROUND
  6
CONTINUOUS
 10
0.000000
 20
-1.517560
  0
VERTEX
  8
FOREGROUND
  6
CONTINUOUS
 10
0.000000
 20
9.482440
  0
SEQEND
  8
0
  0
POLYLINE
  8
0
  6
CONTINUOUS
 66
     1
 40
0.014080
 41
0.014080
  0
VERTEX
  8
0
  6
CONTINUOUS
 10
3.768600
 20
7.952560
  0
VERTEX
  8
0
  6
CONTINUOUS
 10
3.768600
 20
8.328760
  0
VERTEX
  8
0
  6
CONTINUOUS
 10
3.681040
 20
8.329200
  0
VERTEX
  8
0
  6
CONTINUOUS
 10
3.644960
 20
8.332720
  0
VERTEX
  8
0
  6
CONTINUOUS
 10
3.610640
 20
8.339760
  0
VERTEX
  8
0
  6
CONTINUOUS
 10
3.577200
 20
8.350320
  0
VERTEX
  8
0
  6
CONTINUOUS
 10
3.560920
 20
8.356480
  0
VERTEX
  8
0
  6
CONTINUOUS
 10
3.530120
 20
8.371440
  0
VERTEX
  8
0
  6
CONTINUOUS
 10
3.487000
 20
8.399160
  0
VERTEX
  8
0
  6
CONTINUOUS
 10
3.460600
 20
8.420720
  0
VERTEX
  8
0
  6
CONTINUOUS
 10
3.425400
 20
8.457680
  0
VERTEX
  8
0
  6
CONTINUOUS
 10
3.395920
 20
8.499480
  0
VERTEX
  8
0
  6
CONTINUOUS
 10
3.387120
 20
8.514440
  0
VERTEX
  8
0
  6
CONTINUOUS
 10
3.372160
 20
8.545240
  0
VERTEX
  8
0
  6
CONTINUOUS
 10
3.360280
 20
8.577800
  0
VERTEX
  8
0
  6
CONTINUOUS
 10
3.351480
 20
8.612120
  0
VERTEX
  8
0
  6
CONTINUOUS
 10
3.346200
 20
8.647320
  0
VERTEX
  8
0
  6
CONTINUOUS
 10
3.344440
 20
8.683400
  0
VERTEX
  8
0
  6
CONTINUOUS
 10
3.346200
 20
8.719920
  0
VERTEX
  8
0
  6
CONTINUOUS
 10
3.351480
 20
8.755120
  0
VERTEX
  8
0
  6
CONTINUOUS
 10
3.360280
 20
8.789000
  0
VERTEX
  8
0
  6
CONTINUOUS
 10
3.372160
 20
8.821560
  0
VERTEX
  8
0
  6
CONTINUOUS
 10
3.387120
 20
8.852800
  0
VERTEX
  8
0
  6
CONTINUOUS
 10
3.414840
 20
8.895920
  0
VERTEX
  8
0
  6
CONTINUOUS
 10
3.436400
 20
8.922320
  0
VERTEX
  8
0
  6
CONTINUOUS
 10
3.473360
 20
8.957520
  0
VERTEX
  8
0
  6
CONTINUOUS
 10
3.515160
 20
8.987000
  0
VERTEX
  8
0
  6
CONTINUOUS
 10
3.530120
 20
8.995800
  0
VERTEX
  8
0
  6
CONTINUOUS
 10
3.560920
 20
9.010760
  0
VERTEX
  8
0
  6
CONTINUOUS
 10
3.593480
 20
9.022640
  0
VERTEX
  8
0
  6
CONTINUOUS
 10
3.627800
 20
9.031440
  0
VERTEX
  8
0
  6
CONTINUOUS
 10
3.663000
 20
9.036720
  0
VERTEX
  8
0
  6
CONTINUOUS
 10
3.699080
 20
9.038480
  0
VERTEX
  8
0
  6
CONTINUOUS
 10
3.733840
 20
9.036720
  0
VERTEX
  8
0
  6
CONTINUOUS
 10
3.767720
 20
9.031880
  0
VERTEX
  8
0
  6
CONTINUOUS
 10
3.800280
 20
9.023960
  0
VERTEX
  8
0
  6
CONTINUOUS
 10
3.846920
 20
9.006360
  0
VERTEX
  8
0
  6
CONTINUOUS
 10
3.890040
 20
8.982600
  0
VERTEX
  8
0
  6
CONTINUOUS
 10
3.929640
 20
8.953120
  0
VERTEX
  8
0
  6
CONTINUOUS
 10
3.953400
 20
8.931120
  0
VERTEX
  8
0
  6
CONTINUOUS
 10
3.985080
 20
8.893720
  0
VERTEX
  8
0
  6
CONTINUOUS
 10
4.003120
 20
8.866440
  0
VERTEX
  8
0
  6
CONTINUOUS
 10
4.025560
 20
8.822440
  0
VERTEX
  8
0
  6
CONTINUOUS
 10
4.041840
 20
8.775360
  0
VERTEX
  8
0
  6
CONTINUOUS
 10
4.048880
 20
8.741920
  0
VERTEX
  8
0
  6
CONTINUOUS
 10
4.052840
 20
8.708040
  0
VERTEX
  8
0
  6
CONTINUOUS
 10
4.269320
 20
8.708040
  0
VERTEX
  8
0
  6
CONTINUOUS
 10
4.269320
 20
8.593640
  0
VERTEX
  8
0
  6
CONTINUOUS
 10
4.303640
 20
8.599360
  0
VERTEX
  8
0
  6
CONTINUOUS
 10
4.335320
 20
8.602000
  0
VERTEX
  8
0
  6
CONTINUOUS
 10
4.365240
 20
8.601560
  0
VERTEX
  8
0
  6
CONTINUOUS
 10
4.406160
 20
8.596280
  0
VERTEX
  8
0
  6
CONTINUOUS
 10
4.442680
 20
8.585720
  0
VERTEX
  8
0
  6
CONTINUOUS
 10
4.464240
 20
8.576920
  0
VERTEX
  8
0
  6
CONTINUOUS
 10
4.484040
 20
8.566800
  0
VERTEX
  8
0
  6
CONTINUOUS
 10
4.517920
 20
8.543920
  0
VERTEX
  8
0
  6
CONTINUOUS
 10
4.544320
 20
8.519280
  0
VERTEX
  8
0
  6
CONTINUOUS
 10
4.563680
 20
8.495960
  0
VERTEX
  8
0
  6
CONTINUOUS
 10
4.595360
 20
8.448440
  0
VERTEX
  8
0
  6
CONTINUOUS
 10
4.614280
 20
8.427320
  0
VERTEX
  8
0
  6
CONTINUOUS
 10
4.640680
 20
8.406640
  0
VERTEX
  8
0
  6
CONTINUOUS
 10
4.675440
 20
8.387720
  0
VERTEX
  8
0
  6
CONTINUOUS
 10
4.708440
 20
8.375400
  0
VERTEX
  8
0
  6
CONTINUOUS
 10
4.747600
 20
8.365720
  0
VERTEX
  8
0
  6
CONTINUOUS
 10
4.794240
 20
8.359560
  0
VERTEX
  8
0
  6
CONTINUOUS
 10
4.848360
 20
8.356920
  0
VERTEX
  8
0
  6
CONTINUOUS
 10
4.889280
 20
8.357800
  0
VERTEX
  8
0
  6
CONTINUOUS
 10
4.889280
 20
8.238560
  0
VERTEX
  8
0
  6
CONTINUOUS
 10
4.924480
 20
8.236360
  0
VERTEX
  8
0
  6
CONTINUOUS
 10
4.967600
 20
8.228880
  0
VERTEX
  8
0
  6
CONTINUOUS
 10
4.990920
 20
8.223160
  0
VERTEX
  8
0
  6
CONTINUOUS
 10
5.014240
 20
8.215240
  0
VERTEX
  8
0
  6
CONTINUOUS
 10
5.038000
 20
8.205120
  0
VERTEX
  8
0
  6
CONTINUOUS
 10
5.072320
 20
8.186640
  0
VERTEX
  8
0
  6
CONTINUOUS
 10
5.104000
 20
8.162440
  0
VERTEX
  8
0
  6
CONTINUOUS
 10
5.122920
 20
8.143520
  0
VERTEX
  8
0
  6
CONTINUOUS
 10
5.139200
 20
8.121520
  0
VERTEX
  8
0
  6
CONTINUOUS
 10
5.152840
 20
8.096440
  0
VERTEX
  8
0
  6
CONTINUOUS
 10
5.162960
 20
8.068720
  0
VERTEX
  8
0
  6
CONTINUOUS
 10
5.169120
 20
8.037480
  0
VERTEX
  8
0
  6
CONTINUOUS
 10
5.171320
 20
8.002720
  0
VERTEX
  8
0
  6
CONTINUOUS
 10
5.171320
 20
7.952560
  0
VERTEX
  8
0
  6
CONTINUOUS
 10
3.768600
 20
7.952560
  0
SEQEND
  8
0
  0
POLYLINE
  8
0
  6
CONTINUOUS
 66
     1
 40
0.000000
 41
0.000000
  0
VERTEX
  8
0
  6
CONTINUOUS
 10
3.768600
 20
2.048200
  0
VERTEX
  8
0
  6
CONTINUOUS
 10
3.768600
 20
2.424400
  0
VERTEX
  8
0
  6
CONTINUOUS
 10
3.681040
 20
2.424840
  0
VERTEX
  8
0
  6
CONTINUOUS
 10
3.644960
 20
2.428360
  0
VERTEX
  8
0
  6
CONTINUOUS
 10
3.610640
 20
2.435400
  0
VERTEX
  8
0
  6
CONTINUOUS
 10
3.577200
 20
2.445960
  0
VERTEX
  8
0
  6
CONTINUOUS
 10
3.560920
 20
2.452120
  0
VERTEX
  8
0
  6
CONTINUOUS
 10
3.530120
 20
2.467080
  0
VERTEX
  8
0
  6
CONTINUOUS
 10
3.487000
 20
2.494800
  0
VERTEX
  8
0
  6
CONTINUOUS
 10
3.460600
 20
2.516360
  0
VERTEX
  8
0
  6
CONTINUOUS
 10
3.425400
 20
2.553320
  0
VERTEX
  8
0
  6
CONTINUOUS
 10
3.395920
 20
2.595120
  0
VERTEX
  8
0
  6
CONTINUOUS
 10
3.387120
 20
2.610080
  0
VERTEX
  8
0
  6
CONTINUOUS
 10
3.372160
 20
2.640880
  0
VERTEX
  8
0
  6
CONTINUOUS
 10
3.360280
 20
2.673440
  0
VERTEX
  8
0
  6
CONTINUOUS
 10
3.351480
 20
2.707760
  0
VERTEX
  8
0
  6
CONTINUOUS
 10
3.346200
 20
2.742960
  0
VERTEX
  8
0
  6
CONTINUOUS
 10
3.344440
 20
2.779040
  0
VERTEX
  8
0
  6
CONTINUOUS
 10
3.346200
 20
2.815120
  0
VERTEX
  8
0
  6
CONTINUOUS
 10
3.351480
 20
2.850320
  0
VERTEX
  8
0
  6
CONTINUOUS
 10
3.360280
 20
2.884640
  0
VERTEX
  8
0
  6
CONTINUOUS
 10
3.372160
 20
2.917200
  0
VERTEX
  8
0
  6
CONTINUOUS
 10
3.387120
 20
2.948000
  0
VERTEX
  8
0
  6
CONTINUOUS
 10
3.414840
 20
2.991120
  0
VERTEX
  8
0
  6
CONTINUOUS
 10
3.436400
 20
3.017520
  0
VERTEX
  8
0
  6
CONTINUOUS
 10
3.473360
 20
3.052720
  0
VERTEX
  8
0
  6
CONTINUOUS
 10
3.515160
 20
3.082200
  0
VERTEX
  8
0
  6
CONTINUOUS
 10
3.530120
 20
3.091000
  0
VERTEX
  8
0
  6
CONTINUOUS
 10
3.560920
 20
3.105960
  0
VERTEX
  8
0
  6
CONTINUOUS
 10
3.593480
 20
3.117840
  0
VERTEX
  8
0
  6
CONTINUOUS
 10
3.627800
 20
3.126640
  0
VERTEX
  8
0
  6
CONTINUOUS
 10
3.663000
 20
3.131920
  0
VERTEX
  8
0
  6
CONTINUOUS
 10
3.699080
 20
3.133680
  0
VERTEX
  8
0
  6
CONTINUOUS
 10
3.733840
 20
3.131920
  0
VERTEX
  8
0
  6
CONTINUOUS
 10
3.767720
 20
3.127080
  0
VERTEX
  8
0
  6
CONTINUOUS
 10
3.800280
 20
3.119160
  0
VERTEX
  8
0
  6
CONTINUOUS
 10
3.846920
 20
3.101560
  0
VERTEX
  8
0
  6
CONTINUOUS
 10
3.890040
 20
3.077800
  0
VERTEX
  8
0
  6
CONTINUOUS
 10
3.929640
 20
3.048760
  0
VERTEX
  8
0
  6
CONTINUOUS
 10
3.964400
 20
3.014440
  0
VERTEX
  8
0
  6
CONTINUOUS
 10
3.994320
 20
2.975720
  0
VERTEX
  8
0
  6
CONTINUOUS
 10
4.018520
 20
2.933040
  0
VERTEX
  8
0
  6
CONTINUOUS
 10
4.031720
 20
2.902240
  0
VERTEX
  8
0
  6
CONTINUOUS
 10
4.045800
 20
2.854280
  0
VERTEX
  8
0
  6
CONTINUOUS
 10
4.051080
 20
2.820400
  0
VERTEX
  8
0
  6
CONTINUOUS
 10
4.052840
 20
2.803240
  0
VERTEX
  8
0
  6
CONTINUOUS
 10
4.269320
 20
2.803240
  0
VERTEX
  8
0
  6
CONTINUOUS
 10
4.269320
 20
2.689280
  0
VERTEX
  8
0
  6
CONTINUOUS
 10
4.303640
 20
2.695000
  0
VERTEX
  8
0
  6
CONTINUOUS
 10
4.335320
 20
2.697640
  0
VERTEX
  8
0
  6
CONTINUOUS
 10
4.365240
 20
2.697200
  0
VERTEX
  8
0
  6
CONTINUOUS
 10
4.392960
 20
2.694120
  0
VERTEX
  8
0
  6
CONTINUOUS
 10
4.430800
 20
2.685320
  0
VERTEX
  8
0
  6
CONTINUOUS
 10
4.464240
 20
2.672560
  0
VERTEX
  8
0
  6
CONTINUOUS
 10
4.484040
 20
2.662440
  0
VERTEX
  8
0
  6
CONTINUOUS
 10
4.517920
 20
2.639120
  0
VERTEX
  8
0
  6
CONTINUOUS
 10
4.544320
 20
2.614920
  0
VERTEX
  8
0
  6
CONTINUOUS
 10
4.563680
 20
2.591600
  0
VERTEX
  8
0
  6
CONTINUOUS
 10
4.595360
 20
2.544080
  0
VERTEX
  8
0
  6
CONTINUOUS
 10
4.614280
 20
2.522960
  0
VERTEX
  8
0
  6
CONTINUOUS
 10
4.640680
 20
2.502280
  0
VERTEX
  8
0
  6
CONTINUOUS
 10
4.665760
 20
2.487760
  0
VERTEX
  8
0
  6
CONTINUOUS
 10
4.696560
 20
2.474560
  0
VERTEX
  8
0
  6
CONTINUOUS
 10
4.733960
 20
2.464000
  0
VERTEX
  8
0
  6
CONTINUOUS
 10
4.777960
 20
2.456520
  0
VERTEX
  8
0
  6
CONTINUOUS
 10
4.829440
 20
2.452560
  0
VERTEX
  8
0
  6
CONTINUOUS
 10
4.889280
 20
2.453000
  0
VERTEX
  8
0
  6
CONTINUOUS
 10
4.889280
 20
2.334200
  0
VERTEX
  8
0
  6
CONTINUOUS
 10
4.924480
 20
2.332000
  0
VERTEX
  8
0
  6
CONTINUOUS
 10
4.967600
 20
2.324520
  0
VERTEX
  8
0
  6
CONTINUOUS
 10
4.990920
 20
2.318360
  0
VERTEX
  8
0
  6
CONTINUOUS
 10
5.038000
 20
2.300760
  0
VERTEX
  8
0
  6
CONTINUOUS
 10
5.072320
 20
2.282280
  0
VERTEX
  8
0
  6
CONTINUOUS
 10
5.104000
 20
2.258080
  0
VERTEX
  8
0
  6
CONTINUOUS
 10
5.122920
 20
2.239160
  0
VERTEX
  8
0
  6
CONTINUOUS
 10
5.139200
 20
2.217160
  0
VERTEX
  8
0
  6
CONTINUOUS
 10
5.152840
 20
2.192080
  0
VERTEX
  8
0
  6
CONTINUOUS
 10
5.162960
 20
2.164360
  0
VERTEX
  8
0
  6
CONTINUOUS
 10
5.169120
 20
2.133120
  0
VERTEX
  8
0
  6
CONTINUOUS
 10
5.171320
 20
2.098360
  0
VERTEX
  8
0
  6
CONTINUOUS
 10
5.171320
 20
2.048200
  0
VERTEX
  8
0
  6
CONTINUOUS
 10
3.768600
 20
2.048200
  0
SEQEND
  8
0
  0
POLYLINE
  8
0
  6
CONTINUOUS
 66
     1
 40
0.000000
 41
0.000000
  0
VERTEX
  8
0
  6
CONTINUOUS
 10
4.747160
 20
0.436920
  0
VERTEX
  8
0
  6
CONTINUOUS
 10
4.747160
 20
0.813120
  0
VERTEX
  8
0
  6
CONTINUOUS
 10
4.835160
 20
0.813560
  0
VERTEX
  8
0
  6
CONTINUOUS
 10
4.870800
 20
0.817080
  0
VERTEX
  8
0
  6
CONTINUOUS
 10
4.905560
 20
0.824120
  0
VERTEX
  8
0
  6
CONTINUOUS
 10
4.954840
 20
0.840840
  0
VERTEX
  8
0
  6
CONTINUOUS
 10
4.986080
 20
0.855800
  0
VERTEX
  8
0
  6
CONTINUOUS
 10
5.029200
 20
0.883520
  0
VERTEX
  8
0
  6
CONTINUOUS
 10
5.055600
 20
0.905080
  0
VERTEX
  8
0
  6
CONTINUOUS
 10
5.090800
 20
0.942040
  0
VERTEX
  8
0
  6
CONTINUOUS
 10
5.120280
 20
0.983840
  0
VERTEX
  8
0
  6
CONTINUOUS
 10
5.129080
 20
0.998800
  0
VERTEX
  8
0
  6
CONTINUOUS
 10
5.144040
 20
1.029600
  0
VERTEX
  8
0
  6
CONTINUOUS
 10
5.155920
 20
1.062160
  0
VERTEX
  8
0
  6
CONTINUOUS
 10
5.164720
 20
1.096480
  0
VERTEX
  8
0
  6
CONTINUOUS
 10
5.170000
 20
1.131680
  0
VERTEX
  8
0
  6
CONTINUOUS
 10
5.171760
 20
1.167760
  0
VERTEX
  8
0
  6
CONTINUOUS
 10
5.170000
 20
1.203840
  0
VERTEX
  8
0
  6
CONTINUOUS
 10
5.164720
 20
1.239040
  0
VERTEX
  8
0
  6
CONTINUOUS
 10
5.155920
 20
1.273360
  0
VERTEX
  8
0
  6
CONTINUOUS
 10
5.144040
 20
1.305920
  0
VERTEX
  8
0
  6
CONTINUOUS
 10
5.129080
 20
1.336720
  0
VERTEX
  8
0
  6
CONTINUOUS
 10
5.101360
 20
1.379840
  0
VERTEX
  8
0
  6
CONTINUOUS
 10
5.067920
 20
1.418560
  0
VERTEX
  8
0
  6
CONTINUOUS
 10
5.042400
 20
1.441440
  0
VERTEX
  8
0
  6
CONTINUOUS
 10
5.015120
 20
1.461680
  0
VERTEX
  8
0
  6
CONTINUOUS
 10
4.986080
 20
1.479720
  0
VERTEX
  8
0
  6
CONTINUOUS
 10
4.939000
 20
1.500840
  0
VERTEX
  8
0
  6
CONTINUOUS
 10
4.905560
 20
1.511400
  0
VERTEX
  8
0
  6
CONTINUOUS
 10
4.870800
 20
1.518440
  0
VERTEX
  8
0
  6
CONTINUOUS
 10
4.835160
 20
1.521960
  0
VERTEX
  8
0
  6
CONTINUOUS
 10
4.799080
 20
1.521960
  0
VERTEX
  8
0
  6
CONTINUOUS
 10
4.764760
 20
1.518440
  0
VERTEX
  8
0
  6
CONTINUOUS
 10
4.731760
 20
1.512280
  0
VERTEX
  8
0
  6
CONTINUOUS
 10
4.699640
 20
1.502600
  0
VERTEX
  8
0
  6
CONTINUOUS
 10
4.668840
 20
1.490280
  0
VERTEX
  8
0
  6
CONTINUOUS
 10
4.639800
 20
1.475320
  0
VERTEX
  8
0
  6
CONTINUOUS
 10
4.598880
 20
1.447600
  0
VERTEX
  8
0
  6
CONTINUOUS
 10
4.562800
 20
1.415040
  0
VERTEX
  8
0
  6
CONTINUOUS
 10
4.540800
 20
1.390840
  0
VERTEX
  8
0
  6
CONTINUOUS
 10
4.513080
 20
1.350800
  0
VERTEX
  8
0
  6
CONTINUOUS
 10
4.490200
 20
1.306800
  0
VERTEX
  8
0
  6
CONTINUOUS
 10
4.473920
 20
1.259720
  0
VERTEX
  8
0
  6
CONTINUOUS
 10
4.466880
 20
1.226280
  0
VERTEX
  8
0
  6
CONTINUOUS
 10
4.462920
 20
1.192400
  0
VERTEX
  8
0
  6
CONTINUOUS
 10
4.246440
 20
1.192400
  0
VERTEX
  8
0
  6
CONTINUOUS
 10
4.246440
 20
1.078000
  0
VERTEX
  8
0
  6
CONTINUOUS
 10
4.212120
 20
1.083720
  0
VERTEX
  8
0
  6
CONTINUOUS
 10
4.180440
 20
1.086360
  0
VERTEX
  8
0
  6
CONTINUOUS
 10
4.150520
 20
1.085920
  0
VERTEX
  8
0
  6
CONTINUOUS
 10
4.109600
 20
1.080640
  0
VERTEX
  8
0
  6
CONTINUOUS
 10
4.073520
 20
1.070080
  0
VERTEX
  8
0
  6
CONTINUOUS
 10
4.051960
 20
1.061280
  0
VERTEX
  8
0
  6
CONTINUOUS
 10
4.014120
 20
1.040160
  0
VERTEX
  8
0
  6
CONTINUOUS
 10
3.984200
 20
1.015960
  0
VERTEX
  8
0
  6
CONTINUOUS
 10
3.960880
 20
0.991760
  0
VERTEX
  8
0
  6
CONTINUOUS
 10
3.920400
 20
0.932800
  0
VERTEX
  8
0
  6
CONTINUOUS
 10
3.901480
 20
0.911680
  0
VERTEX
  8
0
  6
CONTINUOUS
 10
3.875080
 20
0.891000
  0
VERTEX
  8
0
  6
CONTINUOUS
 10
3.840320
 20
0.872080
  0
VERTEX
  8
0
  6
CONTINUOUS
 10
3.807320
 20
0.859760
  0
VERTEX
  8
0
  6
CONTINUOUS
 10
3.768160
 20
0.850080
  0
VERTEX
  8
0
  6
CONTINUOUS
 10
3.721520
 20
0.843920
  0
VERTEX
  8
0
  6
CONTINUOUS
 10
3.667400
 20
0.841280
  0
VERTEX
  8
0
  6
CONTINUOUS
 10
3.626480
 20
0.842160
  0
VERTEX
  8
0
  6
CONTINUOUS
 10
3.626480
 20
0.722920
  0
VERTEX
  8
0
  6
CONTINUOUS
 10
3.591280
 20
0.720720
  0
VERTEX
  8
0
  6
CONTINUOUS
 10
3.548160
 20
0.713240
  0
VERTEX
  8
0
  6
CONTINUOUS
 10
3.524840
 20
0.707520
  0
VERTEX
  8
0
  6
CONTINUOUS
 10
3.501520
 20
0.699600
  0
VERTEX
  8
0
  6
CONTINUOUS
 10
3.477760
 20
0.689480
  0
VERTEX
  8
0
  6
CONTINUOUS
 10
3.443440
 20
0.671000
  0
VERTEX
  8
0
  6
CONTINUOUS
 10
3.411760
 20
0.646800
  0
VERTEX
  8
0
  6
CONTINUOUS
 10
3.392840
 20
0.627880
  0
VERTEX
  8
0
  6
CONTINUOUS
 10
3.376560
 20
0.605880
  0
VERTEX
  8
0
  6
CONTINUOUS
 10
3.362920
 20
0.580800
  0
VERTEX
  8
0
  6
CONTINUOUS
 10
3.352800
 20
0.553080
  0
VERTEX
  8
0
  6
CONTINUOUS
 10
3.346640
 20
0.521840
  0
VERTEX
  8
0
  6
CONTINUOUS
 10
3.344440
 20
0.487080
  0
VERTEX
  8
0
  6
CONTINUOUS
 10
3.344440
 20
0.436920
  0
VERTEX
  8
0
  6
CONTINUOUS
 10
4.747160
 20
0.436920
  0
SEQEND
  8
0
  0
SOLID
  8
0
 62
    15
 10
3.960440
 20
6.017440
 11
4.603280
 21
5.646960
 12
3.937120
 22
5.997640
 13
4.579960
 23
5.627600
  0
POLYLINE
  8
0
  6
CONTINUOUS
 66
     1
 40
0.000000
 41
0.000000
  0
VERTEX
  8
0
  6
CONTINUOUS
 10
3.960440
 20
6.017440
  0
VERTEX
  8
0
  6
CONTINUOUS
 10
4.603280
 20
5.646960
  0
VERTEX
  8
0
  6
CONTINUOUS
 10
4.579960
 20
5.627600
  0
VERTEX
  8
0
  6
CONTINUOUS
 10
3.937120
 20
5.997640
  0
VERTEX
  8
0
  6
CONTINUOUS
 10
3.960440
 20
6.017440
  0
SEQEND
  8
0
  0
SOLID
  8
0
 62
    15
 10
4.375360
 20
7.113040
 11
5.018200
 21
6.743000
 12
4.418920
 22
7.060680
 13
5.061760
 23
6.690640
  0
POLYLINE
  8
0
  6
CONTINUOUS
 66
     1
 40
0.000000
 41
0.000000
  0
VERTEX
  8
0
  6
CONTINUOUS
 10
4.375360
 20
7.113040
  0
VERTEX
  8
0
  6
CONTINUOUS
 10
5.018200
 20
6.743000
  0
VERTEX
  8
0
  6
CONTINUOUS
 10
5.061760
 20
6.690640
  0
VERTEX
  8
0
  6
CONTINUOUS
 10
4.418920
 20
7.060680
  0
VERTEX
  8
0
  6
CONTINUOUS
 10
4.375360
 20
7.113040
  0
SEQEND
  8
0
  0
SOLID
  8
0
 62
    15
 10
4.418920
 20
7.060680
 11
5.061760
 21
6.690640
 12
4.451480
 22
7.000400
 13
5.094320
 23
6.630360
  0
POLYLINE
  8
0
  6
CONTINUOUS
 66
     1
 40
0.000000
 41
0.000000
  0
VERTEX
  8
0
  6
CONTINUOUS
 10
4.418920
 20
7.060680
  0
VERTEX
  8
0
  6
CONTINUOUS
 10
5.061760
 20
6.690640
  0
VERTEX
  8
0
  6
CONTINUOUS
 10
5.094320
 20
6.630360
  0
VERTEX
  8
0
  6
CONTINUOUS
 10
4.451480
 20
7.000400
  0
VERTEX
  8
0
  6
CONTINUOUS
 10
4.418920
 20
7.060680
  0
SEQEND
  8
0
  0
SOLID
  8
0
 62
    15
 10
4.451480
 20
7.000400
 11
5.094320
 21
6.630360
 12
4.472160
 22
6.933960
 13
5.115000
 23
6.563480
  0
POLYLINE
  8
0
  6
CONTINUOUS
 66
     1
 40
0.000000
 41
0.000000
  0
VERTEX
  8
0
  6
CONTINUOUS
 10
4.451480
 20
7.000400
  0
VERTEX
  8
0
  6
CONTINUOUS
 10
5.094320
 20
6.630360
  0
VERTEX
  8
0
  6
CONTINUOUS
 10
5.115000
 20
6.563480
  0
VERTEX
  8
0
  6
CONTINUOUS
 10
4.472160
 20
6.933960
  0
VERTEX
  8
0
  6
CONTINUOUS
 10
4.451480
 20
7.000400
  0
SEQEND
  8
0
  0
SOLID
  8
0
 62
    15
 10
4.472160
 20
6.933960
 11
5.115000
 21
6.563480
 12
4.479200
 22
6.862240
 13
5.122040
 23
6.492200
  0
POLYLINE
  8
0
  6
CONTINUOUS
 66
     1
 40
0.000000
 41
0.000000
  0
VERTEX
  8
0
  6
CONTINUOUS
 10
4.472160
 20
6.933960
  0
VERTEX
  8
0
  6
CONTINUOUS
 10
5.115000
 20
6.563480
  0
VERTEX
  8
0
  6
CONTINUOUS
 10
5.122040
 20
6.492200
  0
VERTEX
  8
0
  6
CONTINUOUS
 10
4.479200
 20
6.862240
  0
VERTEX
  8
0
  6
CONTINUOUS
 10
4.472160
 20
6.933960
  0
SEQEND
  8
0
  0
SOLID
  8
0
 62
    15
 10
4.479200
 20
6.862240
 11
5.122040
 21
6.492200
 12
4.472600
 22
6.793600
 13
5.115440
 23
6.423560
  0
POLYLINE
  8
0
  6
CONTINUOUS
 66
     1
 40
0.000000
 41
0.000000
  0
VERTEX
  8
0
  6
CONTINUOUS
 10
4.479200
 20
6.862240
  0
VERTEX
  8
0
  6
CONTINUOUS
 10
5.122040
 20
6.492200
  0
VERTEX
  8
0
  6
CONTINUOUS
 10
5.115440
 20
6.423560
  0
VERTEX
  8
0
  6
CONTINUOUS
 10
4.472600
 20
6.793600
  0
VERTEX
  8
0
  6
CONTINUOUS
 10
4.479200
 20
6.862240
  0
SEQEND
  8
0
  0
SOLID
  8
0
 62
    15
 10
4.472600
 20
6.793600
 11
5.115440
 21
6.423560
 12
4.453680
 22
6.729800
 13
5.096520
 23
6.359320
  0
POLYLINE
  8
0
  6
CONTINUOUS
 66
     1
 40
0.000000
 41
0.000000
  0
VERTEX
  8
0
  6
CONTINUOUS
 10
4.472600
 20
6.793600
  0
VERTEX
  8
0
  6
CONTINUOUS
 10
5.115440
 20
6.423560
  0
VERTEX
  8
0
  6
CONTINUOUS
 10
5.096520
 20
6.359320
  0
VERTEX
  8
0
  6
CONTINUOUS
 10
4.453680
 20
6.729800
  0
VERTEX
  8
0
  6
CONTINUOUS
 10
4.472600
 20
6.793600
  0
SEQEND
  8
0
  0
SOLID
  8
0
 62
    15
 10
4.453680
 20
6.729800
 11
5.096520
 21
6.359320
 12
4.423320
 22
6.671280
 13
5.066160
 23
6.301240
  0
POLYLINE
  8
0
  6
CONTINUOUS
 66
     1
 40
0.000000
 41
0.000000
  0
VERTEX
  8
0
  6
CONTINUOUS
 10
4.453680
 20
6.729800
  0
VERTEX
  8
0
  6
CONTINUOUS
 10
5.096520
 20
6.359320
  0
VERTEX
  8
0
  6
CONTINUOUS
 10
5.066160
 20
6.301240
  0
VERTEX
  8
0
  6
CONTINUOUS
 10
4.423320
 20
6.671280
  0
VERTEX
  8
0
  6
CONTINUOUS
 10
4.453680
 20
6.729800
  0
SEQEND
  8
0
  0
SOLID
  8
0
 62
    15
 10
4.423320
 20
6.671280
 11
5.066160
 21
6.301240
 12
4.383280
 22
6.619800
 13
5.026120
 23
6.249760
  0
POLYLINE
  8
0
  6
CONTINUOUS
 66
     1
 40
0.000000
 41
0.000000
  0
VERTEX
  8
0
  6
CONTINUOUS
 10
4.423320
 20
6.671280
  0
VERTEX
  8
0
  6
CONTINUOUS
 10
5.066160
 20
6.301240
  0
VERTEX
  8
0
  6
CONTINUOUS
 10
5.026120
 20
6.249760
  0
VERTEX
  8
0
  6
CONTINUOUS
 10
4.383280
 20
6.619800
  0
VERTEX
  8
0
  6
CONTINUOUS
 10
4.423320
 20
6.671280
  0
SEQEND
  8
0
  0
SOLID
  8
0
 62
    15
 10
4.383280
 20
6.619800
 11
5.026120
 21
6.249760
 12
4.334440
 22
6.576240
 13
4.977280
 23
6.206200
  0
POLYLINE
  8
0
  6
CONTINUOUS
 66
     1
 40
0.000000
 41
0.000000
  0
VERTEX
  8
0
  6
CONTINUOUS
 10
4.383280
 20
6.619800
  0
VERTEX
  8
0
  6
CONTINUOUS
 10
5.026120
 20
6.249760
  0
VERTEX
  8
0
  6
CONTINUOUS
 10
4.977280
 20
6.206200
  0
VERTEX
  8
0
  6
CONTINUOUS
 10
4.334440
 20
6.576240
  0
VERTEX
  8
0
  6
CONTINUOUS
 10
4.383280
 20
6.619800
  0
SEQEND
  8
0
  0
SOLID
  8
0
 62
    15
 10
4.334440
 20
6.576240
 11
4.977280
 21
6.206200
 12
4.278560
 22
6.542800
 13
4.921400
 23
6.172320
  0
POLYLINE
  8
0
  6
CONTINUOUS
 66
     1
 40
0.000000
 41
0.000000
  0
VERTEX
  8
0
  6
CONTINUOUS
 10
4.334440
 20
6.576240
  0
VERTEX
  8
0
  6
CONTINUOUS
 10
4.977280
 20
6.206200
  0
VERTEX
  8
0
  6
CONTINUOUS
 10
4.921400
 20
6.172320
  0
VERTEX
  8
0
  6
CONTINUOUS
 10
4.278560
 20
6.542800
  0
VERTEX
  8
0
  6
CONTINUOUS
 10
4.334440
 20
6.576240
  0
SEQEND
  8
0
  0
SOLID
  8
0
 62
    15
 10
4.278560
 20
6.542800
 11
4.921400
 21
6.172320
 12
4.216080
 22
6.519480
 13
4.858920
 23
6.149440
  0
POLYLINE
  8
0
  6
CONTINUOUS
 66
     1
 40
0.000000
 41
0.000000
  0
VERTEX
  8
0
  6
CONTINUOUS
 10
4.278560
 20
6.542800
  0
VERTEX
  8
0
  6
CONTINUOUS
 10
4.921400
 20
6.172320
  0
VERTEX
  8
0
  6
CONTINUOUS
 10
4.858920
 20
6.149440
  0
VERTEX
  8
0
  6
CONTINUOUS
 10
4.216080
 20
6.519480
  0
VERTEX
  8
0
  6
CONTINUOUS
 10
4.278560
 20
6.542800
  0
SEQEND
  8
0
  0
SOLID
  8
0
 62
    15
 10
4.216080
 20
6.519480
 11
4.858920
 21
6.149440
 12
4.148760
 22
6.508480
 13
4.792040
 23
6.138440
  0
POLYLINE
  8
0
  6
CONTINUOUS
 66
     1
 40
0.000000
 41
0.000000
  0
VERTEX
  8
0
  6
CONTINUOUS
 10
4.216080
 20
6.519480
  0
VERTEX
  8
0
  6
CONTINUOUS
 10
4.858920
 20
6.149440
  0
VERTEX
  8
0
  6
CONTINUOUS
 10
4.792040
 20
6.138440
  0
VERTEX
  8
0
  6
CONTINUOUS
 10
4.148760
 20
6.508480
  0
VERTEX
  8
0
  6
CONTINUOUS
 10
4.216080
 20
6.519480
  0
SEQEND
  8
0
  0
SOLID
  8
0
 62
    15
 10
4.148760
 20
6.508480
 11
4.792040
 21
6.138440
 12
4.148760
 22
6.292000
 13
4.792040
 23
5.921960
  0
POLYLINE
  8
0
  6
CONTINUOUS
 66
     1
 40
0.000000
 41
0.000000
  0
VERTEX
  8
0
  6
CONTINUOUS
 10
4.148760
 20
6.508480
  0
VERTEX
  8
0
  6
CONTINUOUS
 10
4.792040
 20
6.138440
  0
VERTEX
  8
0
  6
CONTINUOUS
 10
4.792040
 20
5.921960
  0
VERTEX
  8
0
  6
CONTINUOUS
 10
4.148760
 20
6.292000
  0
VERTEX
  8
0
  6
CONTINUOUS
 10
4.148760
 20
6.508480
  0
SEQEND
  8
0
  0
SOLID
  8
0
 62
    15
 10
4.148760
 20
6.292000
 11
4.792040
 21
5.921960
 12
4.034800
 22
6.292000
 13
4.677640
 23
5.921960
  0
POLYLINE
  8
0
  6
CONTINUOUS
 66
     1
 40
0.000000
 41
0.000000
  0
VERTEX
  8
0
  6
CONTINUOUS
 10
4.148760
 20
6.292000
  0
VERTEX
  8
0
  6
CONTINUOUS
 10
4.792040
 20
5.921960
  0
VERTEX
  8
0
  6
CONTINUOUS
 10
4.677640
 20
5.921960
  0
VERTEX
  8
0
  6
CONTINUOUS
 10
4.034800
 20
6.292000
  0
VERTEX
  8
0
  6
CONTINUOUS
 10
4.148760
 20
6.292000
  0
SEQEND
  8
0
  0
SOLID
  8
0
 62
    15
 10
4.034800
 20
6.292000
 11
4.677640
 21
5.921960
 12
4.043160
 22
6.226000
 13
4.686000
 23
5.855520
  0
POLYLINE
  8
0
  6
CONTINUOUS
 66
     1
 40
0.000000
 41
0.000000
  0
VERTEX
  8
0
  6
CONTINUOUS
 10
4.034800
 20
6.292000
  0
VERTEX
  8
0
  6
CONTINUOUS
 10
4.677640
 20
5.921960
  0
VERTEX
  8
0
  6
CONTINUOUS
 10
4.686000
 20
5.855520
  0
VERTEX
  8
0
  6
CONTINUOUS
 10
4.043160
 20
6.226000
  0
VERTEX
  8
0
  6
CONTINUOUS
 10
4.034800
 20
6.292000
  0
SEQEND
  8
0
  0
SOLID
  8
0
 62
    15
 10
4.043160
 20
6.226000
 11
4.686000
 21
5.855520
 12
4.039640
 22
6.168360
 13
4.682480
 23
5.798320
  0
POLYLINE
  8
0
  6
CONTINUOUS
 66
     1
 40
0.000000
 41
0.000000
  0
VERTEX
  8
0
  6
CONTINUOUS
 10
4.043160
 20
6.226000
  0
VERTEX
  8
0
  6
CONTINUOUS
 10
4.686000
 20
5.855520
  0
VERTEX
  8
0
  6
CONTINUOUS
 10
4.682480
 20
5.798320
  0
VERTEX
  8
0
  6
CONTINUOUS
 10
4.039640
 20
6.168360
  0
VERTEX
  8
0
  6
CONTINUOUS
 10
4.043160
 20
6.226000
  0
SEQEND
  8
0
  0
SOLID
  8
0
 62
    15
 10
4.039640
 20
6.168360
 11
4.682480
 21
5.798320
 12
4.026880
 22
6.119080
 13
4.669720
 23
5.748600
  0
POLYLINE
  8
0
  6
CONTINUOUS
 66
     1
 40
0.000000
 41
0.000000
  0
VERTEX
  8
0
  6
CONTINUOUS
 10
4.039640
 20
6.168360
  0
VERTEX
  8
0
  6
CONTINUOUS
 10
4.682480
 20
5.798320
  0
VERTEX
  8
0
  6
CONTINUOUS
 10
4.669720
 20
5.748600
  0
VERTEX
  8
0
  6
CONTINUOUS
 10
4.026880
 20
6.119080
  0
VERTEX
  8
0
  6
CONTINUOUS
 10
4.039640
 20
6.168360
  0
SEQEND
  8
0
  0
SOLID
  8
0
 62
    15
 10
4.026880
 20
6.119080
 11
4.669720
 21
5.748600
 12
4.007960
 22
6.077720
 13
4.650800
 23
5.707240
  0
POLYLINE
  8
0
  6
CONTINUOUS
 66
     1
 40
0.000000
 41
0.000000
  0
VERTEX
  8
0
  6
CONTINUOUS
 10
4.026880
 20
6.119080
  0
VERTEX
  8
0
  6
CONTINUOUS
 10
4.669720
 20
5.748600
  0
VERTEX
  8
0
  6
CONTINUOUS
 10
4.650800
 20
5.707240
  0
VERTEX
  8
0
  6
CONTINUOUS
 10
4.007960
 20
6.077720
  0
VERTEX
  8
0
  6
CONTINUOUS
 10
4.026880
 20
6.119080
  0
SEQEND
  8
0
  0
SOLID
  8
0
 62
    15
 10
4.007960
 20
6.077720
 11
4.650800
 21
5.707240
 12
3.984640
 22
6.043840
 13
4.627480
 23
5.673800
  0
POLYLINE
  8
0
  6
CONTINUOUS
 66
     1
 40
0.000000
 41
0.000000
  0
VERTEX
  8
0
  6
CONTINUOUS
 10
4.007960
 20
6.077720
  0
VERTEX
  8
0
  6
CONTINUOUS
 10
4.650800
 20
5.707240
  0
VERTEX
  8
0
  6
CONTINUOUS
 10
4.627480
 20
5.673800
  0
VERTEX
  8
0
  6
CONTINUOUS
 10
3.984640
 20
6.043840
  0
VERTEX
  8
0
  6
CONTINUOUS
 10
4.007960
 20
6.077720
  0
SEQEND
  8
0
  0
SOLID
  8
0
 62
    15
 10
3.984640
 20
6.043840
 11
4.627480
 21
5.673800
 12
3.960440
 22
6.017440
 13
4.603280
 23
5.646960
  0
POLYLINE
  8
0
  6
CONTINUOUS
 66
     1
 40
0.000000
 41
0.000000
  0
VERTEX
  8
0
  6
CONTINUOUS
 10
3.984640
 20
6.043840
  0
VERTEX
  8
0
  6
CONTINUOUS
 10
4.627480
 20
5.673800
  0
VERTEX
  8
0
  6
CONTINUOUS
 10
4.603280
 20
5.646960
  0
VERTEX
  8
0
  6
CONTINUOUS
 10
3.960440
 20
6.017440
  0
VERTEX
  8
0
  6
CONTINUOUS
 10
3.984640
 20
6.043840
  0
SEQEND
  8
0
  0
SOLID
  8
0
 62
    15
 10
4.323000
 20
7.156600
 11
4.965840
 21
6.786120
 12
4.375360
 22
7.113040
 13
5.018200
 23
6.743000
  0
POLYLINE
  8
0
  6
CONTINUOUS
 66
     1
 40
0.000000
 41
0.000000
  0
VERTEX
  8
0
  6
CONTINUOUS
 10
4.323000
 20
7.156600
  0
VERTEX
  8
0
  6
CONTINUOUS
 10
4.965840
 20
6.786120
  0
VERTEX
  8
0
  6
CONTINUOUS
 10
5.018200
 20
6.743000
  0
VERTEX
  8
0
  6
CONTINUOUS
 10
4.375360
 20
7.113040
  0
VERTEX
  8
0
  6
CONTINUOUS
 10
4.323000
 20
7.156600
  0
SEQEND
  8
0
  0
SOLID
  8
0
 62
    15
 10
3.937120
 20
5.997640
 11
4.579960
 21
5.627600
 12
3.917760
 22
5.984880
 13
4.560600
 23
5.614840
  0
POLYLINE
  8
0
  6
CONTINUOUS
 66
     1
 40
0.000000
 41
0.000000
  0
VERTEX
  8
0
  6
CONTINUOUS
 10
3.937120
 20
5.997640
  0
VERTEX
  8
0
  6
CONTINUOUS
 10
4.579960
 20
5.627600
  0
VERTEX
  8
0
  6
CONTINUOUS
 10
4.560600
 20
5.614840
  0
VERTEX
  8
0
  6
CONTINUOUS
 10
3.917760
 20
5.984880
  0
VERTEX
  8
0
  6
CONTINUOUS
 10
3.937120
 20
5.997640
  0
SEQEND
  8
0
  0
SOLID
  8
0
 62
    15
 10
3.917760
 20
5.984880
 11
4.560600
 21
5.614840
 12
3.899720
 22
5.973440
 13
4.542560
 23
5.603400
  0
POLYLINE
  8
0
  6
CONTINUOUS
 66
     1
 40
0.000000
 41
0.000000
  0
VERTEX
  8
0
  6
CONTINUOUS
 10
3.917760
 20
5.984880
  0
VERTEX
  8
0
  6
CONTINUOUS
 10
4.560600
 20
5.614840
  0
VERTEX
  8
0
  6
CONTINUOUS
 10
4.542560
 20
5.603400
  0
VERTEX
  8
0
  6
CONTINUOUS
 10
3.899720
 20
5.973440
  0
VERTEX
  8
0
  6
CONTINUOUS
 10
3.917760
 20
5.984880
  0
SEQEND
  8
0
  0
SOLID
  8
0
 62
    15
 10
3.899720
 20
5.973440
 11
4.542560
 21
5.603400
 12
3.879040
 22
5.957600
 13
4.521880
 23
5.587120
  0
POLYLINE
  8
0
  6
CONTINUOUS
 66
     1
 40
0.000000
 41
0.000000
  0
VERTEX
  8
0
  6
CONTINUOUS
 10
3.899720
 20
5.973440
  0
VERTEX
  8
0
  6
CONTINUOUS
 10
4.542560
 20
5.603400
  0
VERTEX
  8
0
  6
CONTINUOUS
 10
4.521880
 20
5.587120
  0
VERTEX
  8
0
  6
CONTINUOUS
 10
3.879040
 20
5.957600
  0
VERTEX
  8
0
  6
CONTINUOUS
 10
3.899720
 20
5.973440
  0
SEQEND
  8
0
  0
SOLID
  8
0
 62
    15
 10
3.879040
 20
5.957600
 11
4.521880
 21
5.587120
 12
3.857920
 22
5.934720
 13
4.501200
 23
5.564680
  0
POLYLINE
  8
0
  6
CONTINUOUS
 66
     1
 40
0.000000
 41
0.000000
  0
VERTEX
  8
0
  6
CONTINUOUS
 10
3.879040
 20
5.957600
  0
VERTEX
  8
0
  6
CONTINUOUS
 10
4.521880
 20
5.587120
  0
VERTEX
  8
0
  6
CONTINUOUS
 10
4.501200
 20
5.564680
  0
VERTEX
  8
0
  6
CONTINUOUS
 10
3.857920
 20
5.934720
  0
VERTEX
  8
0
  6
CONTINUOUS
 10
3.879040
 20
5.957600
  0
SEQEND
  8
0
  0
SOLID
  8
0
 62
    15
 10
3.857920
 20
5.934720
 11
4.501200
 21
5.564680
 12
3.838120
 22
5.904360
 13
4.480960
 23
5.534320
  0
POLYLINE
  8
0
  6
CONTINUOUS
 66
     1
 40
0.000000
 41
0.000000
  0
VERTEX
  8
0
  6
CONTINUOUS
 10
3.857920
 20
5.934720
  0
VERTEX
  8
0
  6
CONTINUOUS
 10
4.501200
 20
5.564680
  0
VERTEX
  8
0
  6
CONTINUOUS
 10
4.480960
 20
5.534320
  0
VERTEX
  8
0
  6
CONTINUOUS
 10
3.838120
 20
5.904360
  0
VERTEX
  8
0
  6
CONTINUOUS
 10
3.857920
 20
5.934720
  0
SEQEND
  8
0
  0
SOLID
  8
0
 62
    15
 10
3.838120
 20
5.904360
 11
4.480960
 21
5.534320
 12
3.820520
 22
5.864760
 13
4.463360
 23
5.494280
  0
POLYLINE
  8
0
  6
CONTINUOUS
 66
     1
 40
0.000000
 41
0.000000
  0
VERTEX
  8
0
  6
CONTINUOUS
 10
3.838120
 20
5.904360
  0
VERTEX
  8
0
  6
CONTINUOUS
 10
4.480960
 20
5.534320
  0
VERTEX
  8
0
  6
CONTINUOUS
 10
4.463360
 20
5.494280
  0
VERTEX
  8
0
  6
CONTINUOUS
 10
3.820520
 20
5.864760
  0
VERTEX
  8
0
  6
CONTINUOUS
 10
3.838120
 20
5.904360
  0
SEQEND
  8
0
  0
SOLID
  8
0
 62
    15
 10
3.820520
 20
5.864760
 11
4.463360
 21
5.494280
 12
3.806880
 22
5.813720
 13
4.449720
 23
5.443680
  0
POLYLINE
  8
0
  6
CONTINUOUS
 66
     1
 40
0.000000
 41
0.000000
  0
VERTEX
  8
0
  6
CONTINUOUS
 10
3.820520
 20
5.864760
  0
VERTEX
  8
0
  6
CONTINUOUS
 10
4.463360
 20
5.494280
  0
VERTEX
  8
0
  6
CONTINUOUS
 10
4.449720
 20
5.443680
  0
VERTEX
  8
0
  6
CONTINUOUS
 10
3.806880
 20
5.813720
  0
VERTEX
  8
0
  6
CONTINUOUS
 10
3.820520
 20
5.864760
  0
SEQEND
  8
0
  0
SOLID
  8
0
 62
    15
 10
3.806880
 20
5.813720
 11
4.449720
 21
5.443680
 12
3.799400
 22
5.749920
 13
4.442240
 23
5.379880
  0
POLYLINE
  8
0
  6
CONTINUOUS
 66
     1
 40
0.000000
 41
0.000000
  0
VERTEX
  8
0
  6
CONTINUOUS
 10
3.806880
 20
5.813720
  0
VERTEX
  8
0
  6
CONTINUOUS
 10
4.449720
 20
5.443680
  0
VERTEX
  8
0
  6
CONTINUOUS
 10
4.442240
 20
5.379880
  0
VERTEX
  8
0
  6
CONTINUOUS
 10
3.799400
 20
5.749920
  0
VERTEX
  8
0
  6
CONTINUOUS
 10
3.806880
 20
5.813720
  0
SEQEND
  8
0
  0
SOLID
  8
0
 62
    15
 10
3.799400
 20
5.749920
 11
4.442240
 21
5.379880
 12
3.798960
 22
5.672040
 13
4.441800
 23
5.302000
  0
POLYLINE
  8
0
  6
CONTINUOUS
 66
     1
 40
0.000000
 41
0.000000
  0
VERTEX
  8
0
  6
CONTINUOUS
 10
3.799400
 20
5.749920
  0
VERTEX
  8
0
  6
CONTINUOUS
 10
4.442240
 20
5.379880
  0
VERTEX
  8
0
  6
CONTINUOUS
 10
4.441800
 20
5.302000
  0
VERTEX
  8
0
  6
CONTINUOUS
 10
3.798960
 20
5.672040
  0
VERTEX
  8
0
  6
CONTINUOUS
 10
3.799400
 20
5.749920
  0
SEQEND
  8
0
  0
SOLID
  8
0
 62
    15
 10
3.798960
 20
5.672040
 11
4.441800
 21
5.302000
 12
3.679720
 22
5.672040
 13
4.322560
 23
5.302000
  0
POLYLINE
  8
0
  6
CONTINUOUS
 66
     1
 40
0.000000
 41
0.000000
  0
VERTEX
  8
0
  6
CONTINUOUS
 10
3.798960
 20
5.672040
  0
VERTEX
  8
0
  6
CONTINUOUS
 10
4.441800
 20
5.302000
  0
VERTEX
  8
0
  6
CONTINUOUS
 10
4.322560
 20
5.302000
  0
VERTEX
  8
0
  6
CONTINUOUS
 10
3.679720
 20
5.672040
  0
VERTEX
  8
0
  6
CONTINUOUS
 10
3.798960
 20
5.672040
  0
SEQEND
  8
0
  0
SOLID
  8
0
 62
    15
 10
3.679720
 20
5.672040
 11
4.322560
 21
5.302000
 12
3.677520
 22
5.636400
 13
4.320360
 23
5.266360
  0
POLYLINE
  8
0
  6
CONTINUOUS
 66
     1
 40
0.000000
 41
0.000000
  0
VERTEX
  8
0
  6
CONTINUOUS
 10
3.679720
 20
5.672040
  0
VERTEX
  8
0
  6
CONTINUOUS
 10
4.322560
 20
5.302000
  0
VERTEX
  8
0
  6
CONTINUOUS
 10
4.320360
 20
5.266360
  0
VERTEX
  8
0
  6
CONTINUOUS
 10
3.677520
 20
5.636400
  0
VERTEX
  8
0
  6
CONTINUOUS
 10
3.679720
 20
5.672040
  0
SEQEND
  8
0
  0
SOLID
  8
0
 62
    15
 10
3.677520
 20
5.636400
 11
4.320360
 21
5.266360
 12
3.670040
 22
5.593720
 13
4.312880
 23
5.223680
  0
POLYLINE
  8
0
  6
CONTINUOUS
 66
     1
 40
0.000000
 41
0.000000
  0
VERTEX
  8
0
  6
CONTINUOUS
 10
3.677520
 20
5.636400
  0
VERTEX
  8
0
  6
CONTINUOUS
 10
4.320360
 20
5.266360
  0
VERTEX
  8
0
  6
CONTINUOUS
 10
4.312880
 20
5.223680
  0
VERTEX
  8
0
  6
CONTINUOUS
 10
3.670040
 20
5.593720
  0
VERTEX
  8
0
  6
CONTINUOUS
 10
3.677520
 20
5.636400
  0
SEQEND
  8
0
  0
SOLID
  8
0
 62
    15
 10
3.670040
 20
5.593720
 11
4.312880
 21
5.223680
 12
3.655960
 22
5.546640
 13
4.299240
 23
5.176600
  0
POLYLINE
  8
0
  6
CONTINUOUS
 66
     1
 40
0.000000
 41
0.000000
  0
VERTEX
  8
0
  6
CONTINUOUS
 10
3.670040
 20
5.593720
  0
VERTEX
  8
0
  6
CONTINUOUS
 10
4.312880
 20
5.223680
  0
VERTEX
  8
0
  6
CONTINUOUS
 10
4.299240
 20
5.176600
  0
VERTEX
  8
0
  6
CONTINUOUS
 10
3.655960
 20
5.546640
  0
VERTEX
  8
0
  6
CONTINUOUS
 10
3.670040
 20
5.593720
  0
SEQEND
  8
0
  0
SOLID
  8
0
 62
    15
 10
3.655960
 20
5.546640
 11
4.299240
 21
5.176600
 12
3.634400
 22
5.500000
 13
4.277240
 23
5.129960
  0
POLYLINE
  8
0
  6
CONTINUOUS
 66
     1
 40
0.000000
 41
0.000000
  0
VERTEX
  8
0
  6
CONTINUOUS
 10
3.655960
 20
5.546640
  0
VERTEX
  8
0
  6
CONTINUOUS
 10
4.299240
 20
5.176600
  0
VERTEX
  8
0
  6
CONTINUOUS
 10
4.277240
 20
5.129960
  0
VERTEX
  8
0
  6
CONTINUOUS
 10
3.634400
 20
5.500000
  0
VERTEX
  8
0
  6
CONTINUOUS
 10
3.655960
 20
5.546640
  0
SEQEND
  8
0
  0
SOLID
  8
0
 62
    15
 10
3.634400
 20
5.500000
 11
4.277240
 21
5.129960
 12
3.603600
 22
5.457320
 13
4.246440
 23
5.086840
  0
POLYLINE
  8
0
  6
CONTINUOUS
 66
     1
 40
0.000000
 41
0.000000
  0
VERTEX
  8
0
  6
CONTINUOUS
 10
3.634400
 20
5.500000
  0
VERTEX
  8
0
  6
CONTINUOUS
 10
4.277240
 20
5.129960
  0
VERTEX
  8
0
  6
CONTINUOUS
 10
4.246440
 20
5.086840
  0
VERTEX
  8
0
  6
CONTINUOUS
 10
3.603600
 20
5.457320
  0
VERTEX
  8
0
  6
CONTINUOUS
 10
3.634400
 20
5.500000
  0
SEQEND
  8
0
  0
SOLID
  8
0
 62
    15
 10
3.603600
 20
5.457320
 11
4.246440
 21
5.086840
 12
3.562680
 22
5.422120
 13
4.205520
 23
5.051640
  0
POLYLINE
  8
0
  6
CONTINUOUS
 66
     1
 40
0.000000
 41
0.000000
  0
VERTEX
  8
0
  6
CONTINUOUS
 10
3.603600
 20
5.457320
  0
VERTEX
  8
0
  6
CONTINUOUS
 10
4.246440
 20
5.086840
  0
VERTEX
  8
0
  6
CONTINUOUS
 10
4.205520
 20
5.051640
  0
VERTEX
  8
0
  6
CONTINUOUS
 10
3.562680
 20
5.422120
  0
VERTEX
  8
0
  6
CONTINUOUS
 10
3.603600
 20
5.457320
  0
SEQEND
  8
0
  0
SOLID
  8
0
 62
    15
 10
3.562680
 20
5.422120
 11
4.205520
 21
5.051640
 12
3.509880
 22
5.398360
 13
4.152720
 23
5.028320
  0
POLYLINE
  8
0
  6
CONTINUOUS
 66
     1
 40
0.000000
 41
0.000000
  0
VERTEX
  8
0
  6
CONTINUOUS
 10
3.562680
 20
5.422120
  0
VERTEX
  8
0
  6
CONTINUOUS
 10
4.205520
 20
5.051640
  0
VERTEX
  8
0
  6
CONTINUOUS
 10
4.152720
 20
5.028320
  0
VERTEX
  8
0
  6
CONTINUOUS
 10
3.509880
 20
5.398360
  0
VERTEX
  8
0
  6
CONTINUOUS
 10
3.562680
 20
5.422120
  0
SEQEND
  8
0
  0
SOLID
  8
0
 62
    15
 10
3.509880
 20
5.398360
 11
4.152720
 21
5.028320
 12
3.478640
 22
5.391760
 13
4.121480
 23
5.021720
  0
POLYLINE
  8
0
  6
CONTINUOUS
 66
     1
 40
0.000000
 41
0.000000
  0
VERTEX
  8
0
  6
CONTINUOUS
 10
3.509880
 20
5.398360
  0
VERTEX
  8
0
  6
CONTINUOUS
 10
4.152720
 20
5.028320
  0
VERTEX
  8
0
  6
CONTINUOUS
 10
4.121480
 20
5.021720
  0
VERTEX
  8
0
  6
CONTINUOUS
 10
3.478640
 20
5.391760
  0
VERTEX
  8
0
  6
CONTINUOUS
 10
3.509880
 20
5.398360
  0
SEQEND
  8
0
  0
SOLID
  8
0
 62
    15
 10
3.478640
 20
5.391760
 11
4.121480
 21
5.021720
 12
3.443880
 22
5.390000
 13
4.086720
 23
5.019520
  0
POLYLINE
  8
0
  6
CONTINUOUS
 66
     1
 40
0.000000
 41
0.000000
  0
VERTEX
  8
0
  6
CONTINUOUS
 10
3.478640
 20
5.391760
  0
VERTEX
  8
0
  6
CONTINUOUS
 10
4.121480
 20
5.021720
  0
VERTEX
  8
0
  6
CONTINUOUS
 10
4.086720
 20
5.019520
  0
VERTEX
  8
0
  6
CONTINUOUS
 10
3.443880
 20
5.390000
  0
VERTEX
  8
0
  6
CONTINUOUS
 10
3.478640
 20
5.391760
  0
SEQEND
  8
0
  0
SOLID
  8
0
 62
    15
 10
3.443880
 20
5.390000
 11
4.086720
 21
5.019520
 12
3.393720
 22
5.390000
 13
4.036560
 23
5.019520
  0
POLYLINE
  8
0
  6
CONTINUOUS
 66
     1
 40
0.000000
 41
0.000000
  0
VERTEX
  8
0
  6
CONTINUOUS
 10
3.443880
 20
5.390000
  0
VERTEX
  8
0
  6
CONTINUOUS
 10
4.086720
 20
5.019520
  0
VERTEX
  8
0
  6
CONTINUOUS
 10
4.036560
 20
5.019520
  0
VERTEX
  8
0
  6
CONTINUOUS
 10
3.393720
 20
5.390000
  0
VERTEX
  8
0
  6
CONTINUOUS
 10
3.443880
 20
5.390000
  0
SEQEND
  8
0
  0
POLYLINE
  8
0
  6
CONTINUOUS
 66
     1
 40
0.000000
 41
0.000000
  0
VERTEX
  8
0
  6
CONTINUOUS
 10
3.393720
 20
6.792720
  0
VERTEX
  8
0
  6
CONTINUOUS
 10
3.769920
 20
6.792720
  0
VERTEX
  8
0
  6
CONTINUOUS
 10
3.769920
 20
6.862240
  0
VERTEX
  8
0
  6
CONTINUOUS
 10
3.776960
 20
6.933960
  0
VERTEX
  8
0
  6
CONTINUOUS
 10
3.797640
 20
7.000400
  0
VERTEX
  8
0
  6
CONTINUOUS
 10
3.830640
 20
7.060680
  0
VERTEX
  8
0
  6
CONTINUOUS
 10
3.873760
 20
7.113040
  0
VERTEX
  8
0
  6
CONTINUOUS
 10
3.926120
 20
7.156600
  0
VERTEX
  8
0
  6
CONTINUOUS
 10
3.986400
 20
7.189160
  0
VERTEX
  8
0
  6
CONTINUOUS
 10
4.053280
 20
7.209840
  0
VERTEX
  8
0
  6
CONTINUOUS
 10
4.124560
 20
7.216880
  0
VERTEX
  8
0
  6
CONTINUOUS
 10
4.196280
 20
7.209840
  0
VERTEX
  8
0
  6
CONTINUOUS
 10
4.262720
 20
7.189160
  0
VERTEX
  8
0
  6
CONTINUOUS
 10
4.323000
 20
7.156600
  0
VERTEX
  8
0
  6
CONTINUOUS
 10
4.375360
 20
7.113040
  0
VERTEX
  8
0
  6
CONTINUOUS
 10
4.418920
 20
7.060680
  0
VERTEX
  8
0
  6
CONTINUOUS
 10
4.451480
 20
7.000400
  0
VERTEX
  8
0
  6
CONTINUOUS
 10
4.472160
 20
6.933960
  0
VERTEX
  8
0
  6
CONTINUOUS
 10
4.479200
 20
6.862240
  0
VERTEX
  8
0
  6
CONTINUOUS
 10
4.472600
 20
6.793600
  0
VERTEX
  8
0
  6
CONTINUOUS
 10
4.453680
 20
6.729800
  0
VERTEX
  8
0
  6
CONTINUOUS
 10
4.423320
 20
6.671280
  0
VERTEX
  8
0
  6
CONTINUOUS
 10
4.383280
 20
6.619800
  0
VERTEX
  8
0
  6
CONTINUOUS
 10
4.334440
 20
6.576240
  0
VERTEX
  8
0
  6
CONTINUOUS
 10
4.278560
 20
6.542800
  0
VERTEX
  8
0
  6
CONTINUOUS
 10
4.216080
 20
6.519480
  0
VERTEX
  8
0
  6
CONTINUOUS
 10
4.148760
 20
6.508480
  0
VERTEX
  8
0
  6
CONTINUOUS
 10
4.148760
 20
6.292000
  0
VERTEX
  8
0
  6
CONTINUOUS
 10
4.034800
 20
6.292000
  0
VERTEX
  8
0
  6
CONTINUOUS
 10
4.043160
 20
6.226000
  0
VERTEX
  8
0
  6
CONTINUOUS
 10
4.039640
 20
6.168360
  0
VERTEX
  8
0
  6
CONTINUOUS
 10
4.026880
 20
6.119080
  0
VERTEX
  8
0
  6
CONTINUOUS
 10
4.007960
 20
6.077720
  0
VERTEX
  8
0
  6
CONTINUOUS
 10
3.984640
 20
6.043840
  0
VERTEX
  8
0
  6
CONTINUOUS
 10
3.960440
 20
6.017440
  0
VERTEX
  8
0
  6
CONTINUOUS
 10
3.937120
 20
5.997640
  0
VERTEX
  8
0
  6
CONTINUOUS
 10
3.899720
 20
5.973440
  0
VERTEX
  8
0
  6
CONTINUOUS
 10
3.879040
 20
5.957600
  0
VERTEX
  8
0
  6
CONTINUOUS
 10
3.857920
 20
5.934720
  0
VERTEX
  8
0
  6
CONTINUOUS
 10
3.838120
 20
5.904360
  0
VERTEX
  8
0
  6
CONTINUOUS
 10
3.820520
 20
5.864760
  0
VERTEX
  8
0
  6
CONTINUOUS
 10
3.806880
 20
5.813720
  0
VERTEX
  8
0
  6
CONTINUOUS
 10
3.799400
 20
5.749920
  0
VERTEX
  8
0
  6
CONTINUOUS
 10
3.798960
 20
5.672040
  0
VERTEX
  8
0
  6
CONTINUOUS
 10
3.679720
 20
5.672040
  0
VERTEX
  8
0
  6
CONTINUOUS
 10
3.677520
 20
5.636400
  0
VERTEX
  8
0
  6
CONTINUOUS
 10
3.670040
 20
5.593720
  0
VERTEX
  8
0
  6
CONTINUOUS
 10
3.655960
 20
5.546640
  0
VERTEX
  8
0
  6
CONTINUOUS
 10
3.634400
 20
5.500000
  0
VERTEX
  8
0
  6
CONTINUOUS
 10
3.603600
 20
5.457320
  0
VERTEX
  8
0
  6
CONTINUOUS
 10
3.562680
 20
5.422120
  0
VERTEX
  8
0
  6
CONTINUOUS
 10
3.509880
 20
5.398360
  0
VERTEX
  8
0
  6
CONTINUOUS
 10
3.478640
 20
5.391760
  0
VERTEX
  8
0
  6
CONTINUOUS
 10
3.443880
 20
5.390000
  0
VERTEX
  8
0
  6
CONTINUOUS
 10
3.393720
 20
5.390000
  0
VERTEX
  8
0
  6
CONTINUOUS
 10
3.393720
 20
6.792720
  0
SEQEND
  8
0
  0
TEXT
  8
0
 10
3.916880
 20
4.788080
 40
0.138115
  1
BA  1240
 41
1.000000
  7
SN0
 71
     0
 72
     5
 11
4.599181
 21
4.788080
  0
TEXT
  8
0
 10
3.594800
 20
4.596680
 40
0.138115
  1
1-1/16" x 1-13/16"
 41
1.000000
  7
SN0
 71
     0
 72
     5
 11
4.918938
 21
4.596680
  0
TEXT
  8
0
 10
3.916880
 20
7.690760
 40
0.138115
  1
BA  1240
 41
1.000000
  7
SN0
 71
     0
 72
     5
 11
4.599181
 21
7.690760
  0
TEXT
  8
0
 10
3.594800
 20
7.499360
 40
0.138115
  1
1-1/16" x 1-13/16"
 41
1.000000
  7
SN0
 71
     0
 72
     5
 11
4.918938
 21
7.499360
  0
ENDSEC
  0
EOF
