  0
SECTION
  2
HEADER
  9
$ACADVER
  1
AC1006
  9
$EXTMIN
 10
3.157440
 20
2.918960
  9
$EXTMAX
 10
6.009080
 20
6.882040
  9
$LTSCALE
 40
0.044000
  9
$PDMODE
 70
    35
  9
$PDSIZE
 40
0.035200
  0
ENDSEC
  0
SECTION
  2
TABLES
  0
TABLE
  2
LTYPE
 70
     9
  0
LTYPE
  2
CONTINUOUS
 70
    64
  3
Solid line
 72
    65
 73
     0
 40
0.000000
  0
LTYPE
  2
DASHED
 70
    64
  3
__ __ __ __ __ __ __ __ __ __ __ __ __ __ __
 72
    65
 73
     2
 40
0.000330
 49
0.000220
 49
-0.000110
  0
LTYPE
  2
HIDDEN
 70
    64
  3
 _ _ _ _ _ _ _ _ _ _ _ _ _ _ _ _ _ _ _ _ _ _
 72
    65
 73
     2
 40
0.000165
 49
0.000110
 49
-0.000055
  0
LTYPE
  2
CENTER
 70
    64
  3
____ _ ____ _ ____ _ ____ _ ____ _ ____ _ ____
 72
    65
 73
     4
 40
0.000880
 49
0.000550
 49
-0.000110
 49
0.000110
 49
-0.000110
  0
LTYPE
  2
PHANTOM
 70
    64
  3
_____ _ _ _____ _ _ _____ _ _ _____ _ _ ____
 72
    65
 73
     6
 40
0.001100
 49
0.000550
 49
-0.000110
 49
0.000110
 49
-0.000110
 49
0.000110
 49
-0.000110
  0
LTYPE
  2
DOT
 70
    64
  3
...............................................
 72
    65
 73
     2
 40
0.000110
 49
0.000000
 49
-0.000110
  0
LTYPE
  2
DASHDOT
 70
    64
  3
__ . __ . __ . __ . __ . __ . __ . __ . __ . __
 72
    65
 73
     4
 40
0.000440
 49
0.000220
 49
-0.000110
 49
0.000000
 49
-0.000110
  0
LTYPE
  2
BORDER
 70
    64
  3
__ __ . __ __ . __ __ . __ __ . __ __ . __ __
 72
    65
 73
     6
 40
0.000770
 49
0.000220
 49
-0.000110
 49
0.000220
 49
-0.000110
 49
0.000000
 49
-0.000110
  0
LTYPE
  2
DIVIDE
 70
    64
  3
__ . . __ . . __ . . __ . . __ . . __ . . __
 72
    65
 73
     6
 40
0.000550
 49
0.000220
 49
-0.000110
 49
0.000000
 49
-0.000110
 49
0.000000
 49
-0.000110
  0
LTYPE
  2
DOTDOT
 70
    64
  3
 . .  . .  . .  . .  . .  . . 
 72
    65
 73
     5
 40
0.000242
 49
-0.000110
 49
0.000000
 49
-0.000110
 49
0.000000
 49
-0.000110
  0
ENDTAB
  0
TABLE
  2
STYLE
 70
     2
  0
STYLE
 70
     0
  2
SN0
 40
0.000000
 41
0.000440
 50
0.000000
 71
     0
 42
0.000000
  3
ROMAND
  0
STYLE
 70
    68
  2
SV0
 40
0.000000
 41
0.000440
 50
0.000000
 71
     0
 42
0.000000
  3
ROMAND
  0
ENDTAB
  0
TABLE
  2
LAYER
 70
     3
  0
LAYER
  2
FOREGROUND
 70
    64
 62
     7
  6
CONTINUOUS
  0
LAYER
  2
BACKGROUND
 70
    65
 62
    -7
  6
CONTINUOUS
  0
LAYER
  2
0
 70
    64
 62
     7
  6
CONTINUOUS
  0
ENDTAB
  0
ENDSEC
  0
SECTION
  2
ENTITIES
  0
POLYLINE
  8
FOREGROUND
  6
CONTINUOUS
 66
     1
 40
0.000000
 41
0.000000
  0
VERTEX
  8
FOREGROUND
  6
CONTINUOUS
 10
0.000000
 20
9.801000
  0
VERTEX
  8
FOREGROUND
  6
CONTINUOUS
 10
8.499920
 20
9.801000
  0
VERTEX
  8
FOREGROUND
  6
CONTINUOUS
 10
8.499920
 20
-1.199000
  0
VERTEX
  8
FOREGROUND
  6
CONTINUOUS
 10
0.000000
 20
-1.199000
  0
VERTEX
  8
FOREGROUND
  6
CONTINUOUS
 10
0.000000
 20
9.801000
  0
SEQEND
  8
0
  0
POLYLINE
  8
FOREGROUND
  6
CONTINUOUS
 66
     1
 40
0.000000
 41
0.000000
  0
VERTEX
  8
FOREGROUND
  6
CONTINUOUS
 10
0.000000
 20
9.801000
  0
VERTEX
  8
FOREGROUND
  6
CONTINUOUS
 10
8.499920
 20
9.801000
  0
VERTEX
  8
FOREGROUND
  6
CONTINUOUS
 10
8.499920
 20
-1.199000
  0
VERTEX
  8
FOREGROUND
  6
CONTINUOUS
 10
0.000000
 20
-1.199000
  0
VERTEX
  8
FOREGROUND
  6
CONTINUOUS
 10
0.000000
 20
9.801000
  0
SEQEND
  8
0
  0
POLYLINE
  8
0
  6
CONTINUOUS
 66
     1
 40
0.014080
 41
0.014080
  0
VERTEX
  8
0
  6
CONTINUOUS
 10
5.206960
 20
5.817240
  0
VERTEX
  8
0
  6
CONTINUOUS
 10
5.998960
 20
6.609240
  0
VERTEX
  8
0
  6
CONTINUOUS
 10
5.736280
 20
6.871920
  0
VERTEX
  8
0
  6
CONTINUOUS
 10
5.675560
 20
6.814280
  0
VERTEX
  8
0
  6
CONTINUOUS
 10
5.612640
 20
6.760160
  0
VERTEX
  8
0
  6
CONTINUOUS
 10
5.547520
 20
6.709560
  0
VERTEX
  8
0
  6
CONTINUOUS
 10
5.480640
 20
6.662920
  0
VERTEX
  8
0
  6
CONTINUOUS
 10
5.412000
 20
6.620240
  0
VERTEX
  8
0
  6
CONTINUOUS
 10
5.341600
 20
6.581080
  0
VERTEX
  8
0
  6
CONTINUOUS
 10
5.269880
 20
6.545440
  0
VERTEX
  8
0
  6
CONTINUOUS
 10
5.196840
 20
6.513760
  0
VERTEX
  8
0
  6
CONTINUOUS
 10
5.122920
 20
6.485600
  0
VERTEX
  8
0
  6
CONTINUOUS
 10
5.047680
 20
6.461400
  0
VERTEX
  8
0
  6
CONTINUOUS
 10
4.971560
 20
6.441160
  0
VERTEX
  8
0
  6
CONTINUOUS
 10
4.895000
 20
6.424440
  0
VERTEX
  8
0
  6
CONTINUOUS
 10
4.817560
 20
6.411240
  0
VERTEX
  8
0
  6
CONTINUOUS
 10
4.739680
 20
6.402000
  0
VERTEX
  8
0
  6
CONTINUOUS
 10
4.661800
 20
6.396280
  0
VERTEX
  8
0
  6
CONTINUOUS
 10
4.583480
 20
6.394520
  0
VERTEX
  8
0
  6
CONTINUOUS
 10
4.505160
 20
6.396280
  0
VERTEX
  8
0
  6
CONTINUOUS
 10
4.427280
 20
6.402000
  0
VERTEX
  8
0
  6
CONTINUOUS
 10
4.349400
 20
6.411240
  0
VERTEX
  8
0
  6
CONTINUOUS
 10
4.272400
 20
6.424440
  0
VERTEX
  8
0
  6
CONTINUOUS
 10
4.195400
 20
6.441160
  0
VERTEX
  8
0
  6
CONTINUOUS
 10
4.119280
 20
6.461400
  0
VERTEX
  8
0
  6
CONTINUOUS
 10
4.044480
 20
6.485600
  0
VERTEX
  8
0
  6
CONTINUOUS
 10
3.970120
 20
6.513760
  0
VERTEX
  8
0
  6
CONTINUOUS
 10
3.897080
 20
6.545440
  0
VERTEX
  8
0
  6
CONTINUOUS
 10
3.825360
 20
6.581080
  0
VERTEX
  8
0
  6
CONTINUOUS
 10
3.755400
 20
6.620240
  0
VERTEX
  8
0
  6
CONTINUOUS
 10
3.686760
 20
6.662920
  0
VERTEX
  8
0
  6
CONTINUOUS
 10
3.619880
 20
6.709560
  0
VERTEX
  8
0
  6
CONTINUOUS
 10
3.554760
 20
6.760160
  0
VERTEX
  8
0
  6
CONTINUOUS
 10
3.491840
 20
6.814280
  0
VERTEX
  8
0
  6
CONTINUOUS
 10
3.431120
 20
6.871920
  0
VERTEX
  8
0
  6
CONTINUOUS
 10
3.168000
 20
6.608800
  0
VERTEX
  8
0
  6
CONTINUOUS
 10
3.971880
 20
5.805360
  0
VERTEX
  8
0
  6
CONTINUOUS
 10
5.206960
 20
5.817240
  0
SEQEND
  8
0
  0
SOLID
  8
0
 62
    15
 10
4.098160
 20
4.452800
 11
4.734400
 21
4.087160
 12
3.993000
 22
4.337080
 13
4.629240
 23
3.971440
  0
POLYLINE
  8
0
  6
CONTINUOUS
 66
     1
 40
0.000000
 41
0.000000
  0
VERTEX
  8
0
  6
CONTINUOUS
 10
4.098160
 20
4.452800
  0
VERTEX
  8
0
  6
CONTINUOUS
 10
4.734400
 20
4.087160
  0
VERTEX
  8
0
  6
CONTINUOUS
 10
4.629240
 20
3.971440
  0
VERTEX
  8
0
  6
CONTINUOUS
 10
3.993000
 20
4.337080
  0
VERTEX
  8
0
  6
CONTINUOUS
 10
4.098160
 20
4.452800
  0
SEQEND
  8
0
  0
SOLID
  8
0
 62
    15
 10
5.250960
 20
4.930200
 11
5.887200
 21
4.564560
 12
5.084200
 22
4.921840
 13
5.720440
 23
4.556200
  0
POLYLINE
  8
0
  6
CONTINUOUS
 66
     1
 40
0.000000
 41
0.000000
  0
VERTEX
  8
0
  6
CONTINUOUS
 10
5.250960
 20
4.930200
  0
VERTEX
  8
0
  6
CONTINUOUS
 10
5.887200
 20
4.564560
  0
VERTEX
  8
0
  6
CONTINUOUS
 10
5.720440
 20
4.556200
  0
VERTEX
  8
0
  6
CONTINUOUS
 10
5.084200
 20
4.921840
  0
VERTEX
  8
0
  6
CONTINUOUS
 10
5.250960
 20
4.930200
  0
SEQEND
  8
0
  0
SOLID
  8
0
 62
    15
 10
5.084200
 20
4.921840
 11
5.720440
 21
4.556200
 12
4.922280
 22
4.897200
 13
5.558520
 23
4.531120
  0
POLYLINE
  8
0
  6
CONTINUOUS
 66
     1
 40
0.000000
 41
0.000000
  0
VERTEX
  8
0
  6
CONTINUOUS
 10
5.084200
 20
4.921840
  0
VERTEX
  8
0
  6
CONTINUOUS
 10
5.720440
 20
4.556200
  0
VERTEX
  8
0
  6
CONTINUOUS
 10
5.558520
 20
4.531120
  0
VERTEX
  8
0
  6
CONTINUOUS
 10
4.922280
 20
4.897200
  0
VERTEX
  8
0
  6
CONTINUOUS
 10
5.084200
 20
4.921840
  0
SEQEND
  8
0
  0
SOLID
  8
0
 62
    15
 10
4.922280
 20
4.897200
 11
5.558520
 21
4.531120
 12
4.766080
 22
4.856720
 13
5.402320
 23
4.491080
  0
POLYLINE
  8
0
  6
CONTINUOUS
 66
     1
 40
0.000000
 41
0.000000
  0
VERTEX
  8
0
  6
CONTINUOUS
 10
4.922280
 20
4.897200
  0
VERTEX
  8
0
  6
CONTINUOUS
 10
5.558520
 20
4.531120
  0
VERTEX
  8
0
  6
CONTINUOUS
 10
5.402320
 20
4.491080
  0
VERTEX
  8
0
  6
CONTINUOUS
 10
4.766080
 20
4.856720
  0
VERTEX
  8
0
  6
CONTINUOUS
 10
4.922280
 20
4.897200
  0
SEQEND
  8
0
  0
SOLID
  8
0
 62
    15
 10
4.766080
 20
4.856720
 11
5.402320
 21
4.491080
 12
4.616480
 22
4.802160
 13
5.252720
 23
4.436520
  0
POLYLINE
  8
0
  6
CONTINUOUS
 66
     1
 40
0.000000
 41
0.000000
  0
VERTEX
  8
0
  6
CONTINUOUS
 10
4.766080
 20
4.856720
  0
VERTEX
  8
0
  6
CONTINUOUS
 10
5.402320
 20
4.491080
  0
VERTEX
  8
0
  6
CONTINUOUS
 10
5.252720
 20
4.436520
  0
VERTEX
  8
0
  6
CONTINUOUS
 10
4.616480
 20
4.802160
  0
VERTEX
  8
0
  6
CONTINUOUS
 10
4.766080
 20
4.856720
  0
SEQEND
  8
0
  0
SOLID
  8
0
 62
    15
 10
4.616480
 20
4.802160
 11
5.252720
 21
4.436520
 12
4.473920
 22
4.733520
 13
5.110160
 23
4.367880
  0
POLYLINE
  8
0
  6
CONTINUOUS
 66
     1
 40
0.000000
 41
0.000000
  0
VERTEX
  8
0
  6
CONTINUOUS
 10
4.616480
 20
4.802160
  0
VERTEX
  8
0
  6
CONTINUOUS
 10
5.252720
 20
4.436520
  0
VERTEX
  8
0
  6
CONTINUOUS
 10
5.110160
 20
4.367880
  0
VERTEX
  8
0
  6
CONTINUOUS
 10
4.473920
 20
4.733520
  0
VERTEX
  8
0
  6
CONTINUOUS
 10
4.616480
 20
4.802160
  0
SEQEND
  8
0
  0
SOLID
  8
0
 62
    15
 10
4.473920
 20
4.733520
 11
5.110160
 21
4.367880
 12
4.339280
 22
4.651680
 13
4.975960
 23
4.286040
  0
POLYLINE
  8
0
  6
CONTINUOUS
 66
     1
 40
0.000000
 41
0.000000
  0
VERTEX
  8
0
  6
CONTINUOUS
 10
4.473920
 20
4.733520
  0
VERTEX
  8
0
  6
CONTINUOUS
 10
5.110160
 20
4.367880
  0
VERTEX
  8
0
  6
CONTINUOUS
 10
4.975960
 20
4.286040
  0
VERTEX
  8
0
  6
CONTINUOUS
 10
4.339280
 20
4.651680
  0
VERTEX
  8
0
  6
CONTINUOUS
 10
4.473920
 20
4.733520
  0
SEQEND
  8
0
  0
SOLID
  8
0
 62
    15
 10
4.339280
 20
4.651680
 11
4.975960
 21
4.286040
 12
4.213880
 22
4.557960
 13
4.850120
 23
4.192320
  0
POLYLINE
  8
0
  6
CONTINUOUS
 66
     1
 40
0.000000
 41
0.000000
  0
VERTEX
  8
0
  6
CONTINUOUS
 10
4.339280
 20
4.651680
  0
VERTEX
  8
0
  6
CONTINUOUS
 10
4.975960
 20
4.286040
  0
VERTEX
  8
0
  6
CONTINUOUS
 10
4.850120
 20
4.192320
  0
VERTEX
  8
0
  6
CONTINUOUS
 10
4.213880
 20
4.557960
  0
VERTEX
  8
0
  6
CONTINUOUS
 10
4.339280
 20
4.651680
  0
SEQEND
  8
0
  0
SOLID
  8
0
 62
    15
 10
4.213880
 20
4.557960
 11
4.850120
 21
4.192320
 12
4.098160
 22
4.452800
 13
4.734400
 23
4.087160
  0
POLYLINE
  8
0
  6
CONTINUOUS
 66
     1
 40
0.000000
 41
0.000000
  0
VERTEX
  8
0
  6
CONTINUOUS
 10
4.213880
 20
4.557960
  0
VERTEX
  8
0
  6
CONTINUOUS
 10
4.850120
 20
4.192320
  0
VERTEX
  8
0
  6
CONTINUOUS
 10
4.734400
 20
4.087160
  0
VERTEX
  8
0
  6
CONTINUOUS
 10
4.098160
 20
4.452800
  0
VERTEX
  8
0
  6
CONTINUOUS
 10
4.213880
 20
4.557960
  0
SEQEND
  8
0
  0
SOLID
  8
0
 62
    15
 10
5.250960
 20
5.302000
 11
5.887200
 21
4.935920
 12
5.250960
 22
4.930200
 13
5.887200
 23
4.564560
  0
POLYLINE
  8
0
  6
CONTINUOUS
 66
     1
 40
0.000000
 41
0.000000
  0
VERTEX
  8
0
  6
CONTINUOUS
 10
5.250960
 20
5.302000
  0
VERTEX
  8
0
  6
CONTINUOUS
 10
5.887200
 20
4.935920
  0
VERTEX
  8
0
  6
CONTINUOUS
 10
5.887200
 20
4.564560
  0
VERTEX
  8
0
  6
CONTINUOUS
 10
5.250960
 20
4.930200
  0
VERTEX
  8
0
  6
CONTINUOUS
 10
5.250960
 20
5.302000
  0
SEQEND
  8
0
  0
SOLID
  8
0
 62
    15
 10
3.993000
 20
4.337080
 11
4.629240
 21
3.971440
 12
3.899280
 22
4.211680
 13
4.535520
 23
3.845600
  0
POLYLINE
  8
0
  6
CONTINUOUS
 66
     1
 40
0.000000
 41
0.000000
  0
VERTEX
  8
0
  6
CONTINUOUS
 10
3.993000
 20
4.337080
  0
VERTEX
  8
0
  6
CONTINUOUS
 10
4.629240
 20
3.971440
  0
VERTEX
  8
0
  6
CONTINUOUS
 10
4.535520
 20
3.845600
  0
VERTEX
  8
0
  6
CONTINUOUS
 10
3.899280
 20
4.211680
  0
VERTEX
  8
0
  6
CONTINUOUS
 10
3.993000
 20
4.337080
  0
SEQEND
  8
0
  0
SOLID
  8
0
 62
    15
 10
3.899280
 20
4.211680
 11
4.535520
 21
3.845600
 12
3.817440
 22
4.077040
 13
4.453680
 23
3.711400
  0
POLYLINE
  8
0
  6
CONTINUOUS
 66
     1
 40
0.000000
 41
0.000000
  0
VERTEX
  8
0
  6
CONTINUOUS
 10
3.899280
 20
4.211680
  0
VERTEX
  8
0
  6
CONTINUOUS
 10
4.535520
 20
3.845600
  0
VERTEX
  8
0
  6
CONTINUOUS
 10
4.453680
 20
3.711400
  0
VERTEX
  8
0
  6
CONTINUOUS
 10
3.817440
 20
4.077040
  0
VERTEX
  8
0
  6
CONTINUOUS
 10
3.899280
 20
4.211680
  0
SEQEND
  8
0
  0
SOLID
  8
0
 62
    15
 10
3.817440
 20
4.077040
 11
4.453680
 21
3.711400
 12
3.748800
 22
3.934480
 13
4.385040
 23
3.568840
  0
POLYLINE
  8
0
  6
CONTINUOUS
 66
     1
 40
0.000000
 41
0.000000
  0
VERTEX
  8
0
  6
CONTINUOUS
 10
3.817440
 20
4.077040
  0
VERTEX
  8
0
  6
CONTINUOUS
 10
4.453680
 20
3.711400
  0
VERTEX
  8
0
  6
CONTINUOUS
 10
4.385040
 20
3.568840
  0
VERTEX
  8
0
  6
CONTINUOUS
 10
3.748800
 20
3.934480
  0
VERTEX
  8
0
  6
CONTINUOUS
 10
3.817440
 20
4.077040
  0
SEQEND
  8
0
  0
SOLID
  8
0
 62
    15
 10
3.748800
 20
3.934480
 11
4.385040
 21
3.568840
 12
3.694240
 22
3.784880
 13
4.330480
 23
3.419240
  0
POLYLINE
  8
0
  6
CONTINUOUS
 66
     1
 40
0.000000
 41
0.000000
  0
VERTEX
  8
0
  6
CONTINUOUS
 10
3.748800
 20
3.934480
  0
VERTEX
  8
0
  6
CONTINUOUS
 10
4.385040
 20
3.568840
  0
VERTEX
  8
0
  6
CONTINUOUS
 10
4.330480
 20
3.419240
  0
VERTEX
  8
0
  6
CONTINUOUS
 10
3.694240
 20
3.784880
  0
VERTEX
  8
0
  6
CONTINUOUS
 10
3.748800
 20
3.934480
  0
SEQEND
  8
0
  0
SOLID
  8
0
 62
    15
 10
3.694240
 20
3.784880
 11
4.330480
 21
3.419240
 12
3.653760
 22
3.628680
 13
4.290000
 23
3.263040
  0
POLYLINE
  8
0
  6
CONTINUOUS
 66
     1
 40
0.000000
 41
0.000000
  0
VERTEX
  8
0
  6
CONTINUOUS
 10
3.694240
 20
3.784880
  0
VERTEX
  8
0
  6
CONTINUOUS
 10
4.330480
 20
3.419240
  0
VERTEX
  8
0
  6
CONTINUOUS
 10
4.290000
 20
3.263040
  0
VERTEX
  8
0
  6
CONTINUOUS
 10
3.653760
 20
3.628680
  0
VERTEX
  8
0
  6
CONTINUOUS
 10
3.694240
 20
3.784880
  0
SEQEND
  8
0
  0
SOLID
  8
0
 62
    15
 10
3.653760
 20
3.628680
 11
4.290000
 21
3.263040
 12
3.629120
 22
3.466760
 13
4.265360
 23
3.101120
  0
POLYLINE
  8
0
  6
CONTINUOUS
 66
     1
 40
0.000000
 41
0.000000
  0
VERTEX
  8
0
  6
CONTINUOUS
 10
3.653760
 20
3.628680
  0
VERTEX
  8
0
  6
CONTINUOUS
 10
4.290000
 20
3.263040
  0
VERTEX
  8
0
  6
CONTINUOUS
 10
4.265360
 20
3.101120
  0
VERTEX
  8
0
  6
CONTINUOUS
 10
3.629120
 20
3.466760
  0
VERTEX
  8
0
  6
CONTINUOUS
 10
3.653760
 20
3.628680
  0
SEQEND
  8
0
  0
SOLID
  8
0
 62
    15
 10
3.629120
 20
3.466760
 11
4.265360
 21
3.101120
 12
3.620760
 22
3.300000
 13
4.257000
 23
2.934360
  0
POLYLINE
  8
0
  6
CONTINUOUS
 66
     1
 40
0.000000
 41
0.000000
  0
VERTEX
  8
0
  6
CONTINUOUS
 10
3.629120
 20
3.466760
  0
VERTEX
  8
0
  6
CONTINUOUS
 10
4.265360
 20
3.101120
  0
VERTEX
  8
0
  6
CONTINUOUS
 10
4.257000
 20
2.934360
  0
VERTEX
  8
0
  6
CONTINUOUS
 10
3.620760
 20
3.300000
  0
VERTEX
  8
0
  6
CONTINUOUS
 10
3.629120
 20
3.466760
  0
SEQEND
  8
0
  0
SOLID
  8
0
 62
    15
 10
3.620760
 20
3.300000
 11
4.257000
 21
2.934360
 12
3.249400
 22
3.300000
 13
3.885640
 23
2.934360
  0
POLYLINE
  8
0
  6
CONTINUOUS
 66
     1
 40
0.000000
 41
0.000000
  0
VERTEX
  8
0
  6
CONTINUOUS
 10
3.620760
 20
3.300000
  0
VERTEX
  8
0
  6
CONTINUOUS
 10
4.257000
 20
2.934360
  0
VERTEX
  8
0
  6
CONTINUOUS
 10
3.885640
 20
2.934360
  0
VERTEX
  8
0
  6
CONTINUOUS
 10
3.249400
 20
3.300000
  0
VERTEX
  8
0
  6
CONTINUOUS
 10
3.620760
 20
3.300000
  0
SEQEND
  8
0
  0
POLYLINE
  8
0
  6
CONTINUOUS
 66
     1
 40
0.000000
 41
0.000000
  0
VERTEX
  8
0
  6
CONTINUOUS
 10
4.114440
 20
5.302000
  0
VERTEX
  8
0
  6
CONTINUOUS
 10
5.250960
 20
5.302000
  0
VERTEX
  8
0
  6
CONTINUOUS
 10
5.250960
 20
4.930200
  0
VERTEX
  8
0
  6
CONTINUOUS
 10
5.084200
 20
4.921840
  0
VERTEX
  8
0
  6
CONTINUOUS
 10
4.922280
 20
4.897200
  0
VERTEX
  8
0
  6
CONTINUOUS
 10
4.766080
 20
4.856720
  0
VERTEX
  8
0
  6
CONTINUOUS
 10
4.616480
 20
4.802160
  0
VERTEX
  8
0
  6
CONTINUOUS
 10
4.473920
 20
4.733520
  0
VERTEX
  8
0
  6
CONTINUOUS
 10
4.339280
 20
4.651680
  0
VERTEX
  8
0
  6
CONTINUOUS
 10
4.213880
 20
4.557960
  0
VERTEX
  8
0
  6
CONTINUOUS
 10
4.098160
 20
4.452800
  0
VERTEX
  8
0
  6
CONTINUOUS
 10
3.993000
 20
4.337080
  0
VERTEX
  8
0
  6
CONTINUOUS
 10
3.899280
 20
4.211680
  0
VERTEX
  8
0
  6
CONTINUOUS
 10
3.817440
 20
4.077040
  0
VERTEX
  8
0
  6
CONTINUOUS
 10
3.748800
 20
3.934480
  0
VERTEX
  8
0
  6
CONTINUOUS
 10
3.694240
 20
3.784880
  0
VERTEX
  8
0
  6
CONTINUOUS
 10
3.653760
 20
3.628680
  0
VERTEX
  8
0
  6
CONTINUOUS
 10
3.629120
 20
3.466760
  0
VERTEX
  8
0
  6
CONTINUOUS
 10
3.620760
 20
3.300000
  0
VERTEX
  8
0
  6
CONTINUOUS
 10
3.249400
 20
3.300000
  0
VERTEX
  8
0
  6
CONTINUOUS
 10
3.249400
 20
4.420240
  0
VERTEX
  8
0
  6
CONTINUOUS
 10
4.114440
 20
5.302000
  0
SEQEND
  8
0
  0
TEXT
  8
0
 10
4.587880
 20
3.162280
 40
0.138052
  1
BA  1238
 41
1.000000
  7
SN0
 71
     0
 72
     5
 11
5.269530
 21
3.162280
  0
TEXT
  8
0
 10
4.547400
 20
2.970880
 40
0.138052
  1
1" x 2-7/8"
 41
1.000000
  7
SN0
 71
     0
 72
     5
 11
5.308906
 21
2.970880
  0
TEXT
  8
0
 10
4.274160
 20
6.087400
 40
0.138052
  1
BA  1238
 41
1.000000
  7
SN0
 71
     0
 72
     5
 11
4.955810
 21
6.087400
  0
TEXT
  8
0
 10
4.233680
 20
5.896000
 40
0.138052
  1
1" x 2-7/8"
 41
1.000000
  7
SN0
 71
     0
 72
     5
 11
4.995186
 21
5.896000
  0
ENDSEC
  0
EOF
