  0
SECTION
  2
HEADER
  9
$ACADVER
  1
AC1006
  9
$EXTMIN
 10
2.780360
 20
2.326720
  9
$EXTMAX
 10
6.008640
 20
7.029440
  9
$LTSCALE
 40
0.044000
  9
$PDMODE
 70
    35
  9
$PDSIZE
 40
0.035200
  0
ENDSEC
  0
SECTION
  2
TABLES
  0
TABLE
  2
LTYPE
 70
     9
  0
LTYPE
  2
CONTINUOUS
 70
    64
  3
Solid line
 72
    65
 73
     0
 40
0.000000
  0
LTYPE
  2
DASHED
 70
    64
  3
__ __ __ __ __ __ __ __ __ __ __ __ __ __ __
 72
    65
 73
     2
 40
0.000330
 49
0.000220
 49
-0.000110
  0
LTYPE
  2
HIDDEN
 70
    64
  3
 _ _ _ _ _ _ _ _ _ _ _ _ _ _ _ _ _ _ _ _ _ _
 72
    65
 73
     2
 40
0.000165
 49
0.000110
 49
-0.000055
  0
LTYPE
  2
CENTER
 70
    64
  3
____ _ ____ _ ____ _ ____ _ ____ _ ____ _ ____
 72
    65
 73
     4
 40
0.000880
 49
0.000550
 49
-0.000110
 49
0.000110
 49
-0.000110
  0
LTYPE
  2
PHANTOM
 70
    64
  3
_____ _ _ _____ _ _ _____ _ _ _____ _ _ ____
 72
    65
 73
     6
 40
0.001100
 49
0.000550
 49
-0.000110
 49
0.000110
 49
-0.000110
 49
0.000110
 49
-0.000110
  0
LTYPE
  2
DOT
 70
    64
  3
...............................................
 72
    65
 73
     2
 40
0.000110
 49
0.000000
 49
-0.000110
  0
LTYPE
  2
DASHDOT
 70
    64
  3
__ . __ . __ . __ . __ . __ . __ . __ . __ . __
 72
    65
 73
     4
 40
0.000440
 49
0.000220
 49
-0.000110
 49
0.000000
 49
-0.000110
  0
LTYPE
  2
BORDER
 70
    64
  3
__ __ . __ __ . __ __ . __ __ . __ __ . __ __
 72
    65
 73
     6
 40
0.000770
 49
0.000220
 49
-0.000110
 49
0.000220
 49
-0.000110
 49
0.000000
 49
-0.000110
  0
LTYPE
  2
DIVIDE
 70
    64
  3
__ . . __ . . __ . . __ . . __ . . __ . . __
 72
    65
 73
     6
 40
0.000550
 49
0.000220
 49
-0.000110
 49
0.000000
 49
-0.000110
 49
0.000000
 49
-0.000110
  0
LTYPE
  2
DOTDOT
 70
    64
  3
 . .  . .  . .  . .  . .  . . 
 72
    65
 73
     5
 40
0.000242
 49
-0.000110
 49
0.000000
 49
-0.000110
 49
0.000000
 49
-0.000110
  0
ENDTAB
  0
TABLE
  2
STYLE
 70
     2
  0
STYLE
 70
     0
  2
SN0
 40
0.000000
 41
0.000440
 50
0.000000
 71
     0
 42
0.000000
  3
ROMAND
  0
STYLE
 70
    68
  2
SV0
 40
0.000000
 41
0.000440
 50
0.000000
 71
     0
 42
0.000000
  3
ROMAND
  0
ENDTAB
  0
TABLE
  2
LAYER
 70
     3
  0
LAYER
  2
FOREGROUND
 70
    64
 62
     7
  6
CONTINUOUS
  0
LAYER
  2
BACKGROUND
 70
    65
 62
    -7
  6
CONTINUOUS
  0
LAYER
  2
0
 70
    64
 62
     7
  6
CONTINUOUS
  0
ENDTAB
  0
ENDSEC
  0
SECTION
  2
ENTITIES
  0
POLYLINE
  8
FOREGROUND
  6
CONTINUOUS
 66
     1
 40
0.000000
 41
0.000000
  0
VERTEX
  8
FOREGROUND
  6
CONTINUOUS
 10
0.000000
 20
9.356160
  0
VERTEX
  8
FOREGROUND
  6
CONTINUOUS
 10
8.499920
 20
9.356160
  0
VERTEX
  8
FOREGROUND
  6
CONTINUOUS
 10
8.499920
 20
-1.643840
  0
VERTEX
  8
FOREGROUND
  6
CONTINUOUS
 10
0.000000
 20
-1.643840
  0
VERTEX
  8
FOREGROUND
  6
CONTINUOUS
 10
0.000000
 20
9.356160
  0
SEQEND
  8
0
  0
POLYLINE
  8
FOREGROUND
  6
CONTINUOUS
 66
     1
 40
0.000000
 41
0.000000
  0
VERTEX
  8
FOREGROUND
  6
CONTINUOUS
 10
0.000000
 20
9.356160
  0
VERTEX
  8
FOREGROUND
  6
CONTINUOUS
 10
8.499920
 20
9.356160
  0
VERTEX
  8
FOREGROUND
  6
CONTINUOUS
 10
8.499920
 20
-1.643840
  0
VERTEX
  8
FOREGROUND
  6
CONTINUOUS
 10
0.000000
 20
-1.643840
  0
VERTEX
  8
FOREGROUND
  6
CONTINUOUS
 10
0.000000
 20
9.356160
  0
SEQEND
  8
0
  0
POLYLINE
  8
0
  6
CONTINUOUS
 66
     1
 40
0.014080
 41
0.014080
  0
VERTEX
  8
0
  6
CONTINUOUS
 10
5.125560
 20
5.927680
  0
VERTEX
  8
0
  6
CONTINUOUS
 10
5.956280
 20
6.758400
  0
VERTEX
  8
0
  6
CONTINUOUS
 10
5.695800
 20
7.018880
  0
VERTEX
  8
0
  6
CONTINUOUS
 10
5.625840
 20
6.952440
  0
VERTEX
  8
0
  6
CONTINUOUS
 10
5.553680
 20
6.890400
  0
VERTEX
  8
0
  6
CONTINUOUS
 10
5.479320
 20
6.832760
  0
VERTEX
  8
0
  6
CONTINUOUS
 10
5.402320
 20
6.779520
  0
VERTEX
  8
0
  6
CONTINUOUS
 10
5.323560
 20
6.730240
  0
VERTEX
  8
0
  6
CONTINUOUS
 10
5.243040
 20
6.685360
  0
VERTEX
  8
0
  6
CONTINUOUS
 10
5.160760
 20
6.644440
  0
VERTEX
  8
0
  6
CONTINUOUS
 10
5.077160
 20
6.608360
  0
VERTEX
  8
0
  6
CONTINUOUS
 10
4.992240
 20
6.576240
  0
VERTEX
  8
0
  6
CONTINUOUS
 10
4.906000
 20
6.548520
  0
VERTEX
  8
0
  6
CONTINUOUS
 10
4.818440
 20
6.524760
  0
VERTEX
  8
0
  6
CONTINUOUS
 10
4.730440
 20
6.505840
  0
VERTEX
  8
0
  6
CONTINUOUS
 10
4.642000
 20
6.490440
  0
VERTEX
  8
0
  6
CONTINUOUS
 10
4.552680
 20
6.479880
  0
VERTEX
  8
0
  6
CONTINUOUS
 10
4.462920
 20
6.473720
  0
VERTEX
  8
0
  6
CONTINUOUS
 10
4.373600
 20
6.471520
  0
VERTEX
  8
0
  6
CONTINUOUS
 10
4.283840
 20
6.473720
  0
VERTEX
  8
0
  6
CONTINUOUS
 10
4.194080
 20
6.479880
  0
VERTEX
  8
0
  6
CONTINUOUS
 10
4.105200
 20
6.490440
  0
VERTEX
  8
0
  6
CONTINUOUS
 10
4.016320
 20
6.505840
  0
VERTEX
  8
0
  6
CONTINUOUS
 10
3.928320
 20
6.524760
  0
VERTEX
  8
0
  6
CONTINUOUS
 10
3.841200
 20
6.548520
  0
VERTEX
  8
0
  6
CONTINUOUS
 10
3.754960
 20
6.576240
  0
VERTEX
  8
0
  6
CONTINUOUS
 10
3.670040
 20
6.608360
  0
VERTEX
  8
0
  6
CONTINUOUS
 10
3.586000
 20
6.644440
  0
VERTEX
  8
0
  6
CONTINUOUS
 10
3.503720
 20
6.685360
  0
VERTEX
  8
0
  6
CONTINUOUS
 10
3.423200
 20
6.730240
  0
VERTEX
  8
0
  6
CONTINUOUS
 10
3.344440
 20
6.779520
  0
VERTEX
  8
0
  6
CONTINUOUS
 10
3.267880
 20
6.832760
  0
VERTEX
  8
0
  6
CONTINUOUS
 10
3.193520
 20
6.890400
  0
VERTEX
  8
0
  6
CONTINUOUS
 10
3.120920
 20
6.952440
  0
VERTEX
  8
0
  6
CONTINUOUS
 10
3.051400
 20
7.018880
  0
VERTEX
  8
0
  6
CONTINUOUS
 10
2.790920
 20
6.758840
  0
VERTEX
  8
0
  6
CONTINUOUS
 10
3.621640
 20
5.927680
  0
VERTEX
  8
0
  6
CONTINUOUS
 10
5.125560
 20
5.927680
  0
SEQEND
  8
0
  0
TEXT
  8
0
 10
4.036120
 20
6.229520
 40
0.138167
  1
BA  1237
 41
1.000000
  7
SN0
 71
     0
 72
     5
 11
4.719660
 21
6.229520
  0
TEXT
  8
0
 10
3.760240
 20
6.038120
 40
0.138167
  1
1-1/16" x 3-3/16"
 41
1.000000
  7
SN0
 71
     0
 72
     5
 11
4.995174
 21
6.038120
  0
SOLID
  8
0
 62
    15
 10
4.047120
 20
4.059440
 11
4.684680
 21
3.695560
 12
3.926120
 22
3.926560
 13
4.564120
 23
3.562680
  0
POLYLINE
  8
0
  6
CONTINUOUS
 66
     1
 40
0.000000
 41
0.000000
  0
VERTEX
  8
0
  6
CONTINUOUS
 10
4.047120
 20
4.059440
  0
VERTEX
  8
0
  6
CONTINUOUS
 10
4.684680
 20
3.695560
  0
VERTEX
  8
0
  6
CONTINUOUS
 10
4.564120
 20
3.562680
  0
VERTEX
  8
0
  6
CONTINUOUS
 10
3.926120
 20
3.926560
  0
VERTEX
  8
0
  6
CONTINUOUS
 10
4.047120
 20
4.059440
  0
SEQEND
  8
0
  0
SOLID
  8
0
 62
    15
 10
5.369320
 20
4.606800
 11
6.006880
 21
4.242920
 12
5.177920
 22
4.597560
 13
5.815920
 23
4.233240
  0
POLYLINE
  8
0
  6
CONTINUOUS
 66
     1
 40
0.000000
 41
0.000000
  0
VERTEX
  8
0
  6
CONTINUOUS
 10
5.369320
 20
4.606800
  0
VERTEX
  8
0
  6
CONTINUOUS
 10
6.006880
 20
4.242920
  0
VERTEX
  8
0
  6
CONTINUOUS
 10
5.815920
 20
4.233240
  0
VERTEX
  8
0
  6
CONTINUOUS
 10
5.177920
 20
4.597560
  0
VERTEX
  8
0
  6
CONTINUOUS
 10
5.369320
 20
4.606800
  0
SEQEND
  8
0
  0
SOLID
  8
0
 62
    15
 10
5.177920
 20
4.597560
 11
5.815920
 21
4.233240
 12
4.992240
 22
4.568960
 13
5.630240
 23
4.205080
  0
POLYLINE
  8
0
  6
CONTINUOUS
 66
     1
 40
0.000000
 41
0.000000
  0
VERTEX
  8
0
  6
CONTINUOUS
 10
5.177920
 20
4.597560
  0
VERTEX
  8
0
  6
CONTINUOUS
 10
5.815920
 20
4.233240
  0
VERTEX
  8
0
  6
CONTINUOUS
 10
5.630240
 20
4.205080
  0
VERTEX
  8
0
  6
CONTINUOUS
 10
4.992240
 20
4.568960
  0
VERTEX
  8
0
  6
CONTINUOUS
 10
5.177920
 20
4.597560
  0
SEQEND
  8
0
  0
SOLID
  8
0
 62
    15
 10
4.992240
 20
4.568960
 11
5.630240
 21
4.205080
 12
4.813160
 22
4.522760
 13
5.451160
 23
4.158880
  0
POLYLINE
  8
0
  6
CONTINUOUS
 66
     1
 40
0.000000
 41
0.000000
  0
VERTEX
  8
0
  6
CONTINUOUS
 10
4.992240
 20
4.568960
  0
VERTEX
  8
0
  6
CONTINUOUS
 10
5.630240
 20
4.205080
  0
VERTEX
  8
0
  6
CONTINUOUS
 10
5.451160
 20
4.158880
  0
VERTEX
  8
0
  6
CONTINUOUS
 10
4.813160
 20
4.522760
  0
VERTEX
  8
0
  6
CONTINUOUS
 10
4.992240
 20
4.568960
  0
SEQEND
  8
0
  0
SOLID
  8
0
 62
    15
 10
4.813160
 20
4.522760
 11
5.451160
 21
4.158880
 12
4.641120
 22
4.459840
 13
5.279120
 23
4.095960
  0
POLYLINE
  8
0
  6
CONTINUOUS
 66
     1
 40
0.000000
 41
0.000000
  0
VERTEX
  8
0
  6
CONTINUOUS
 10
4.813160
 20
4.522760
  0
VERTEX
  8
0
  6
CONTINUOUS
 10
5.451160
 20
4.158880
  0
VERTEX
  8
0
  6
CONTINUOUS
 10
5.279120
 20
4.095960
  0
VERTEX
  8
0
  6
CONTINUOUS
 10
4.641120
 20
4.459840
  0
VERTEX
  8
0
  6
CONTINUOUS
 10
4.813160
 20
4.522760
  0
SEQEND
  8
0
  0
SOLID
  8
0
 62
    15
 10
4.641120
 20
4.459840
 11
5.279120
 21
4.095960
 12
4.477880
 22
4.381080
 13
5.115880
 23
4.017200
  0
POLYLINE
  8
0
  6
CONTINUOUS
 66
     1
 40
0.000000
 41
0.000000
  0
VERTEX
  8
0
  6
CONTINUOUS
 10
4.641120
 20
4.459840
  0
VERTEX
  8
0
  6
CONTINUOUS
 10
5.279120
 20
4.095960
  0
VERTEX
  8
0
  6
CONTINUOUS
 10
5.115880
 20
4.017200
  0
VERTEX
  8
0
  6
CONTINUOUS
 10
4.477880
 20
4.381080
  0
VERTEX
  8
0
  6
CONTINUOUS
 10
4.641120
 20
4.459840
  0
SEQEND
  8
0
  0
SOLID
  8
0
 62
    15
 10
4.477880
 20
4.381080
 11
5.115880
 21
4.017200
 12
4.323880
 22
4.287800
 13
4.961440
 23
3.923920
  0
POLYLINE
  8
0
  6
CONTINUOUS
 66
     1
 40
0.000000
 41
0.000000
  0
VERTEX
  8
0
  6
CONTINUOUS
 10
4.477880
 20
4.381080
  0
VERTEX
  8
0
  6
CONTINUOUS
 10
5.115880
 20
4.017200
  0
VERTEX
  8
0
  6
CONTINUOUS
 10
4.961440
 20
3.923920
  0
VERTEX
  8
0
  6
CONTINUOUS
 10
4.323880
 20
4.287800
  0
VERTEX
  8
0
  6
CONTINUOUS
 10
4.477880
 20
4.381080
  0
SEQEND
  8
0
  0
SOLID
  8
0
 62
    15
 10
4.323880
 20
4.287800
 11
4.961440
 21
3.923920
 12
4.179560
 22
4.180000
 13
4.817560
 23
3.816120
  0
POLYLINE
  8
0
  6
CONTINUOUS
 66
     1
 40
0.000000
 41
0.000000
  0
VERTEX
  8
0
  6
CONTINUOUS
 10
4.323880
 20
4.287800
  0
VERTEX
  8
0
  6
CONTINUOUS
 10
4.961440
 20
3.923920
  0
VERTEX
  8
0
  6
CONTINUOUS
 10
4.817560
 20
3.816120
  0
VERTEX
  8
0
  6
CONTINUOUS
 10
4.179560
 20
4.180000
  0
VERTEX
  8
0
  6
CONTINUOUS
 10
4.323880
 20
4.287800
  0
SEQEND
  8
0
  0
SOLID
  8
0
 62
    15
 10
4.179560
 20
4.180000
 11
4.817560
 21
3.816120
 12
4.047120
 22
4.059440
 13
4.684680
 23
3.695560
  0
POLYLINE
  8
0
  6
CONTINUOUS
 66
     1
 40
0.000000
 41
0.000000
  0
VERTEX
  8
0
  6
CONTINUOUS
 10
4.179560
 20
4.180000
  0
VERTEX
  8
0
  6
CONTINUOUS
 10
4.817560
 20
3.816120
  0
VERTEX
  8
0
  6
CONTINUOUS
 10
4.684680
 20
3.695560
  0
VERTEX
  8
0
  6
CONTINUOUS
 10
4.047120
 20
4.059440
  0
VERTEX
  8
0
  6
CONTINUOUS
 10
4.179560
 20
4.180000
  0
SEQEND
  8
0
  0
SOLID
  8
0
 62
    15
 10
5.369320
 20
4.975080
 11
6.006880
 21
4.611200
 12
5.369320
 22
4.606800
 13
6.006880
 23
4.242920
  0
POLYLINE
  8
0
  6
CONTINUOUS
 66
     1
 40
0.000000
 41
0.000000
  0
VERTEX
  8
0
  6
CONTINUOUS
 10
5.369320
 20
4.975080
  0
VERTEX
  8
0
  6
CONTINUOUS
 10
6.006880
 20
4.611200
  0
VERTEX
  8
0
  6
CONTINUOUS
 10
6.006880
 20
4.242920
  0
VERTEX
  8
0
  6
CONTINUOUS
 10
5.369320
 20
4.606800
  0
VERTEX
  8
0
  6
CONTINUOUS
 10
5.369320
 20
4.975080
  0
SEQEND
  8
0
  0
SOLID
  8
0
 62
    15
 10
3.926120
 20
3.926560
 11
4.564120
 21
3.562680
 12
3.818760
 22
3.782680
 13
4.456320
 23
3.418800
  0
POLYLINE
  8
0
  6
CONTINUOUS
 66
     1
 40
0.000000
 41
0.000000
  0
VERTEX
  8
0
  6
CONTINUOUS
 10
3.926120
 20
3.926560
  0
VERTEX
  8
0
  6
CONTINUOUS
 10
4.564120
 20
3.562680
  0
VERTEX
  8
0
  6
CONTINUOUS
 10
4.456320
 20
3.418800
  0
VERTEX
  8
0
  6
CONTINUOUS
 10
3.818760
 20
3.782680
  0
VERTEX
  8
0
  6
CONTINUOUS
 10
3.926120
 20
3.926560
  0
SEQEND
  8
0
  0
SOLID
  8
0
 62
    15
 10
3.818760
 20
3.782680
 11
4.456320
 21
3.418800
 12
3.725040
 22
3.628240
 13
4.362600
 23
3.264360
  0
POLYLINE
  8
0
  6
CONTINUOUS
 66
     1
 40
0.000000
 41
0.000000
  0
VERTEX
  8
0
  6
CONTINUOUS
 10
3.818760
 20
3.782680
  0
VERTEX
  8
0
  6
CONTINUOUS
 10
4.456320
 20
3.418800
  0
VERTEX
  8
0
  6
CONTINUOUS
 10
4.362600
 20
3.264360
  0
VERTEX
  8
0
  6
CONTINUOUS
 10
3.725040
 20
3.628240
  0
VERTEX
  8
0
  6
CONTINUOUS
 10
3.818760
 20
3.782680
  0
SEQEND
  8
0
  0
SOLID
  8
0
 62
    15
 10
3.725040
 20
3.628240
 11
4.362600
 21
3.264360
 12
3.646280
 22
3.465000
 13
4.283840
 23
3.101120
  0
POLYLINE
  8
0
  6
CONTINUOUS
 66
     1
 40
0.000000
 41
0.000000
  0
VERTEX
  8
0
  6
CONTINUOUS
 10
3.725040
 20
3.628240
  0
VERTEX
  8
0
  6
CONTINUOUS
 10
4.362600
 20
3.264360
  0
VERTEX
  8
0
  6
CONTINUOUS
 10
4.283840
 20
3.101120
  0
VERTEX
  8
0
  6
CONTINUOUS
 10
3.646280
 20
3.465000
  0
VERTEX
  8
0
  6
CONTINUOUS
 10
3.725040
 20
3.628240
  0
SEQEND
  8
0
  0
SOLID
  8
0
 62
    15
 10
3.646280
 20
3.465000
 11
4.283840
 21
3.101120
 12
3.583360
 22
3.292960
 13
4.221360
 23
2.929080
  0
POLYLINE
  8
0
  6
CONTINUOUS
 66
     1
 40
0.000000
 41
0.000000
  0
VERTEX
  8
0
  6
CONTINUOUS
 10
3.646280
 20
3.465000
  0
VERTEX
  8
0
  6
CONTINUOUS
 10
4.283840
 20
3.101120
  0
VERTEX
  8
0
  6
CONTINUOUS
 10
4.221360
 20
2.929080
  0
VERTEX
  8
0
  6
CONTINUOUS
 10
3.583360
 20
3.292960
  0
VERTEX
  8
0
  6
CONTINUOUS
 10
3.646280
 20
3.465000
  0
SEQEND
  8
0
  0
SOLID
  8
0
 62
    15
 10
3.583360
 20
3.292960
 11
4.221360
 21
2.929080
 12
3.537160
 22
3.113880
 13
4.175160
 23
2.750000
  0
POLYLINE
  8
0
  6
CONTINUOUS
 66
     1
 40
0.000000
 41
0.000000
  0
VERTEX
  8
0
  6
CONTINUOUS
 10
3.583360
 20
3.292960
  0
VERTEX
  8
0
  6
CONTINUOUS
 10
4.221360
 20
2.929080
  0
VERTEX
  8
0
  6
CONTINUOUS
 10
4.175160
 20
2.750000
  0
VERTEX
  8
0
  6
CONTINUOUS
 10
3.537160
 20
3.113880
  0
VERTEX
  8
0
  6
CONTINUOUS
 10
3.583360
 20
3.292960
  0
SEQEND
  8
0
  0
SOLID
  8
0
 62
    15
 10
3.537160
 20
3.113880
 11
4.175160
 21
2.750000
 12
3.509000
 22
2.928200
 13
4.146560
 23
2.564320
  0
POLYLINE
  8
0
  6
CONTINUOUS
 66
     1
 40
0.000000
 41
0.000000
  0
VERTEX
  8
0
  6
CONTINUOUS
 10
3.537160
 20
3.113880
  0
VERTEX
  8
0
  6
CONTINUOUS
 10
4.175160
 20
2.750000
  0
VERTEX
  8
0
  6
CONTINUOUS
 10
4.146560
 20
2.564320
  0
VERTEX
  8
0
  6
CONTINUOUS
 10
3.509000
 20
2.928200
  0
VERTEX
  8
0
  6
CONTINUOUS
 10
3.537160
 20
3.113880
  0
SEQEND
  8
0
  0
SOLID
  8
0
 62
    15
 10
3.509000
 20
2.928200
 11
4.146560
 21
2.564320
 12
3.499320
 22
2.736800
 13
4.136880
 23
2.372920
  0
POLYLINE
  8
0
  6
CONTINUOUS
 66
     1
 40
0.000000
 41
0.000000
  0
VERTEX
  8
0
  6
CONTINUOUS
 10
3.509000
 20
2.928200
  0
VERTEX
  8
0
  6
CONTINUOUS
 10
4.146560
 20
2.564320
  0
VERTEX
  8
0
  6
CONTINUOUS
 10
4.136880
 20
2.372920
  0
VERTEX
  8
0
  6
CONTINUOUS
 10
3.499320
 20
2.736800
  0
VERTEX
  8
0
  6
CONTINUOUS
 10
3.509000
 20
2.928200
  0
SEQEND
  8
0
  0
SOLID
  8
0
 62
    15
 10
3.499320
 20
2.736800
 11
4.136880
 21
2.372920
 12
3.130600
 22
2.736800
 13
3.768600
 23
2.372920
  0
POLYLINE
  8
0
  6
CONTINUOUS
 66
     1
 40
0.000000
 41
0.000000
  0
VERTEX
  8
0
  6
CONTINUOUS
 10
3.499320
 20
2.736800
  0
VERTEX
  8
0
  6
CONTINUOUS
 10
4.136880
 20
2.372920
  0
VERTEX
  8
0
  6
CONTINUOUS
 10
3.768600
 20
2.372920
  0
VERTEX
  8
0
  6
CONTINUOUS
 10
3.130600
 20
2.736800
  0
VERTEX
  8
0
  6
CONTINUOUS
 10
3.499320
 20
2.736800
  0
SEQEND
  8
0
  0
POLYLINE
  8
0
  6
CONTINUOUS
 66
     1
 40
0.000000
 41
0.000000
  0
VERTEX
  8
0
  6
CONTINUOUS
 10
4.194080
 20
4.975080
  0
VERTEX
  8
0
  6
CONTINUOUS
 10
5.369320
 20
4.975080
  0
VERTEX
  8
0
  6
CONTINUOUS
 10
5.369320
 20
4.606800
  0
VERTEX
  8
0
  6
CONTINUOUS
 10
5.177920
 20
4.597560
  0
VERTEX
  8
0
  6
CONTINUOUS
 10
4.992240
 20
4.568960
  0
VERTEX
  8
0
  6
CONTINUOUS
 10
4.813160
 20
4.522760
  0
VERTEX
  8
0
  6
CONTINUOUS
 10
4.641120
 20
4.459840
  0
VERTEX
  8
0
  6
CONTINUOUS
 10
4.477880
 20
4.381080
  0
VERTEX
  8
0
  6
CONTINUOUS
 10
4.323880
 20
4.287800
  0
VERTEX
  8
0
  6
CONTINUOUS
 10
4.179560
 20
4.180000
  0
VERTEX
  8
0
  6
CONTINUOUS
 10
4.047120
 20
4.059440
  0
VERTEX
  8
0
  6
CONTINUOUS
 10
3.926120
 20
3.926560
  0
VERTEX
  8
0
  6
CONTINUOUS
 10
3.818760
 20
3.782680
  0
VERTEX
  8
0
  6
CONTINUOUS
 10
3.725040
 20
3.628240
  0
VERTEX
  8
0
  6
CONTINUOUS
 10
3.646280
 20
3.465000
  0
VERTEX
  8
0
  6
CONTINUOUS
 10
3.583360
 20
3.292960
  0
VERTEX
  8
0
  6
CONTINUOUS
 10
3.537160
 20
3.113880
  0
VERTEX
  8
0
  6
CONTINUOUS
 10
3.509000
 20
2.928200
  0
VERTEX
  8
0
  6
CONTINUOUS
 10
3.499320
 20
2.736800
  0
VERTEX
  8
0
  6
CONTINUOUS
 10
3.130600
 20
2.736800
  0
VERTEX
  8
0
  6
CONTINUOUS
 10
3.130600
 20
3.911600
  0
VERTEX
  8
0
  6
CONTINUOUS
 10
4.194080
 20
4.975080
  0
SEQEND
  8
0
  0
TEXT
  8
0
 10
4.927560
 20
2.569600
 40
0.138167
  1
BA  1237
 41
1.000000
  7
SN0
 71
     0
 72
     5
 11
5.611100
 21
2.569600
  0
TEXT
  8
0
 10
4.651680
 20
2.377760
 40
0.138167
  1
1-1/16" x 3-3/16"
 41
1.000000
  7
SN0
 71
     0
 72
     5
 11
5.886614
 21
2.377760
  0
ENDSEC
  0
EOF
