  0
SECTION
  2
HEADER
  9
$ACADVER
  1
AC1006
  9
$EXTMIN
 10
2.160400
 20
0.778800
  9
$EXTMAX
 10
5.525080
 20
4.907320
  9
$LTSCALE
 40
0.044000
  9
$PDMODE
 70
    35
  9
$PDSIZE
 40
0.035200
  0
ENDSEC
  0
SECTION
  2
TABLES
  0
TABLE
  2
LTYPE
 70
     9
  0
LTYPE
  2
CONTINUOUS
 70
    64
  3
Solid line
 72
    65
 73
     0
 40
0.000000
  0
LTYPE
  2
DASHED
 70
    64
  3
__ __ __ __ __ __ __ __ __ __ __ __ __ __ __
 72
    65
 73
     2
 40
0.000330
 49
0.000220
 49
-0.000110
  0
LTYPE
  2
HIDDEN
 70
    64
  3
 _ _ _ _ _ _ _ _ _ _ _ _ _ _ _ _ _ _ _ _ _ _
 72
    65
 73
     2
 40
0.000165
 49
0.000110
 49
-0.000055
  0
LTYPE
  2
CENTER
 70
    64
  3
____ _ ____ _ ____ _ ____ _ ____ _ ____ _ ____
 72
    65
 73
     4
 40
0.000880
 49
0.000550
 49
-0.000110
 49
0.000110
 49
-0.000110
  0
LTYPE
  2
PHANTOM
 70
    64
  3
_____ _ _ _____ _ _ _____ _ _ _____ _ _ ____
 72
    65
 73
     6
 40
0.001100
 49
0.000550
 49
-0.000110
 49
0.000110
 49
-0.000110
 49
0.000110
 49
-0.000110
  0
LTYPE
  2
DOT
 70
    64
  3
...............................................
 72
    65
 73
     2
 40
0.000110
 49
0.000000
 49
-0.000110
  0
LTYPE
  2
DASHDOT
 70
    64
  3
__ . __ . __ . __ . __ . __ . __ . __ . __ . __
 72
    65
 73
     4
 40
0.000440
 49
0.000220
 49
-0.000110
 49
0.000000
 49
-0.000110
  0
LTYPE
  2
BORDER
 70
    64
  3
__ __ . __ __ . __ __ . __ __ . __ __ . __ __
 72
    65
 73
     6
 40
0.000770
 49
0.000220
 49
-0.000110
 49
0.000220
 49
-0.000110
 49
0.000000
 49
-0.000110
  0
LTYPE
  2
DIVIDE
 70
    64
  3
__ . . __ . . __ . . __ . . __ . . __ . . __
 72
    65
 73
     6
 40
0.000550
 49
0.000220
 49
-0.000110
 49
0.000000
 49
-0.000110
 49
0.000000
 49
-0.000110
  0
LTYPE
  2
DOTDOT
 70
    64
  3
 . .  . .  . .  . .  . .  . . 
 72
    65
 73
     5
 40
0.000242
 49
-0.000110
 49
0.000000
 49
-0.000110
 49
0.000000
 49
-0.000110
  0
ENDTAB
  0
TABLE
  2
STYLE
 70
     2
  0
STYLE
 70
     0
  2
SN0
 40
0.000000
 41
0.000440
 50
0.000000
 71
     0
 42
0.000000
  3
ROMAND
  0
STYLE
 70
    68
  2
SV0
 40
0.000000
 41
0.000440
 50
0.000000
 71
     0
 42
0.000000
  3
ROMAND
  0
ENDTAB
  0
TABLE
  2
LAYER
 70
     3
  0
LAYER
  2
FOREGROUND
 70
    64
 62
     7
  6
CONTINUOUS
  0
LAYER
  2
BACKGROUND
 70
    65
 62
    -7
  6
CONTINUOUS
  0
LAYER
  2
0
 70
    64
 62
     7
  6
CONTINUOUS
  0
ENDTAB
  0
ENDSEC
  0
SECTION
  2
ENTITIES
  0
POLYLINE
  8
FOREGROUND
  6
CONTINUOUS
 66
     1
 40
0.000000
 41
0.000000
  0
VERTEX
  8
FOREGROUND
  6
CONTINUOUS
 10
0.000000
 20
5.686120
  0
VERTEX
  8
FOREGROUND
  6
CONTINUOUS
 10
8.499920
 20
5.686120
  0
VERTEX
  8
FOREGROUND
  6
CONTINUOUS
 10
8.499920
 20
-5.313880
  0
VERTEX
  8
FOREGROUND
  6
CONTINUOUS
 10
0.000000
 20
-5.313880
  0
VERTEX
  8
FOREGROUND
  6
CONTINUOUS
 10
0.000000
 20
5.686120
  0
SEQEND
  8
0
  0
POLYLINE
  8
FOREGROUND
  6
CONTINUOUS
 66
     1
 40
0.000000
 41
0.000000
  0
VERTEX
  8
FOREGROUND
  6
CONTINUOUS
 10
0.000000
 20
5.686120
  0
VERTEX
  8
FOREGROUND
  6
CONTINUOUS
 10
8.499920
 20
5.686120
  0
VERTEX
  8
FOREGROUND
  6
CONTINUOUS
 10
8.499920
 20
-5.313880
  0
VERTEX
  8
FOREGROUND
  6
CONTINUOUS
 10
0.000000
 20
-5.313880
  0
VERTEX
  8
FOREGROUND
  6
CONTINUOUS
 10
0.000000
 20
5.686120
  0
SEQEND
  8
0
  0
POLYLINE
  8
0
  6
CONTINUOUS
 66
     1
 40
0.014080
 41
0.014080
  0
VERTEX
  8
0
  6
CONTINUOUS
 10
5.165600
 20
4.562360
  0
VERTEX
  8
0
  6
CONTINUOUS
 10
4.995760
 20
4.636720
  0
VERTEX
  8
0
  6
CONTINUOUS
 10
4.911720
 20
4.670600
  0
VERTEX
  8
0
  6
CONTINUOUS
 10
4.828560
 20
4.702280
  0
VERTEX
  8
0
  6
CONTINUOUS
 10
4.745840
 20
4.731760
  0
VERTEX
  8
0
  6
CONTINUOUS
 10
4.663560
 20
4.759040
  0
VERTEX
  8
0
  6
CONTINUOUS
 10
4.581720
 20
4.784120
  0
VERTEX
  8
0
  6
CONTINUOUS
 10
4.499880
 20
4.806560
  0
VERTEX
  8
0
  6
CONTINUOUS
 10
4.418920
 20
4.826800
  0
VERTEX
  8
0
  6
CONTINUOUS
 10
4.337520
 20
4.844400
  0
VERTEX
  8
0
  6
CONTINUOUS
 10
4.256560
 20
4.859800
  0
VERTEX
  8
0
  6
CONTINUOUS
 10
4.175600
 20
4.873000
  0
VERTEX
  8
0
  6
CONTINUOUS
 10
4.094640
 20
4.883120
  0
VERTEX
  8
0
  6
CONTINUOUS
 10
3.972760
 20
4.894120
  0
VERTEX
  8
0
  6
CONTINUOUS
 10
3.891360
 20
4.898080
  0
VERTEX
  8
0
  6
CONTINUOUS
 10
3.768160
 20
4.899400
  0
VERTEX
  8
0
  6
CONTINUOUS
 10
3.685880
 20
4.896760
  0
VERTEX
  8
0
  6
CONTINUOUS
 10
3.602720
 20
4.891480
  0
VERTEX
  8
0
  6
CONTINUOUS
 10
3.519120
 20
4.883560
  0
VERTEX
  8
0
  6
CONTINUOUS
 10
3.435080
 20
4.873000
  0
VERTEX
  8
0
  6
CONTINUOUS
 10
3.307040
 20
4.851440
  0
VERTEX
  8
0
  6
CONTINUOUS
 10
3.220800
 20
4.833840
  0
VERTEX
  8
0
  6
CONTINUOUS
 10
3.089680
 20
4.801720
  0
VERTEX
  8
0
  6
CONTINUOUS
 10
2.956360
 20
4.763440
  0
VERTEX
  8
0
  6
CONTINUOUS
 10
2.820400
 20
4.718120
  0
VERTEX
  8
0
  6
CONTINUOUS
 10
2.681360
 20
4.666200
  0
VERTEX
  8
0
  6
CONTINUOUS
 10
2.539240
 20
4.607240
  0
VERTEX
  8
0
  6
CONTINUOUS
 10
2.442880
 20
4.564120
  0
VERTEX
  8
0
  6
CONTINUOUS
 10
2.442880
 20
4.133360
  0
VERTEX
  8
0
  6
CONTINUOUS
 10
2.500960
 20
4.114000
  0
VERTEX
  8
0
  6
CONTINUOUS
 10
2.557280
 20
4.091120
  0
VERTEX
  8
0
  6
CONTINUOUS
 10
2.610520
 20
4.064720
  0
VERTEX
  8
0
  6
CONTINUOUS
 10
2.662000
 20
4.034360
  0
VERTEX
  8
0
  6
CONTINUOUS
 10
2.709960
 20
4.000040
  0
VERTEX
  8
0
  6
CONTINUOUS
 10
2.755280
 20
3.962200
  0
VERTEX
  8
0
  6
CONTINUOUS
 10
2.797080
 20
3.920400
  0
VERTEX
  8
0
  6
CONTINUOUS
 10
2.835360
 20
3.874640
  0
VERTEX
  8
0
  6
CONTINUOUS
 10
2.869680
 20
3.825360
  0
VERTEX
  8
0
  6
CONTINUOUS
 10
2.900040
 20
3.771680
  0
VERTEX
  8
0
  6
CONTINUOUS
 10
2.926440
 20
3.714480
  0
VERTEX
  8
0
  6
CONTINUOUS
 10
2.948000
 20
3.653320
  0
VERTEX
  8
0
  6
CONTINUOUS
 10
2.957240
 20
3.621200
  0
VERTEX
  8
0
  6
CONTINUOUS
 10
2.971320
 20
3.553880
  0
VERTEX
  8
0
  6
CONTINUOUS
 10
2.977040
 20
3.518680
  0
VERTEX
  8
0
  6
CONTINUOUS
 10
2.983640
 20
3.445640
  0
VERTEX
  8
0
  6
CONTINUOUS
 10
2.984960
 20
3.368200
  0
VERTEX
  8
0
  6
CONTINUOUS
 10
3.311880
 20
3.368200
  0
VERTEX
  8
0
  6
CONTINUOUS
 10
3.311880
 20
3.623840
  0
VERTEX
  8
0
  6
CONTINUOUS
 10
4.297040
 20
3.623840
  0
VERTEX
  8
0
  6
CONTINUOUS
 10
4.297040
 20
3.366880
  0
VERTEX
  8
0
  6
CONTINUOUS
 10
4.297040
 20
3.367320
  0
VERTEX
  8
0
  6
CONTINUOUS
 10
4.623960
 20
3.367320
  0
VERTEX
  8
0
  6
CONTINUOUS
 10
4.623960
 20
3.406480
  0
VERTEX
  8
0
  6
CONTINUOUS
 10
4.625280
 20
3.444760
  0
VERTEX
  8
0
  6
CONTINUOUS
 10
4.627920
 20
3.481720
  0
VERTEX
  8
0
  6
CONTINUOUS
 10
4.637600
 20
3.553000
  0
VERTEX
  8
0
  6
CONTINUOUS
 10
4.652120
 20
3.620320
  0
VERTEX
  8
0
  6
CONTINUOUS
 10
4.671480
 20
3.683240
  0
VERTEX
  8
0
  6
CONTINUOUS
 10
4.682920
 20
3.713600
  0
VERTEX
  8
0
  6
CONTINUOUS
 10
4.709320
 20
3.770800
  0
VERTEX
  8
0
  6
CONTINUOUS
 10
4.739680
 20
3.824480
  0
VERTEX
  8
0
  6
CONTINUOUS
 10
4.774000
 20
3.873760
  0
VERTEX
  8
0
  6
CONTINUOUS
 10
4.812280
 20
3.919520
  0
VERTEX
  8
0
  6
CONTINUOUS
 10
4.854080
 20
3.961320
  0
VERTEX
  8
0
  6
CONTINUOUS
 10
4.899400
 20
3.999160
  0
VERTEX
  8
0
  6
CONTINUOUS
 10
4.947360
 20
4.033480
  0
VERTEX
  8
0
  6
CONTINUOUS
 10
4.998400
 20
4.063840
  0
VERTEX
  8
0
  6
CONTINUOUS
 10
5.052080
 20
4.090240
  0
VERTEX
  8
0
  6
CONTINUOUS
 10
5.107960
 20
4.113120
  0
VERTEX
  8
0
  6
CONTINUOUS
 10
5.166040
 20
4.132480
  0
VERTEX
  8
0
  6
CONTINUOUS
 10
5.166040
 20
4.562800
  0
VERTEX
  8
0
  6
CONTINUOUS
 10
5.165600
 20
4.562360
  0
SEQEND
  8
0
  0
SOLID
  8
0
 62
    15
 10
4.055920
 20
2.727120
 11
4.696120
 21
3.102880
 12
4.218280
 22
2.688840
 13
4.858480
 23
3.065040
  0
POLYLINE
  8
0
  6
CONTINUOUS
 66
     1
 40
0.000000
 41
0.000000
  0
VERTEX
  8
0
  6
CONTINUOUS
 10
4.055920
 20
2.727120
  0
VERTEX
  8
0
  6
CONTINUOUS
 10
4.696120
 20
3.102880
  0
VERTEX
  8
0
  6
CONTINUOUS
 10
4.858480
 20
3.065040
  0
VERTEX
  8
0
  6
CONTINUOUS
 10
4.218280
 20
2.688840
  0
VERTEX
  8
0
  6
CONTINUOUS
 10
4.055920
 20
2.727120
  0
SEQEND
  8
0
  0
SOLID
  8
0
 62
    15
 10
2.161280
 20
2.446400
 11
2.801480
 21
2.822600
 12
2.352680
 22
2.529560
 13
2.992880
 23
2.905760
  0
POLYLINE
  8
0
  6
CONTINUOUS
 66
     1
 40
0.000000
 41
0.000000
  0
VERTEX
  8
0
  6
CONTINUOUS
 10
2.161280
 20
2.446400
  0
VERTEX
  8
0
  6
CONTINUOUS
 10
2.801480
 20
2.822600
  0
VERTEX
  8
0
  6
CONTINUOUS
 10
2.992880
 20
2.905760
  0
VERTEX
  8
0
  6
CONTINUOUS
 10
2.352680
 20
2.529560
  0
VERTEX
  8
0
  6
CONTINUOUS
 10
2.161280
 20
2.446400
  0
SEQEND
  8
0
  0
SOLID
  8
0
 62
    15
 10
2.352680
 20
2.529560
 11
2.992880
 21
2.905760
 12
2.538800
 22
2.600400
 13
3.179000
 23
2.976600
  0
POLYLINE
  8
0
  6
CONTINUOUS
 66
     1
 40
0.000000
 41
0.000000
  0
VERTEX
  8
0
  6
CONTINUOUS
 10
2.352680
 20
2.529560
  0
VERTEX
  8
0
  6
CONTINUOUS
 10
2.992880
 20
2.905760
  0
VERTEX
  8
0
  6
CONTINUOUS
 10
3.179000
 20
2.976600
  0
VERTEX
  8
0
  6
CONTINUOUS
 10
2.538800
 20
2.600400
  0
VERTEX
  8
0
  6
CONTINUOUS
 10
2.352680
 20
2.529560
  0
SEQEND
  8
0
  0
SOLID
  8
0
 62
    15
 10
2.538800
 20
2.600400
 11
3.179000
 21
2.976600
 12
2.719640
 22
2.659360
 13
3.359840
 23
3.035560
  0
POLYLINE
  8
0
  6
CONTINUOUS
 66
     1
 40
0.000000
 41
0.000000
  0
VERTEX
  8
0
  6
CONTINUOUS
 10
2.538800
 20
2.600400
  0
VERTEX
  8
0
  6
CONTINUOUS
 10
3.179000
 20
2.976600
  0
VERTEX
  8
0
  6
CONTINUOUS
 10
3.359840
 20
3.035560
  0
VERTEX
  8
0
  6
CONTINUOUS
 10
2.719640
 20
2.659360
  0
VERTEX
  8
0
  6
CONTINUOUS
 10
2.538800
 20
2.600400
  0
SEQEND
  8
0
  0
SOLID
  8
0
 62
    15
 10
2.719640
 20
2.659360
 11
3.359840
 21
3.035560
 12
2.896080
 22
2.706440
 13
3.536280
 23
3.082200
  0
POLYLINE
  8
0
  6
CONTINUOUS
 66
     1
 40
0.000000
 41
0.000000
  0
VERTEX
  8
0
  6
CONTINUOUS
 10
2.719640
 20
2.659360
  0
VERTEX
  8
0
  6
CONTINUOUS
 10
3.359840
 20
3.035560
  0
VERTEX
  8
0
  6
CONTINUOUS
 10
3.536280
 20
3.082200
  0
VERTEX
  8
0
  6
CONTINUOUS
 10
2.896080
 20
2.706440
  0
VERTEX
  8
0
  6
CONTINUOUS
 10
2.719640
 20
2.659360
  0
SEQEND
  8
0
  0
SOLID
  8
0
 62
    15
 10
2.896080
 20
2.706440
 11
3.536280
 21
3.082200
 12
3.068120
 22
2.741640
 13
3.708320
 23
3.117840
  0
POLYLINE
  8
0
  6
CONTINUOUS
 66
     1
 40
0.000000
 41
0.000000
  0
VERTEX
  8
0
  6
CONTINUOUS
 10
2.896080
 20
2.706440
  0
VERTEX
  8
0
  6
CONTINUOUS
 10
3.536280
 20
3.082200
  0
VERTEX
  8
0
  6
CONTINUOUS
 10
3.708320
 20
3.117840
  0
VERTEX
  8
0
  6
CONTINUOUS
 10
3.068120
 20
2.741640
  0
VERTEX
  8
0
  6
CONTINUOUS
 10
2.896080
 20
2.706440
  0
SEQEND
  8
0
  0
SOLID
  8
0
 62
    15
 10
3.068120
 20
2.741640
 11
3.708320
 21
3.117840
 12
3.237520
 22
2.765840
 13
3.877720
 23
3.142040
  0
POLYLINE
  8
0
  6
CONTINUOUS
 66
     1
 40
0.000000
 41
0.000000
  0
VERTEX
  8
0
  6
CONTINUOUS
 10
3.068120
 20
2.741640
  0
VERTEX
  8
0
  6
CONTINUOUS
 10
3.708320
 20
3.117840
  0
VERTEX
  8
0
  6
CONTINUOUS
 10
3.877720
 20
3.142040
  0
VERTEX
  8
0
  6
CONTINUOUS
 10
3.237520
 20
2.765840
  0
VERTEX
  8
0
  6
CONTINUOUS
 10
3.068120
 20
2.741640
  0
SEQEND
  8
0
  0
SOLID
  8
0
 62
    15
 10
3.237520
 20
2.765840
 11
3.877720
 21
3.142040
 12
3.404280
 22
2.779040
 13
4.044040
 23
3.155240
  0
POLYLINE
  8
0
  6
CONTINUOUS
 66
     1
 40
0.000000
 41
0.000000
  0
VERTEX
  8
0
  6
CONTINUOUS
 10
3.237520
 20
2.765840
  0
VERTEX
  8
0
  6
CONTINUOUS
 10
3.877720
 20
3.142040
  0
VERTEX
  8
0
  6
CONTINUOUS
 10
4.044040
 20
3.155240
  0
VERTEX
  8
0
  6
CONTINUOUS
 10
3.404280
 20
2.779040
  0
VERTEX
  8
0
  6
CONTINUOUS
 10
3.237520
 20
2.765840
  0
SEQEND
  8
0
  0
SOLID
  8
0
 62
    15
 10
3.404280
 20
2.779040
 11
4.044040
 21
3.155240
 12
3.568840
 22
2.781680
 13
4.208600
 23
3.157440
  0
POLYLINE
  8
0
  6
CONTINUOUS
 66
     1
 40
0.000000
 41
0.000000
  0
VERTEX
  8
0
  6
CONTINUOUS
 10
3.404280
 20
2.779040
  0
VERTEX
  8
0
  6
CONTINUOUS
 10
4.044040
 20
3.155240
  0
VERTEX
  8
0
  6
CONTINUOUS
 10
4.208600
 20
3.157440
  0
VERTEX
  8
0
  6
CONTINUOUS
 10
3.568840
 20
2.781680
  0
VERTEX
  8
0
  6
CONTINUOUS
 10
3.404280
 20
2.779040
  0
SEQEND
  8
0
  0
SOLID
  8
0
 62
    15
 10
3.568840
 20
2.781680
 11
4.208600
 21
3.157440
 12
3.731640
 22
2.773320
 13
4.371840
 23
3.149520
  0
POLYLINE
  8
0
  6
CONTINUOUS
 66
     1
 40
0.000000
 41
0.000000
  0
VERTEX
  8
0
  6
CONTINUOUS
 10
3.568840
 20
2.781680
  0
VERTEX
  8
0
  6
CONTINUOUS
 10
4.208600
 20
3.157440
  0
VERTEX
  8
0
  6
CONTINUOUS
 10
4.371840
 20
3.149520
  0
VERTEX
  8
0
  6
CONTINUOUS
 10
3.731640
 20
2.773320
  0
VERTEX
  8
0
  6
CONTINUOUS
 10
3.568840
 20
2.781680
  0
SEQEND
  8
0
  0
SOLID
  8
0
 62
    15
 10
3.731640
 20
2.773320
 11
4.371840
 21
3.149520
 12
3.894000
 22
2.755280
 13
4.534200
 23
3.131480
  0
POLYLINE
  8
0
  6
CONTINUOUS
 66
     1
 40
0.000000
 41
0.000000
  0
VERTEX
  8
0
  6
CONTINUOUS
 10
3.731640
 20
2.773320
  0
VERTEX
  8
0
  6
CONTINUOUS
 10
4.371840
 20
3.149520
  0
VERTEX
  8
0
  6
CONTINUOUS
 10
4.534200
 20
3.131480
  0
VERTEX
  8
0
  6
CONTINUOUS
 10
3.894000
 20
2.755280
  0
VERTEX
  8
0
  6
CONTINUOUS
 10
3.731640
 20
2.773320
  0
SEQEND
  8
0
  0
SOLID
  8
0
 62
    15
 10
3.894000
 20
2.755280
 11
4.534200
 21
3.131480
 12
4.055920
 22
2.727120
 13
4.696120
 23
3.102880
  0
POLYLINE
  8
0
  6
CONTINUOUS
 66
     1
 40
0.000000
 41
0.000000
  0
VERTEX
  8
0
  6
CONTINUOUS
 10
3.894000
 20
2.755280
  0
VERTEX
  8
0
  6
CONTINUOUS
 10
4.534200
 20
3.131480
  0
VERTEX
  8
0
  6
CONTINUOUS
 10
4.696120
 20
3.102880
  0
VERTEX
  8
0
  6
CONTINUOUS
 10
4.055920
 20
2.727120
  0
VERTEX
  8
0
  6
CONTINUOUS
 10
3.894000
 20
2.755280
  0
SEQEND
  8
0
  0
SOLID
  8
0
 62
    15
 10
3.030280
 20
1.506120
 11
3.670480
 21
1.882320
 12
3.030280
 22
1.250480
 13
3.670480
 23
1.626680
  0
POLYLINE
  8
0
  6
CONTINUOUS
 66
     1
 40
0.000000
 41
0.000000
  0
VERTEX
  8
0
  6
CONTINUOUS
 10
3.030280
 20
1.506120
  0
VERTEX
  8
0
  6
CONTINUOUS
 10
3.670480
 20
1.882320
  0
VERTEX
  8
0
  6
CONTINUOUS
 10
3.670480
 20
1.626680
  0
VERTEX
  8
0
  6
CONTINUOUS
 10
3.030280
 20
1.250480
  0
VERTEX
  8
0
  6
CONTINUOUS
 10
3.030280
 20
1.506120
  0
SEQEND
  8
0
  0
SOLID
  8
0
 62
    15
 10
4.218280
 20
2.688840
 11
4.858480
 21
3.065040
 12
4.381520
 22
2.641320
 13
5.021720
 23
3.017520
  0
POLYLINE
  8
0
  6
CONTINUOUS
 66
     1
 40
0.000000
 41
0.000000
  0
VERTEX
  8
0
  6
CONTINUOUS
 10
4.218280
 20
2.688840
  0
VERTEX
  8
0
  6
CONTINUOUS
 10
4.858480
 20
3.065040
  0
VERTEX
  8
0
  6
CONTINUOUS
 10
5.021720
 20
3.017520
  0
VERTEX
  8
0
  6
CONTINUOUS
 10
4.381520
 20
2.641320
  0
VERTEX
  8
0
  6
CONTINUOUS
 10
4.218280
 20
2.688840
  0
SEQEND
  8
0
  0
SOLID
  8
0
 62
    15
 10
4.381520
 20
2.641320
 11
5.021720
 21
3.017520
 12
4.546520
 22
2.585000
 13
5.186720
 23
2.960760
  0
POLYLINE
  8
0
  6
CONTINUOUS
 66
     1
 40
0.000000
 41
0.000000
  0
VERTEX
  8
0
  6
CONTINUOUS
 10
4.381520
 20
2.641320
  0
VERTEX
  8
0
  6
CONTINUOUS
 10
5.021720
 20
3.017520
  0
VERTEX
  8
0
  6
CONTINUOUS
 10
5.186720
 20
2.960760
  0
VERTEX
  8
0
  6
CONTINUOUS
 10
4.546520
 20
2.585000
  0
VERTEX
  8
0
  6
CONTINUOUS
 10
4.381520
 20
2.641320
  0
SEQEND
  8
0
  0
SOLID
  8
0
 62
    15
 10
4.546520
 20
2.585000
 11
5.186720
 21
2.960760
 12
4.713720
 22
2.519000
 13
5.353920
 23
2.895200
  0
POLYLINE
  8
0
  6
CONTINUOUS
 66
     1
 40
0.000000
 41
0.000000
  0
VERTEX
  8
0
  6
CONTINUOUS
 10
4.546520
 20
2.585000
  0
VERTEX
  8
0
  6
CONTINUOUS
 10
5.186720
 20
2.960760
  0
VERTEX
  8
0
  6
CONTINUOUS
 10
5.353920
 20
2.895200
  0
VERTEX
  8
0
  6
CONTINUOUS
 10
4.713720
 20
2.519000
  0
VERTEX
  8
0
  6
CONTINUOUS
 10
4.546520
 20
2.585000
  0
SEQEND
  8
0
  0
SOLID
  8
0
 62
    15
 10
4.713720
 20
2.519000
 11
5.353920
 21
2.895200
 12
4.884000
 22
2.444640
 13
5.523760
 23
2.820840
  0
POLYLINE
  8
0
  6
CONTINUOUS
 66
     1
 40
0.000000
 41
0.000000
  0
VERTEX
  8
0
  6
CONTINUOUS
 10
4.713720
 20
2.519000
  0
VERTEX
  8
0
  6
CONTINUOUS
 10
5.353920
 20
2.895200
  0
VERTEX
  8
0
  6
CONTINUOUS
 10
5.523760
 20
2.820840
  0
VERTEX
  8
0
  6
CONTINUOUS
 10
4.884000
 20
2.444640
  0
VERTEX
  8
0
  6
CONTINUOUS
 10
4.713720
 20
2.519000
  0
SEQEND
  8
0
  0
SOLID
  8
0
 62
    15
 10
4.665760
 20
1.915760
 11
5.305960
 21
2.291960
 12
4.572480
 22
1.843600
 13
5.212680
 23
2.219800
  0
POLYLINE
  8
0
  6
CONTINUOUS
 66
     1
 40
0.000000
 41
0.000000
  0
VERTEX
  8
0
  6
CONTINUOUS
 10
4.665760
 20
1.915760
  0
VERTEX
  8
0
  6
CONTINUOUS
 10
5.305960
 20
2.291960
  0
VERTEX
  8
0
  6
CONTINUOUS
 10
5.212680
 20
2.219800
  0
VERTEX
  8
0
  6
CONTINUOUS
 10
4.572480
 20
1.843600
  0
VERTEX
  8
0
  6
CONTINUOUS
 10
4.665760
 20
1.915760
  0
SEQEND
  8
0
  0
SOLID
  8
0
 62
    15
 10
4.572480
 20
1.843600
 11
5.212680
 21
2.219800
 12
4.492400
 22
1.756040
 13
5.132600
 23
2.132240
  0
POLYLINE
  8
0
  6
CONTINUOUS
 66
     1
 40
0.000000
 41
0.000000
  0
VERTEX
  8
0
  6
CONTINUOUS
 10
4.572480
 20
1.843600
  0
VERTEX
  8
0
  6
CONTINUOUS
 10
5.212680
 20
2.219800
  0
VERTEX
  8
0
  6
CONTINUOUS
 10
5.132600
 20
2.132240
  0
VERTEX
  8
0
  6
CONTINUOUS
 10
4.492400
 20
1.756040
  0
VERTEX
  8
0
  6
CONTINUOUS
 10
4.572480
 20
1.843600
  0
SEQEND
  8
0
  0
SOLID
  8
0
 62
    15
 10
4.884440
 20
2.445080
 11
5.524640
 21
2.821280
 12
4.884440
 22
2.014760
 13
5.524640
 23
2.390960
  0
POLYLINE
  8
0
  6
CONTINUOUS
 66
     1
 40
0.000000
 41
0.000000
  0
VERTEX
  8
0
  6
CONTINUOUS
 10
4.884440
 20
2.445080
  0
VERTEX
  8
0
  6
CONTINUOUS
 10
5.524640
 20
2.821280
  0
VERTEX
  8
0
  6
CONTINUOUS
 10
5.524640
 20
2.390960
  0
VERTEX
  8
0
  6
CONTINUOUS
 10
4.884440
 20
2.014760
  0
VERTEX
  8
0
  6
CONTINUOUS
 10
4.884440
 20
2.445080
  0
SEQEND
  8
0
  0
SOLID
  8
0
 62
    15
 10
4.492400
 20
1.756040
 11
5.132600
 21
2.132240
 12
4.427280
 22
1.653080
 13
5.067480
 23
2.029280
  0
POLYLINE
  8
0
  6
CONTINUOUS
 66
     1
 40
0.000000
 41
0.000000
  0
VERTEX
  8
0
  6
CONTINUOUS
 10
4.492400
 20
1.756040
  0
VERTEX
  8
0
  6
CONTINUOUS
 10
5.132600
 20
2.132240
  0
VERTEX
  8
0
  6
CONTINUOUS
 10
5.067480
 20
2.029280
  0
VERTEX
  8
0
  6
CONTINUOUS
 10
4.427280
 20
1.653080
  0
VERTEX
  8
0
  6
CONTINUOUS
 10
4.492400
 20
1.756040
  0
SEQEND
  8
0
  0
SOLID
  8
0
 62
    15
 10
4.427280
 20
1.653080
 11
5.067480
 21
2.029280
 12
4.379320
 22
1.534720
 13
5.019520
 23
1.910480
  0
POLYLINE
  8
0
  6
CONTINUOUS
 66
     1
 40
0.000000
 41
0.000000
  0
VERTEX
  8
0
  6
CONTINUOUS
 10
4.427280
 20
1.653080
  0
VERTEX
  8
0
  6
CONTINUOUS
 10
5.067480
 20
2.029280
  0
VERTEX
  8
0
  6
CONTINUOUS
 10
5.019520
 20
1.910480
  0
VERTEX
  8
0
  6
CONTINUOUS
 10
4.379320
 20
1.534720
  0
VERTEX
  8
0
  6
CONTINUOUS
 10
4.427280
 20
1.653080
  0
SEQEND
  8
0
  0
SOLID
  8
0
 62
    15
 10
4.379320
 20
1.534720
 11
5.019520
 21
1.910480
 12
4.350280
 22
1.400080
 13
4.990480
 23
1.776280
  0
POLYLINE
  8
0
  6
CONTINUOUS
 66
     1
 40
0.000000
 41
0.000000
  0
VERTEX
  8
0
  6
CONTINUOUS
 10
4.379320
 20
1.534720
  0
VERTEX
  8
0
  6
CONTINUOUS
 10
5.019520
 20
1.910480
  0
VERTEX
  8
0
  6
CONTINUOUS
 10
4.990480
 20
1.776280
  0
VERTEX
  8
0
  6
CONTINUOUS
 10
4.350280
 20
1.400080
  0
VERTEX
  8
0
  6
CONTINUOUS
 10
4.379320
 20
1.534720
  0
SEQEND
  8
0
  0
SOLID
  8
0
 62
    15
 10
4.350280
 20
1.400080
 11
4.990480
 21
1.776280
 12
4.342360
 22
1.249600
 13
4.982560
 23
1.625800
  0
POLYLINE
  8
0
  6
CONTINUOUS
 66
     1
 40
0.000000
 41
0.000000
  0
VERTEX
  8
0
  6
CONTINUOUS
 10
4.350280
 20
1.400080
  0
VERTEX
  8
0
  6
CONTINUOUS
 10
4.990480
 20
1.776280
  0
VERTEX
  8
0
  6
CONTINUOUS
 10
4.982560
 20
1.625800
  0
VERTEX
  8
0
  6
CONTINUOUS
 10
4.342360
 20
1.249600
  0
VERTEX
  8
0
  6
CONTINUOUS
 10
4.350280
 20
1.400080
  0
SEQEND
  8
0
  0
POLYLINE
  8
0
  6
CONTINUOUS
 66
     1
 40
0.000000
 41
0.000000
  0
VERTEX
  8
0
  6
CONTINUOUS
 10
4.015440
 20
1.249600
  0
VERTEX
  8
0
  6
CONTINUOUS
 10
4.015440
 20
1.506120
  0
VERTEX
  8
0
  6
CONTINUOUS
 10
3.030280
 20
1.506120
  0
VERTEX
  8
0
  6
CONTINUOUS
 10
3.030280
 20
1.250480
  0
VERTEX
  8
0
  6
CONTINUOUS
 10
2.703360
 20
1.250480
  0
VERTEX
  8
0
  6
CONTINUOUS
 10
2.695000
 20
1.400960
  0
VERTEX
  8
0
  6
CONTINUOUS
 10
2.666400
 20
1.535600
  0
VERTEX
  8
0
  6
CONTINUOUS
 10
2.618440
 20
1.654400
  0
VERTEX
  8
0
  6
CONTINUOUS
 10
2.553320
 20
1.757360
  0
VERTEX
  8
0
  6
CONTINUOUS
 10
2.473240
 20
1.844480
  0
VERTEX
  8
0
  6
CONTINUOUS
 10
2.379960
 20
1.916640
  0
VERTEX
  8
0
  6
CONTINUOUS
 10
2.275240
 20
1.973840
  0
VERTEX
  8
0
  6
CONTINUOUS
 10
2.161280
 20
2.015640
  0
VERTEX
  8
0
  6
CONTINUOUS
 10
2.161280
 20
2.446400
  0
VERTEX
  8
0
  6
CONTINUOUS
 10
2.352680
 20
2.529560
  0
VERTEX
  8
0
  6
CONTINUOUS
 10
2.538800
 20
2.600400
  0
VERTEX
  8
0
  6
CONTINUOUS
 10
2.719640
 20
2.659360
  0
VERTEX
  8
0
  6
CONTINUOUS
 10
2.896080
 20
2.706440
  0
VERTEX
  8
0
  6
CONTINUOUS
 10
3.068120
 20
2.741640
  0
VERTEX
  8
0
  6
CONTINUOUS
 10
3.237520
 20
2.765840
  0
VERTEX
  8
0
  6
CONTINUOUS
 10
3.404280
 20
2.779040
  0
VERTEX
  8
0
  6
CONTINUOUS
 10
3.568840
 20
2.781680
  0
VERTEX
  8
0
  6
CONTINUOUS
 10
3.731640
 20
2.773320
  0
VERTEX
  8
0
  6
CONTINUOUS
 10
3.894000
 20
2.755280
  0
VERTEX
  8
0
  6
CONTINUOUS
 10
4.055920
 20
2.727120
  0
VERTEX
  8
0
  6
CONTINUOUS
 10
4.218280
 20
2.688840
  0
VERTEX
  8
0
  6
CONTINUOUS
 10
4.381520
 20
2.641320
  0
VERTEX
  8
0
  6
CONTINUOUS
 10
4.546520
 20
2.585000
  0
VERTEX
  8
0
  6
CONTINUOUS
 10
4.713720
 20
2.519000
  0
VERTEX
  8
0
  6
CONTINUOUS
 10
4.884000
 20
2.444640
  0
VERTEX
  8
0
  6
CONTINUOUS
 10
4.884440
 20
2.445080
  0
VERTEX
  8
0
  6
CONTINUOUS
 10
4.884440
 20
2.014760
  0
VERTEX
  8
0
  6
CONTINUOUS
 10
4.770480
 20
1.972520
  0
VERTEX
  8
0
  6
CONTINUOUS
 10
4.665760
 20
1.915760
  0
VERTEX
  8
0
  6
CONTINUOUS
 10
4.572480
 20
1.843600
  0
VERTEX
  8
0
  6
CONTINUOUS
 10
4.492400
 20
1.756040
  0
VERTEX
  8
0
  6
CONTINUOUS
 10
4.427280
 20
1.653080
  0
VERTEX
  8
0
  6
CONTINUOUS
 10
4.379320
 20
1.534720
  0
VERTEX
  8
0
  6
CONTINUOUS
 10
4.350280
 20
1.400080
  0
VERTEX
  8
0
  6
CONTINUOUS
 10
4.342360
 20
1.249600
  0
VERTEX
  8
0
  6
CONTINUOUS
 10
4.015440
 20
1.249600
  0
SEQEND
  8
0
  0
TEXT
  8
0
 10
3.501520
 20
1.017280
 40
0.138138
  1
BA  1236
 41
1.000000
  7
SN0
 71
     0
 72
     5
 11
4.183139
 21
1.017280
  0
TEXT
  8
0
 10
3.225640
 20
0.825440
 40
0.138138
  1
1-1/2" x 2-11/16"
 41
1.000000
  7
SN0
 71
     0
 72
     5
 11
4.455733
 21
0.825440
  0
TEXT
  8
0
 10
3.487440
 20
3.983320
 40
0.138138
  1
BA  1236
 41
1.000000
  7
SN0
 71
     0
 72
     5
 11
4.169059
 21
3.983320
  0
TEXT
  8
0
 10
3.211560
 20
3.791920
 40
0.138138
  1
1-1/2" x 2-11/16"
 41
1.000000
  7
SN0
 71
     0
 72
     5
 11
4.441653
 21
3.791920
  0
ENDSEC
  0
EOF
