  0
SECTION
  2
HEADER
  9
$ACADVER
  1
AC1006
  9
$EXTMIN
 10
3.753640
 20
0.601920
  9
$EXTMAX
 10
6.910640
 20
3.094960
  9
$LTSCALE
 40
0.044000
  9
$PDMODE
 70
    35
  9
$PDSIZE
 40
0.035200
  0
ENDSEC
  0
SECTION
  2
TABLES
  0
TABLE
  2
LTYPE
 70
     9
  0
LTYPE
  2
CONTINUOUS
 70
    64
  3
Solid line
 72
    65
 73
     0
 40
0.000000
  0
LTYPE
  2
DASHED
 70
    64
  3
__ __ __ __ __ __ __ __ __ __ __ __ __ __ __
 72
    65
 73
     2
 40
0.000330
 49
0.000220
 49
-0.000110
  0
LTYPE
  2
HIDDEN
 70
    64
  3
 _ _ _ _ _ _ _ _ _ _ _ _ _ _ _ _ _ _ _ _ _ _
 72
    65
 73
     2
 40
0.000165
 49
0.000110
 49
-0.000055
  0
LTYPE
  2
CENTER
 70
    64
  3
____ _ ____ _ ____ _ ____ _ ____ _ ____ _ ____
 72
    65
 73
     4
 40
0.000880
 49
0.000550
 49
-0.000110
 49
0.000110
 49
-0.000110
  0
LTYPE
  2
PHANTOM
 70
    64
  3
_____ _ _ _____ _ _ _____ _ _ _____ _ _ ____
 72
    65
 73
     6
 40
0.001100
 49
0.000550
 49
-0.000110
 49
0.000110
 49
-0.000110
 49
0.000110
 49
-0.000110
  0
LTYPE
  2
DOT
 70
    64
  3
...............................................
 72
    65
 73
     2
 40
0.000110
 49
0.000000
 49
-0.000110
  0
LTYPE
  2
DASHDOT
 70
    64
  3
__ . __ . __ . __ . __ . __ . __ . __ . __ . __
 72
    65
 73
     4
 40
0.000440
 49
0.000220
 49
-0.000110
 49
0.000000
 49
-0.000110
  0
LTYPE
  2
BORDER
 70
    64
  3
__ __ . __ __ . __ __ . __ __ . __ __ . __ __
 72
    65
 73
     6
 40
0.000770
 49
0.000220
 49
-0.000110
 49
0.000220
 49
-0.000110
 49
0.000000
 49
-0.000110
  0
LTYPE
  2
DIVIDE
 70
    64
  3
__ . . __ . . __ . . __ . . __ . . __ . . __
 72
    65
 73
     6
 40
0.000550
 49
0.000220
 49
-0.000110
 49
0.000000
 49
-0.000110
 49
0.000000
 49
-0.000110
  0
LTYPE
  2
DOTDOT
 70
    64
  3
 . .  . .  . .  . .  . .  . . 
 72
    65
 73
     5
 40
0.000242
 49
-0.000110
 49
0.000000
 49
-0.000110
 49
0.000000
 49
-0.000110
  0
ENDTAB
  0
TABLE
  2
STYLE
 70
     2
  0
STYLE
 70
     0
  2
SN0
 40
0.000000
 41
0.000440
 50
0.000000
 71
     0
 42
0.000000
  3
ROMAND
  0
STYLE
 70
    68
  2
SV0
 40
0.000000
 41
0.000440
 50
0.000000
 71
     0
 42
0.000000
  3
ROMAND
  0
ENDTAB
  0
TABLE
  2
LAYER
 70
     3
  0
LAYER
  2
FOREGROUND
 70
    64
 62
     7
  6
CONTINUOUS
  0
LAYER
  2
BACKGROUND
 70
    65
 62
    -7
  6
CONTINUOUS
  0
LAYER
  2
0
 70
    64
 62
     7
  6
CONTINUOUS
  0
ENDTAB
  0
ENDSEC
  0
SECTION
  2
ENTITIES
  0
POLYLINE
  8
FOREGROUND
  6
CONTINUOUS
 66
     1
 40
0.000000
 41
0.000000
  0
VERTEX
  8
FOREGROUND
  6
CONTINUOUS
 10
0.000000
 20
3.696880
  0
VERTEX
  8
FOREGROUND
  6
CONTINUOUS
 10
8.499920
 20
3.696880
  0
VERTEX
  8
FOREGROUND
  6
CONTINUOUS
 10
8.499920
 20
-7.303120
  0
VERTEX
  8
FOREGROUND
  6
CONTINUOUS
 10
0.000000
 20
-7.303120
  0
VERTEX
  8
FOREGROUND
  6
CONTINUOUS
 10
0.000000
 20
3.696880
  0
SEQEND
  8
0
  0
POLYLINE
  8
FOREGROUND
  6
CONTINUOUS
 66
     1
 40
0.000000
 41
0.000000
  0
VERTEX
  8
FOREGROUND
  6
CONTINUOUS
 10
0.000000
 20
3.696880
  0
VERTEX
  8
FOREGROUND
  6
CONTINUOUS
 10
8.499920
 20
3.696880
  0
VERTEX
  8
FOREGROUND
  6
CONTINUOUS
 10
8.499920
 20
-7.303120
  0
VERTEX
  8
FOREGROUND
  6
CONTINUOUS
 10
0.000000
 20
-7.303120
  0
VERTEX
  8
FOREGROUND
  6
CONTINUOUS
 10
0.000000
 20
3.696880
  0
SEQEND
  8
0
  0
POLYLINE
  8
0
  6
CONTINUOUS
 66
     1
 40
0.000000
 41
0.000000
  0
VERTEX
  8
0
  6
CONTINUOUS
 10
5.885440
 20
2.277880
  0
VERTEX
  8
0
  6
CONTINUOUS
 10
5.885440
 20
2.837560
  0
VERTEX
  8
0
  6
CONTINUOUS
 10
5.681720
 20
2.837560
  0
VERTEX
  8
0
  6
CONTINUOUS
 10
5.694920
 20
2.874960
  0
VERTEX
  8
0
  6
CONTINUOUS
 10
5.710760
 20
2.909280
  0
VERTEX
  8
0
  6
CONTINUOUS
 10
5.728800
 20
2.940520
  0
VERTEX
  8
0
  6
CONTINUOUS
 10
5.759600
 20
2.981440
  0
VERTEX
  8
0
  6
CONTINUOUS
 10
5.794360
 20
3.015320
  0
VERTEX
  8
0
  6
CONTINUOUS
 10
5.819440
 20
3.034680
  0
VERTEX
  8
0
  6
CONTINUOUS
 10
5.859480
 20
3.058000
  0
VERTEX
  8
0
  6
CONTINUOUS
 10
5.902160
 20
3.075600
  0
VERTEX
  8
0
  6
CONTINUOUS
 10
5.946160
 20
3.087040
  0
VERTEX
  8
0
  6
CONTINUOUS
 10
5.991480
 20
3.093200
  0
VERTEX
  8
0
  6
CONTINUOUS
 10
6.021840
 20
3.094080
  0
VERTEX
  8
0
  6
CONTINUOUS
 10
6.052200
 20
3.092760
  0
VERTEX
  8
0
  6
CONTINUOUS
 10
6.082560
 20
3.089240
  0
VERTEX
  8
0
  6
CONTINUOUS
 10
6.112040
 20
3.083520
  0
VERTEX
  8
0
  6
CONTINUOUS
 10
6.141520
 20
3.075600
  0
VERTEX
  8
0
  6
CONTINUOUS
 10
6.170120
 20
3.065480
  0
VERTEX
  8
0
  6
CONTINUOUS
 10
6.197840
 20
3.053600
  0
VERTEX
  8
0
  6
CONTINUOUS
 10
6.224680
 20
3.039960
  0
VERTEX
  8
0
  6
CONTINUOUS
 10
6.249760
 20
3.024120
  0
VERTEX
  8
0
  6
CONTINUOUS
 10
6.273520
 20
3.006520
  0
VERTEX
  8
0
  6
CONTINUOUS
 10
6.295960
 20
2.987600
  0
VERTEX
  8
0
  6
CONTINUOUS
 10
6.325880
 20
2.955920
  0
VERTEX
  8
0
  6
CONTINUOUS
 10
6.350960
 20
2.920720
  0
VERTEX
  8
0
  6
CONTINUOUS
 10
6.370320
 20
2.882000
  0
VERTEX
  8
0
  6
CONTINUOUS
 10
6.380440
 20
2.854720
  0
VERTEX
  8
0
  6
CONTINUOUS
 10
6.389680
 20
2.811600
  0
VERTEX
  8
0
  6
CONTINUOUS
 10
6.391880
 20
2.781240
  0
VERTEX
  8
0
  6
CONTINUOUS
 10
6.391880
 20
2.662880
  0
VERTEX
  8
0
  6
CONTINUOUS
 10
6.414760
 20
2.662000
  0
VERTEX
  8
0
  6
CONTINUOUS
 10
6.435880
 20
2.658920
  0
VERTEX
  8
0
  6
CONTINUOUS
 10
6.455240
 20
2.654080
  0
VERTEX
  8
0
  6
CONTINUOUS
 10
6.473280
 20
2.647920
  0
VERTEX
  8
0
  6
CONTINUOUS
 10
6.490000
 20
2.640000
  0
VERTEX
  8
0
  6
CONTINUOUS
 10
6.518600
 20
2.620640
  0
VERTEX
  8
0
  6
CONTINUOUS
 10
6.541040
 20
2.596880
  0
VERTEX
  8
0
  6
CONTINUOUS
 10
6.558200
 20
2.570040
  0
VERTEX
  8
0
  6
CONTINUOUS
 10
6.569640
 20
2.541880
  0
VERTEX
  8
0
  6
CONTINUOUS
 10
6.575360
 20
2.512840
  0
VERTEX
  8
0
  6
CONTINUOUS
 10
6.576240
 20
2.498760
  0
VERTEX
  8
0
  6
CONTINUOUS
 10
6.610120
 20
2.497880
  0
VERTEX
  8
0
  6
CONTINUOUS
 10
6.643120
 20
2.494800
  0
VERTEX
  8
0
  6
CONTINUOUS
 10
6.674800
 20
2.489080
  0
VERTEX
  8
0
  6
CONTINUOUS
 10
6.705600
 20
2.481160
  0
VERTEX
  8
0
  6
CONTINUOUS
 10
6.734640
 20
2.471040
  0
VERTEX
  8
0
  6
CONTINUOUS
 10
6.762360
 20
2.459160
  0
VERTEX
  8
0
  6
CONTINUOUS
 10
6.800200
 20
2.438040
  0
VERTEX
  8
0
  6
CONTINUOUS
 10
6.833640
 20
2.414280
  0
VERTEX
  8
0
  6
CONTINUOUS
 10
6.861800
 20
2.387440
  0
VERTEX
  8
0
  6
CONTINUOUS
 10
6.884240
 20
2.358840
  0
VERTEX
  8
0
  6
CONTINUOUS
 10
6.900080
 20
2.328920
  0
VERTEX
  8
0
  6
CONTINUOUS
 10
6.908880
 20
2.298560
  0
VERTEX
  8
0
  6
CONTINUOUS
 10
6.910640
 20
2.277880
  0
VERTEX
  8
0
  6
CONTINUOUS
 10
5.885440
 20
2.277880
  0
SEQEND
  8
0
  0
TEXT
  8
0
 10
6.006880
 20
2.002880
 40
0.138045
  1
BA  1235
 41
1.000000
  7
SN0
 71
     0
 72
     5
 11
6.689108
 21
2.002880
  0
TEXT
  8
0
 10
5.804920
 20
1.811040
 40
0.138045
  1
13/16" x 1-1/4"
 41
1.000000
  7
SN0
 71
     0
 72
     5
 11
6.889665
 21
1.811040
  0
SOLID
  8
0
 62
    15
 10
4.506040
 20
1.507880
 11
4.506040
 21
2.251040
 12
4.549600
 22
1.503920
 13
4.549600
 23
2.247080
  0
POLYLINE
  8
0
  6
CONTINUOUS
 66
     1
 40
0.000000
 41
0.000000
  0
VERTEX
  8
0
  6
CONTINUOUS
 10
4.506040
 20
1.507880
  0
VERTEX
  8
0
  6
CONTINUOUS
 10
4.506040
 20
2.251040
  0
VERTEX
  8
0
  6
CONTINUOUS
 10
4.549600
 20
2.247080
  0
VERTEX
  8
0
  6
CONTINUOUS
 10
4.549600
 20
1.503920
  0
VERTEX
  8
0
  6
CONTINUOUS
 10
4.506040
 20
1.507880
  0
SEQEND
  8
0
  0
SOLID
  8
0
 62
    15
 10
3.809080
 20
1.720400
 11
3.809080
 21
2.463560
 12
3.824920
 22
1.754720
 13
3.824920
 23
2.497880
  0
POLYLINE
  8
0
  6
CONTINUOUS
 66
     1
 40
0.000000
 41
0.000000
  0
VERTEX
  8
0
  6
CONTINUOUS
 10
3.809080
 20
1.720400
  0
VERTEX
  8
0
  6
CONTINUOUS
 10
3.809080
 20
2.463560
  0
VERTEX
  8
0
  6
CONTINUOUS
 10
3.824920
 20
2.497880
  0
VERTEX
  8
0
  6
CONTINUOUS
 10
3.824920
 20
1.754720
  0
VERTEX
  8
0
  6
CONTINUOUS
 10
3.809080
 20
1.720400
  0
SEQEND
  8
0
  0
SOLID
  8
0
 62
    15
 10
3.824920
 20
1.754720
 11
3.824920
 21
2.497880
 12
3.862760
 22
1.813680
 13
3.862760
 23
2.556840
  0
POLYLINE
  8
0
  6
CONTINUOUS
 66
     1
 40
0.000000
 41
0.000000
  0
VERTEX
  8
0
  6
CONTINUOUS
 10
3.824920
 20
1.754720
  0
VERTEX
  8
0
  6
CONTINUOUS
 10
3.824920
 20
2.497880
  0
VERTEX
  8
0
  6
CONTINUOUS
 10
3.862760
 20
2.556840
  0
VERTEX
  8
0
  6
CONTINUOUS
 10
3.862760
 20
1.813680
  0
VERTEX
  8
0
  6
CONTINUOUS
 10
3.824920
 20
1.754720
  0
SEQEND
  8
0
  0
SOLID
  8
0
 62
    15
 10
3.862760
 20
1.813680
 11
3.862760
 21
2.556840
 12
3.908520
 22
1.860760
 13
3.908520
 23
2.603920
  0
POLYLINE
  8
0
  6
CONTINUOUS
 66
     1
 40
0.000000
 41
0.000000
  0
VERTEX
  8
0
  6
CONTINUOUS
 10
3.862760
 20
1.813680
  0
VERTEX
  8
0
  6
CONTINUOUS
 10
3.862760
 20
2.556840
  0
VERTEX
  8
0
  6
CONTINUOUS
 10
3.908520
 20
2.603920
  0
VERTEX
  8
0
  6
CONTINUOUS
 10
3.908520
 20
1.860760
  0
VERTEX
  8
0
  6
CONTINUOUS
 10
3.862760
 20
1.813680
  0
SEQEND
  8
0
  0
SOLID
  8
0
 62
    15
 10
3.908520
 20
1.860760
 11
3.908520
 21
2.603920
 12
3.960000
 22
1.896400
 13
3.960000
 23
2.639560
  0
POLYLINE
  8
0
  6
CONTINUOUS
 66
     1
 40
0.000000
 41
0.000000
  0
VERTEX
  8
0
  6
CONTINUOUS
 10
3.908520
 20
1.860760
  0
VERTEX
  8
0
  6
CONTINUOUS
 10
3.908520
 20
2.603920
  0
VERTEX
  8
0
  6
CONTINUOUS
 10
3.960000
 20
2.639560
  0
VERTEX
  8
0
  6
CONTINUOUS
 10
3.960000
 20
1.896400
  0
VERTEX
  8
0
  6
CONTINUOUS
 10
3.908520
 20
1.860760
  0
SEQEND
  8
0
  0
SOLID
  8
0
 62
    15
 10
3.960000
 20
1.896400
 11
3.960000
 21
2.639560
 12
4.015880
 22
1.921040
 13
4.015880
 23
2.664200
  0
POLYLINE
  8
0
  6
CONTINUOUS
 66
     1
 40
0.000000
 41
0.000000
  0
VERTEX
  8
0
  6
CONTINUOUS
 10
3.960000
 20
1.896400
  0
VERTEX
  8
0
  6
CONTINUOUS
 10
3.960000
 20
2.639560
  0
VERTEX
  8
0
  6
CONTINUOUS
 10
4.015880
 20
2.664200
  0
VERTEX
  8
0
  6
CONTINUOUS
 10
4.015880
 20
1.921040
  0
VERTEX
  8
0
  6
CONTINUOUS
 10
3.960000
 20
1.896400
  0
SEQEND
  8
0
  0
SOLID
  8
0
 62
    15
 10
4.015880
 20
1.921040
 11
4.015880
 21
2.664200
 12
4.074840
 22
1.935120
 13
4.074840
 23
2.678280
  0
POLYLINE
  8
0
  6
CONTINUOUS
 66
     1
 40
0.000000
 41
0.000000
  0
VERTEX
  8
0
  6
CONTINUOUS
 10
4.015880
 20
1.921040
  0
VERTEX
  8
0
  6
CONTINUOUS
 10
4.015880
 20
2.664200
  0
VERTEX
  8
0
  6
CONTINUOUS
 10
4.074840
 20
2.678280
  0
VERTEX
  8
0
  6
CONTINUOUS
 10
4.074840
 20
1.935120
  0
VERTEX
  8
0
  6
CONTINUOUS
 10
4.015880
 20
1.921040
  0
SEQEND
  8
0
  0
SOLID
  8
0
 62
    15
 10
4.074840
 20
1.935120
 11
4.074840
 21
2.678280
 12
4.135560
 22
1.939520
 13
4.135560
 23
2.682680
  0
POLYLINE
  8
0
  6
CONTINUOUS
 66
     1
 40
0.000000
 41
0.000000
  0
VERTEX
  8
0
  6
CONTINUOUS
 10
4.074840
 20
1.935120
  0
VERTEX
  8
0
  6
CONTINUOUS
 10
4.074840
 20
2.678280
  0
VERTEX
  8
0
  6
CONTINUOUS
 10
4.135560
 20
2.682680
  0
VERTEX
  8
0
  6
CONTINUOUS
 10
4.135560
 20
1.939520
  0
VERTEX
  8
0
  6
CONTINUOUS
 10
4.074840
 20
1.935120
  0
SEQEND
  8
0
  0
SOLID
  8
0
 62
    15
 10
4.135560
 20
1.939520
 11
4.135560
 21
2.682680
 12
4.196280
 22
1.934680
 13
4.196280
 23
2.677840
  0
POLYLINE
  8
0
  6
CONTINUOUS
 66
     1
 40
0.000000
 41
0.000000
  0
VERTEX
  8
0
  6
CONTINUOUS
 10
4.135560
 20
1.939520
  0
VERTEX
  8
0
  6
CONTINUOUS
 10
4.135560
 20
2.682680
  0
VERTEX
  8
0
  6
CONTINUOUS
 10
4.196280
 20
2.677840
  0
VERTEX
  8
0
  6
CONTINUOUS
 10
4.196280
 20
1.934680
  0
VERTEX
  8
0
  6
CONTINUOUS
 10
4.135560
 20
1.939520
  0
SEQEND
  8
0
  0
SOLID
  8
0
 62
    15
 10
4.196280
 20
1.934680
 11
4.196280
 21
2.677840
 12
4.255240
 22
1.920600
 13
4.255680
 23
2.663760
  0
POLYLINE
  8
0
  6
CONTINUOUS
 66
     1
 40
0.000000
 41
0.000000
  0
VERTEX
  8
0
  6
CONTINUOUS
 10
4.196280
 20
1.934680
  0
VERTEX
  8
0
  6
CONTINUOUS
 10
4.196280
 20
2.677840
  0
VERTEX
  8
0
  6
CONTINUOUS
 10
4.255680
 20
2.663760
  0
VERTEX
  8
0
  6
CONTINUOUS
 10
4.255240
 20
1.920600
  0
VERTEX
  8
0
  6
CONTINUOUS
 10
4.196280
 20
1.934680
  0
SEQEND
  8
0
  0
SOLID
  8
0
 62
    15
 10
4.255240
 20
1.920600
 11
4.255680
 21
2.663760
 12
4.311560
 22
1.899040
 13
4.312000
 23
2.642200
  0
POLYLINE
  8
0
  6
CONTINUOUS
 66
     1
 40
0.000000
 41
0.000000
  0
VERTEX
  8
0
  6
CONTINUOUS
 10
4.255240
 20
1.920600
  0
VERTEX
  8
0
  6
CONTINUOUS
 10
4.255680
 20
2.663760
  0
VERTEX
  8
0
  6
CONTINUOUS
 10
4.312000
 20
2.642200
  0
VERTEX
  8
0
  6
CONTINUOUS
 10
4.311560
 20
1.899040
  0
VERTEX
  8
0
  6
CONTINUOUS
 10
4.255240
 20
1.920600
  0
SEQEND
  8
0
  0
SOLID
  8
0
 62
    15
 10
4.311560
 20
1.899040
 11
4.312000
 21
2.642200
 12
4.363480
 22
1.869560
 13
4.363920
 23
2.612720
  0
POLYLINE
  8
0
  6
CONTINUOUS
 66
     1
 40
0.000000
 41
0.000000
  0
VERTEX
  8
0
  6
CONTINUOUS
 10
4.311560
 20
1.899040
  0
VERTEX
  8
0
  6
CONTINUOUS
 10
4.312000
 20
2.642200
  0
VERTEX
  8
0
  6
CONTINUOUS
 10
4.363920
 20
2.612720
  0
VERTEX
  8
0
  6
CONTINUOUS
 10
4.363480
 20
1.869560
  0
VERTEX
  8
0
  6
CONTINUOUS
 10
4.311560
 20
1.899040
  0
SEQEND
  8
0
  0
SOLID
  8
0
 62
    15
 10
4.363480
 20
1.869560
 11
4.363920
 21
2.612720
 12
4.409680
 22
1.832600
 13
4.409680
 23
2.575760
  0
POLYLINE
  8
0
  6
CONTINUOUS
 66
     1
 40
0.000000
 41
0.000000
  0
VERTEX
  8
0
  6
CONTINUOUS
 10
4.363480
 20
1.869560
  0
VERTEX
  8
0
  6
CONTINUOUS
 10
4.363920
 20
2.612720
  0
VERTEX
  8
0
  6
CONTINUOUS
 10
4.409680
 20
2.575760
  0
VERTEX
  8
0
  6
CONTINUOUS
 10
4.409680
 20
1.832600
  0
VERTEX
  8
0
  6
CONTINUOUS
 10
4.363480
 20
1.869560
  0
SEQEND
  8
0
  0
SOLID
  8
0
 62
    15
 10
4.409680
 20
1.832600
 11
4.409680
 21
2.575760
 12
4.448400
 22
1.789480
 13
4.448840
 23
2.532640
  0
POLYLINE
  8
0
  6
CONTINUOUS
 66
     1
 40
0.000000
 41
0.000000
  0
VERTEX
  8
0
  6
CONTINUOUS
 10
4.409680
 20
1.832600
  0
VERTEX
  8
0
  6
CONTINUOUS
 10
4.409680
 20
2.575760
  0
VERTEX
  8
0
  6
CONTINUOUS
 10
4.448840
 20
2.532640
  0
VERTEX
  8
0
  6
CONTINUOUS
 10
4.448400
 20
1.789480
  0
VERTEX
  8
0
  6
CONTINUOUS
 10
4.409680
 20
1.832600
  0
SEQEND
  8
0
  0
SOLID
  8
0
 62
    15
 10
4.448400
 20
1.789480
 11
4.448840
 21
2.532640
 12
4.478320
 22
1.740640
 13
4.478760
 23
2.483360
  0
POLYLINE
  8
0
  6
CONTINUOUS
 66
     1
 40
0.000000
 41
0.000000
  0
VERTEX
  8
0
  6
CONTINUOUS
 10
4.448400
 20
1.789480
  0
VERTEX
  8
0
  6
CONTINUOUS
 10
4.448840
 20
2.532640
  0
VERTEX
  8
0
  6
CONTINUOUS
 10
4.478760
 20
2.483360
  0
VERTEX
  8
0
  6
CONTINUOUS
 10
4.478320
 20
1.740640
  0
VERTEX
  8
0
  6
CONTINUOUS
 10
4.448400
 20
1.789480
  0
SEQEND
  8
0
  0
SOLID
  8
0
 62
    15
 10
4.478320
 20
1.740640
 11
4.478760
 21
2.483360
 12
4.498120
 22
1.685640
 13
4.498120
 23
2.428800
  0
POLYLINE
  8
0
  6
CONTINUOUS
 66
     1
 40
0.000000
 41
0.000000
  0
VERTEX
  8
0
  6
CONTINUOUS
 10
4.478320
 20
1.740640
  0
VERTEX
  8
0
  6
CONTINUOUS
 10
4.478760
 20
2.483360
  0
VERTEX
  8
0
  6
CONTINUOUS
 10
4.498120
 20
2.428800
  0
VERTEX
  8
0
  6
CONTINUOUS
 10
4.498120
 20
1.685640
  0
VERTEX
  8
0
  6
CONTINUOUS
 10
4.478320
 20
1.740640
  0
SEQEND
  8
0
  0
SOLID
  8
0
 62
    15
 10
4.506040
 20
1.626240
 11
4.506040
 21
2.369400
 12
4.506040
 22
1.507880
 13
4.506040
 23
2.251040
  0
POLYLINE
  8
0
  6
CONTINUOUS
 66
     1
 40
0.000000
 41
0.000000
  0
VERTEX
  8
0
  6
CONTINUOUS
 10
4.506040
 20
1.626240
  0
VERTEX
  8
0
  6
CONTINUOUS
 10
4.506040
 20
2.369400
  0
VERTEX
  8
0
  6
CONTINUOUS
 10
4.506040
 20
2.251040
  0
VERTEX
  8
0
  6
CONTINUOUS
 10
4.506040
 20
1.507880
  0
VERTEX
  8
0
  6
CONTINUOUS
 10
4.506040
 20
1.626240
  0
SEQEND
  8
0
  0
SOLID
  8
0
 62
    15
 10
3.795440
 20
1.683000
 11
3.795880
 21
2.426160
 12
3.809080
 22
1.720400
 13
3.809080
 23
2.463560
  0
POLYLINE
  8
0
  6
CONTINUOUS
 66
     1
 40
0.000000
 41
0.000000
  0
VERTEX
  8
0
  6
CONTINUOUS
 10
3.795440
 20
1.683000
  0
VERTEX
  8
0
  6
CONTINUOUS
 10
3.795880
 20
2.426160
  0
VERTEX
  8
0
  6
CONTINUOUS
 10
3.809080
 20
2.463560
  0
VERTEX
  8
0
  6
CONTINUOUS
 10
3.809080
 20
1.720400
  0
VERTEX
  8
0
  6
CONTINUOUS
 10
3.795440
 20
1.683000
  0
SEQEND
  8
0
  0
SOLID
  8
0
 62
    15
 10
4.498120
 20
1.685640
 11
4.498120
 21
2.428800
 12
4.506040
 22
1.626240
 13
4.506040
 23
2.369400
  0
POLYLINE
  8
0
  6
CONTINUOUS
 66
     1
 40
0.000000
 41
0.000000
  0
VERTEX
  8
0
  6
CONTINUOUS
 10
4.498120
 20
1.685640
  0
VERTEX
  8
0
  6
CONTINUOUS
 10
4.498120
 20
2.428800
  0
VERTEX
  8
0
  6
CONTINUOUS
 10
4.506040
 20
2.369400
  0
VERTEX
  8
0
  6
CONTINUOUS
 10
4.506040
 20
1.626240
  0
VERTEX
  8
0
  6
CONTINUOUS
 10
4.498120
 20
1.685640
  0
SEQEND
  8
0
  0
SOLID
  8
0
 62
    15
 10
4.549600
 20
1.503920
 11
4.549600
 21
2.247080
 12
4.587440
 22
1.492920
 13
4.587440
 23
2.236080
  0
POLYLINE
  8
0
  6
CONTINUOUS
 66
     1
 40
0.000000
 41
0.000000
  0
VERTEX
  8
0
  6
CONTINUOUS
 10
4.549600
 20
1.503920
  0
VERTEX
  8
0
  6
CONTINUOUS
 10
4.549600
 20
2.247080
  0
VERTEX
  8
0
  6
CONTINUOUS
 10
4.587440
 20
2.236080
  0
VERTEX
  8
0
  6
CONTINUOUS
 10
4.587440
 20
1.492920
  0
VERTEX
  8
0
  6
CONTINUOUS
 10
4.549600
 20
1.503920
  0
SEQEND
  8
0
  0
SOLID
  8
0
 62
    15
 10
4.587440
 20
1.492920
 11
4.587440
 21
2.236080
 12
4.618680
 22
1.475760
 13
4.619120
 23
2.218920
  0
POLYLINE
  8
0
  6
CONTINUOUS
 66
     1
 40
0.000000
 41
0.000000
  0
VERTEX
  8
0
  6
CONTINUOUS
 10
4.587440
 20
1.492920
  0
VERTEX
  8
0
  6
CONTINUOUS
 10
4.587440
 20
2.236080
  0
VERTEX
  8
0
  6
CONTINUOUS
 10
4.619120
 20
2.218920
  0
VERTEX
  8
0
  6
CONTINUOUS
 10
4.618680
 20
1.475760
  0
VERTEX
  8
0
  6
CONTINUOUS
 10
4.587440
 20
1.492920
  0
SEQEND
  8
0
  0
SOLID
  8
0
 62
    15
 10
4.618680
 20
1.475760
 11
4.619120
 21
2.218920
 12
4.644640
 22
1.454200
 13
4.644640
 23
2.197360
  0
POLYLINE
  8
0
  6
CONTINUOUS
 66
     1
 40
0.000000
 41
0.000000
  0
VERTEX
  8
0
  6
CONTINUOUS
 10
4.618680
 20
1.475760
  0
VERTEX
  8
0
  6
CONTINUOUS
 10
4.619120
 20
2.218920
  0
VERTEX
  8
0
  6
CONTINUOUS
 10
4.644640
 20
2.197360
  0
VERTEX
  8
0
  6
CONTINUOUS
 10
4.644640
 20
1.454200
  0
VERTEX
  8
0
  6
CONTINUOUS
 10
4.618680
 20
1.475760
  0
SEQEND
  8
0
  0
SOLID
  8
0
 62
    15
 10
4.644640
 20
1.454200
 11
4.644640
 21
2.197360
 12
4.664440
 22
1.428680
 13
4.664440
 23
2.171840
  0
POLYLINE
  8
0
  6
CONTINUOUS
 66
     1
 40
0.000000
 41
0.000000
  0
VERTEX
  8
0
  6
CONTINUOUS
 10
4.644640
 20
1.454200
  0
VERTEX
  8
0
  6
CONTINUOUS
 10
4.644640
 20
2.197360
  0
VERTEX
  8
0
  6
CONTINUOUS
 10
4.664440
 20
2.171840
  0
VERTEX
  8
0
  6
CONTINUOUS
 10
4.664440
 20
1.428680
  0
VERTEX
  8
0
  6
CONTINUOUS
 10
4.644640
 20
1.454200
  0
SEQEND
  8
0
  0
SOLID
  8
0
 62
    15
 10
4.664440
 20
1.428680
 11
4.664440
 21
2.171840
 12
4.678520
 22
1.401400
 13
4.678520
 23
2.144560
  0
POLYLINE
  8
0
  6
CONTINUOUS
 66
     1
 40
0.000000
 41
0.000000
  0
VERTEX
  8
0
  6
CONTINUOUS
 10
4.664440
 20
1.428680
  0
VERTEX
  8
0
  6
CONTINUOUS
 10
4.664440
 20
2.171840
  0
VERTEX
  8
0
  6
CONTINUOUS
 10
4.678520
 20
2.144560
  0
VERTEX
  8
0
  6
CONTINUOUS
 10
4.678520
 20
1.401400
  0
VERTEX
  8
0
  6
CONTINUOUS
 10
4.664440
 20
1.428680
  0
SEQEND
  8
0
  0
SOLID
  8
0
 62
    15
 10
4.678520
 20
1.401400
 11
4.678520
 21
2.144560
 12
4.686880
 22
1.372800
 13
4.687320
 23
2.115960
  0
POLYLINE
  8
0
  6
CONTINUOUS
 66
     1
 40
0.000000
 41
0.000000
  0
VERTEX
  8
0
  6
CONTINUOUS
 10
4.678520
 20
1.401400
  0
VERTEX
  8
0
  6
CONTINUOUS
 10
4.678520
 20
2.144560
  0
VERTEX
  8
0
  6
CONTINUOUS
 10
4.687320
 20
2.115960
  0
VERTEX
  8
0
  6
CONTINUOUS
 10
4.686880
 20
1.372800
  0
VERTEX
  8
0
  6
CONTINUOUS
 10
4.678520
 20
1.401400
  0
SEQEND
  8
0
  0
SOLID
  8
0
 62
    15
 10
4.686880
 20
1.372800
 11
4.687320
 21
2.115960
 12
4.690400
 22
1.344200
 13
4.690400
 23
2.087360
  0
POLYLINE
  8
0
  6
CONTINUOUS
 66
     1
 40
0.000000
 41
0.000000
  0
VERTEX
  8
0
  6
CONTINUOUS
 10
4.686880
 20
1.372800
  0
VERTEX
  8
0
  6
CONTINUOUS
 10
4.687320
 20
2.115960
  0
VERTEX
  8
0
  6
CONTINUOUS
 10
4.690400
 20
2.087360
  0
VERTEX
  8
0
  6
CONTINUOUS
 10
4.690400
 20
1.344200
  0
VERTEX
  8
0
  6
CONTINUOUS
 10
4.686880
 20
1.372800
  0
SEQEND
  8
0
  0
SOLID
  8
0
 62
    15
 10
4.690400
 20
1.344200
 11
4.690400
 21
2.087360
 12
4.756840
 22
1.339800
 13
4.757280
 23
2.082960
  0
POLYLINE
  8
0
  6
CONTINUOUS
 66
     1
 40
0.000000
 41
0.000000
  0
VERTEX
  8
0
  6
CONTINUOUS
 10
4.690400
 20
1.344200
  0
VERTEX
  8
0
  6
CONTINUOUS
 10
4.690400
 20
2.087360
  0
VERTEX
  8
0
  6
CONTINUOUS
 10
4.757280
 20
2.082960
  0
VERTEX
  8
0
  6
CONTINUOUS
 10
4.756840
 20
1.339800
  0
VERTEX
  8
0
  6
CONTINUOUS
 10
4.690400
 20
1.344200
  0
SEQEND
  8
0
  0
SOLID
  8
0
 62
    15
 10
4.756840
 20
1.339800
 11
4.757280
 21
2.082960
 12
4.819320
 22
1.326160
 13
4.819760
 23
2.069320
  0
POLYLINE
  8
0
  6
CONTINUOUS
 66
     1
 40
0.000000
 41
0.000000
  0
VERTEX
  8
0
  6
CONTINUOUS
 10
4.756840
 20
1.339800
  0
VERTEX
  8
0
  6
CONTINUOUS
 10
4.757280
 20
2.082960
  0
VERTEX
  8
0
  6
CONTINUOUS
 10
4.819760
 20
2.069320
  0
VERTEX
  8
0
  6
CONTINUOUS
 10
4.819320
 20
1.326160
  0
VERTEX
  8
0
  6
CONTINUOUS
 10
4.756840
 20
1.339800
  0
SEQEND
  8
0
  0
SOLID
  8
0
 62
    15
 10
4.819320
 20
1.326160
 11
4.819760
 21
2.069320
 12
4.876080
 22
1.304600
 13
4.876080
 23
2.047760
  0
POLYLINE
  8
0
  6
CONTINUOUS
 66
     1
 40
0.000000
 41
0.000000
  0
VERTEX
  8
0
  6
CONTINUOUS
 10
4.819320
 20
1.326160
  0
VERTEX
  8
0
  6
CONTINUOUS
 10
4.819760
 20
2.069320
  0
VERTEX
  8
0
  6
CONTINUOUS
 10
4.876080
 20
2.047760
  0
VERTEX
  8
0
  6
CONTINUOUS
 10
4.876080
 20
1.304600
  0
VERTEX
  8
0
  6
CONTINUOUS
 10
4.819320
 20
1.326160
  0
SEQEND
  8
0
  0
SOLID
  8
0
 62
    15
 10
4.876080
 20
1.304600
 11
4.876080
 21
2.047760
 12
4.925800
 22
1.276000
 13
4.925800
 23
2.019160
  0
POLYLINE
  8
0
  6
CONTINUOUS
 66
     1
 40
0.000000
 41
0.000000
  0
VERTEX
  8
0
  6
CONTINUOUS
 10
4.876080
 20
1.304600
  0
VERTEX
  8
0
  6
CONTINUOUS
 10
4.876080
 20
2.047760
  0
VERTEX
  8
0
  6
CONTINUOUS
 10
4.925800
 20
2.019160
  0
VERTEX
  8
0
  6
CONTINUOUS
 10
4.925800
 20
1.276000
  0
VERTEX
  8
0
  6
CONTINUOUS
 10
4.876080
 20
1.304600
  0
SEQEND
  8
0
  0
SOLID
  8
0
 62
    15
 10
4.925800
 20
1.276000
 11
4.925800
 21
2.019160
 12
4.966720
 22
1.242120
 13
4.966720
 23
1.985280
  0
POLYLINE
  8
0
  6
CONTINUOUS
 66
     1
 40
0.000000
 41
0.000000
  0
VERTEX
  8
0
  6
CONTINUOUS
 10
4.925800
 20
1.276000
  0
VERTEX
  8
0
  6
CONTINUOUS
 10
4.925800
 20
2.019160
  0
VERTEX
  8
0
  6
CONTINUOUS
 10
4.966720
 20
1.985280
  0
VERTEX
  8
0
  6
CONTINUOUS
 10
4.966720
 20
1.242120
  0
VERTEX
  8
0
  6
CONTINUOUS
 10
4.925800
 20
1.276000
  0
SEQEND
  8
0
  0
SOLID
  8
0
 62
    15
 10
4.966720
 20
1.242120
 11
4.966720
 21
1.985280
 12
4.997960
 22
1.204280
 13
4.997960
 23
1.947440
  0
POLYLINE
  8
0
  6
CONTINUOUS
 66
     1
 40
0.000000
 41
0.000000
  0
VERTEX
  8
0
  6
CONTINUOUS
 10
4.966720
 20
1.242120
  0
VERTEX
  8
0
  6
CONTINUOUS
 10
4.966720
 20
1.985280
  0
VERTEX
  8
0
  6
CONTINUOUS
 10
4.997960
 20
1.947440
  0
VERTEX
  8
0
  6
CONTINUOUS
 10
4.997960
 20
1.204280
  0
VERTEX
  8
0
  6
CONTINUOUS
 10
4.966720
 20
1.242120
  0
SEQEND
  8
0
  0
SOLID
  8
0
 62
    15
 10
4.997960
 20
1.204280
 11
4.997960
 21
1.947440
 12
5.017320
 22
1.164240
 13
5.017760
 23
1.907400
  0
POLYLINE
  8
0
  6
CONTINUOUS
 66
     1
 40
0.000000
 41
0.000000
  0
VERTEX
  8
0
  6
CONTINUOUS
 10
4.997960
 20
1.204280
  0
VERTEX
  8
0
  6
CONTINUOUS
 10
4.997960
 20
1.947440
  0
VERTEX
  8
0
  6
CONTINUOUS
 10
5.017760
 20
1.907400
  0
VERTEX
  8
0
  6
CONTINUOUS
 10
5.017320
 20
1.164240
  0
VERTEX
  8
0
  6
CONTINUOUS
 10
4.997960
 20
1.204280
  0
SEQEND
  8
0
  0
SOLID
  8
0
 62
    15
 10
5.017320
 20
1.164240
 11
5.017760
 21
1.907400
 12
5.024360
 22
1.122880
 13
5.024360
 23
1.866040
  0
POLYLINE
  8
0
  6
CONTINUOUS
 66
     1
 40
0.000000
 41
0.000000
  0
VERTEX
  8
0
  6
CONTINUOUS
 10
5.017320
 20
1.164240
  0
VERTEX
  8
0
  6
CONTINUOUS
 10
5.017760
 20
1.907400
  0
VERTEX
  8
0
  6
CONTINUOUS
 10
5.024360
 20
1.866040
  0
VERTEX
  8
0
  6
CONTINUOUS
 10
5.024360
 20
1.122880
  0
VERTEX
  8
0
  6
CONTINUOUS
 10
5.017320
 20
1.164240
  0
SEQEND
  8
0
  0
POLYLINE
  8
0
  6
CONTINUOUS
 66
     1
 40
0.000000
 41
0.000000
  0
VERTEX
  8
0
  6
CONTINUOUS
 10
3.999160
 20
1.122880
  0
VERTEX
  8
0
  6
CONTINUOUS
 10
3.999160
 20
1.683000
  0
VERTEX
  8
0
  6
CONTINUOUS
 10
3.795440
 20
1.683000
  0
VERTEX
  8
0
  6
CONTINUOUS
 10
3.809080
 20
1.720400
  0
VERTEX
  8
0
  6
CONTINUOUS
 10
3.824920
 20
1.754720
  0
VERTEX
  8
0
  6
CONTINUOUS
 10
3.862760
 20
1.813680
  0
VERTEX
  8
0
  6
CONTINUOUS
 10
3.908520
 20
1.860760
  0
VERTEX
  8
0
  6
CONTINUOUS
 10
3.960000
 20
1.896400
  0
VERTEX
  8
0
  6
CONTINUOUS
 10
4.015880
 20
1.921040
  0
VERTEX
  8
0
  6
CONTINUOUS
 10
4.074840
 20
1.935120
  0
VERTEX
  8
0
  6
CONTINUOUS
 10
4.135560
 20
1.939520
  0
VERTEX
  8
0
  6
CONTINUOUS
 10
4.196280
 20
1.934680
  0
VERTEX
  8
0
  6
CONTINUOUS
 10
4.255240
 20
1.920600
  0
VERTEX
  8
0
  6
CONTINUOUS
 10
4.311560
 20
1.899040
  0
VERTEX
  8
0
  6
CONTINUOUS
 10
4.363480
 20
1.869560
  0
VERTEX
  8
0
  6
CONTINUOUS
 10
4.409680
 20
1.832600
  0
VERTEX
  8
0
  6
CONTINUOUS
 10
4.448400
 20
1.789480
  0
VERTEX
  8
0
  6
CONTINUOUS
 10
4.478320
 20
1.740640
  0
VERTEX
  8
0
  6
CONTINUOUS
 10
4.498120
 20
1.685640
  0
VERTEX
  8
0
  6
CONTINUOUS
 10
4.506040
 20
1.626240
  0
VERTEX
  8
0
  6
CONTINUOUS
 10
4.506040
 20
1.507880
  0
VERTEX
  8
0
  6
CONTINUOUS
 10
4.549600
 20
1.503920
  0
VERTEX
  8
0
  6
CONTINUOUS
 10
4.587440
 20
1.492920
  0
VERTEX
  8
0
  6
CONTINUOUS
 10
4.618680
 20
1.475760
  0
VERTEX
  8
0
  6
CONTINUOUS
 10
4.644640
 20
1.454200
  0
VERTEX
  8
0
  6
CONTINUOUS
 10
4.664440
 20
1.428680
  0
VERTEX
  8
0
  6
CONTINUOUS
 10
4.678520
 20
1.401400
  0
VERTEX
  8
0
  6
CONTINUOUS
 10
4.686880
 20
1.372800
  0
VERTEX
  8
0
  6
CONTINUOUS
 10
4.690400
 20
1.344200
  0
VERTEX
  8
0
  6
CONTINUOUS
 10
4.756840
 20
1.339800
  0
VERTEX
  8
0
  6
CONTINUOUS
 10
4.819320
 20
1.326160
  0
VERTEX
  8
0
  6
CONTINUOUS
 10
4.876080
 20
1.304600
  0
VERTEX
  8
0
  6
CONTINUOUS
 10
4.925800
 20
1.276000
  0
VERTEX
  8
0
  6
CONTINUOUS
 10
4.966720
 20
1.242120
  0
VERTEX
  8
0
  6
CONTINUOUS
 10
4.997960
 20
1.204280
  0
VERTEX
  8
0
  6
CONTINUOUS
 10
5.017320
 20
1.164240
  0
VERTEX
  8
0
  6
CONTINUOUS
 10
5.024360
 20
1.122880
  0
VERTEX
  8
0
  6
CONTINUOUS
 10
3.999160
 20
1.122880
  0
SEQEND
  8
0
  0
TEXT
  8
0
 10
4.069120
 20
0.846120
 40
0.138045
  1
BA  1235
 41
1.000000
  7
SN0
 71
     0
 72
     5
 11
4.751348
 21
0.846120
  0
TEXT
  8
0
 10
3.867160
 20
0.654280
 40
0.138045
  1
13/16" x 1-1/4"
 41
1.000000
  7
SN0
 71
     0
 72
     5
 11
4.951905
 21
0.654280
  0
ENDSEC
  0
EOF
