  0
SECTION
  2
HEADER
  9
$ACADVER
  1
AC1006
  9
$EXTMIN
 10
2.267320
 20
0.286880
  9
$EXTMAX
 10
7.477800
 20
4.511760
  9
$LTSCALE
 40
0.044000
  9
$PDMODE
 70
    35
  9
$PDSIZE
 40
0.035200
  0
ENDSEC
  0
SECTION
  2
TABLES
  0
TABLE
  2
LTYPE
 70
     9
  0
LTYPE
  2
CONTINUOUS
 70
    64
  3
Solid line
 72
    65
 73
     0
 40
0.000000
  0
LTYPE
  2
DASHED
 70
    64
  3
__ __ __ __ __ __ __ __ __ __ __ __ __ __ __
 72
    65
 73
     2
 40
0.000330
 49
0.000220
 49
-0.000110
  0
LTYPE
  2
HIDDEN
 70
    64
  3
 _ _ _ _ _ _ _ _ _ _ _ _ _ _ _ _ _ _ _ _ _ _
 72
    65
 73
     2
 40
0.000165
 49
0.000110
 49
-0.000055
  0
LTYPE
  2
CENTER
 70
    64
  3
____ _ ____ _ ____ _ ____ _ ____ _ ____ _ ____
 72
    65
 73
     4
 40
0.000880
 49
0.000550
 49
-0.000110
 49
0.000110
 49
-0.000110
  0
LTYPE
  2
PHANTOM
 70
    64
  3
_____ _ _ _____ _ _ _____ _ _ _____ _ _ ____
 72
    65
 73
     6
 40
0.001100
 49
0.000550
 49
-0.000110
 49
0.000110
 49
-0.000110
 49
0.000110
 49
-0.000110
  0
LTYPE
  2
DOT
 70
    64
  3
...............................................
 72
    65
 73
     2
 40
0.000110
 49
0.000000
 49
-0.000110
  0
LTYPE
  2
DASHDOT
 70
    64
  3
__ . __ . __ . __ . __ . __ . __ . __ . __ . __
 72
    65
 73
     4
 40
0.000440
 49
0.000220
 49
-0.000110
 49
0.000000
 49
-0.000110
  0
LTYPE
  2
BORDER
 70
    64
  3
__ __ . __ __ . __ __ . __ __ . __ __ . __ __
 72
    65
 73
     6
 40
0.000770
 49
0.000220
 49
-0.000110
 49
0.000220
 49
-0.000110
 49
0.000000
 49
-0.000110
  0
LTYPE
  2
DIVIDE
 70
    64
  3
__ . . __ . . __ . . __ . . __ . . __ . . __
 72
    65
 73
     6
 40
0.000550
 49
0.000220
 49
-0.000110
 49
0.000000
 49
-0.000110
 49
0.000000
 49
-0.000110
  0
LTYPE
  2
DOTDOT
 70
    64
  3
 . .  . .  . .  . .  . .  . . 
 72
    65
 73
     5
 40
0.000242
 49
-0.000110
 49
0.000000
 49
-0.000110
 49
0.000000
 49
-0.000110
  0
ENDTAB
  0
TABLE
  2
STYLE
 70
     2
  0
STYLE
 70
     0
  2
SN0
 40
0.000000
 41
0.000440
 50
0.000000
 71
     0
 42
0.000000
  3
ROMAND
  0
STYLE
 70
    68
  2
SV0
 40
0.000000
 41
0.000440
 50
0.000000
 71
     0
 42
0.000000
  3
ROMAND
  0
ENDTAB
  0
TABLE
  2
LAYER
 70
     3
  0
LAYER
  2
FOREGROUND
 70
    64
 62
     7
  6
CONTINUOUS
  0
LAYER
  2
BACKGROUND
 70
    65
 62
    -7
  6
CONTINUOUS
  0
LAYER
  2
0
 70
    64
 62
     7
  6
CONTINUOUS
  0
ENDTAB
  0
ENDSEC
  0
SECTION
  2
ENTITIES
  0
POLYLINE
  8
FOREGROUND
  6
CONTINUOUS
 66
     1
 40
0.000000
 41
0.000000
  0
VERTEX
  8
FOREGROUND
  6
CONTINUOUS
 10
0.000000
 20
4.798640
  0
VERTEX
  8
FOREGROUND
  6
CONTINUOUS
 10
8.499920
 20
4.798640
  0
VERTEX
  8
FOREGROUND
  6
CONTINUOUS
 10
8.499920
 20
-6.201360
  0
VERTEX
  8
FOREGROUND
  6
CONTINUOUS
 10
0.000000
 20
-6.201360
  0
VERTEX
  8
FOREGROUND
  6
CONTINUOUS
 10
0.000000
 20
4.798640
  0
SEQEND
  8
0
  0
POLYLINE
  8
FOREGROUND
  6
CONTINUOUS
 66
     1
 40
0.000000
 41
0.000000
  0
VERTEX
  8
FOREGROUND
  6
CONTINUOUS
 10
0.000000
 20
4.798640
  0
VERTEX
  8
FOREGROUND
  6
CONTINUOUS
 10
8.499920
 20
4.798640
  0
VERTEX
  8
FOREGROUND
  6
CONTINUOUS
 10
8.499920
 20
-6.201360
  0
VERTEX
  8
FOREGROUND
  6
CONTINUOUS
 10
0.000000
 20
-6.201360
  0
VERTEX
  8
FOREGROUND
  6
CONTINUOUS
 10
0.000000
 20
4.798640
  0
SEQEND
  8
0
  0
POLYLINE
  8
0
  6
CONTINUOUS
 66
     1
 40
0.000000
 41
0.000000
  0
VERTEX
  8
0
  6
CONTINUOUS
 10
5.271200
 20
3.535400
  0
VERTEX
  8
0
  6
CONTINUOUS
 10
5.271200
 20
4.510880
  0
VERTEX
  8
0
  6
CONTINUOUS
 10
5.445000
 20
4.510880
  0
VERTEX
  8
0
  6
CONTINUOUS
 10
5.450280
 20
4.480960
  0
VERTEX
  8
0
  6
CONTINUOUS
 10
5.457760
 20
4.451480
  0
VERTEX
  8
0
  6
CONTINUOUS
 10
5.467000
 20
4.422440
  0
VERTEX
  8
0
  6
CONTINUOUS
 10
5.478440
 20
4.393840
  0
VERTEX
  8
0
  6
CONTINUOUS
 10
5.499560
 20
4.352480
  0
VERTEX
  8
0
  6
CONTINUOUS
 10
5.525960
 20
4.313760
  0
VERTEX
  8
0
  6
CONTINUOUS
 10
5.556760
 20
4.279000
  0
VERTEX
  8
0
  6
CONTINUOUS
 10
5.593280
 20
4.248640
  0
VERTEX
  8
0
  6
CONTINUOUS
 10
5.620120
 20
4.231040
  0
VERTEX
  8
0
  6
CONTINUOUS
 10
5.649160
 20
4.216520
  0
VERTEX
  8
0
  6
CONTINUOUS
 10
5.680840
 20
4.204640
  0
VERTEX
  8
0
  6
CONTINUOUS
 10
5.714720
 20
4.195840
  0
VERTEX
  8
0
  6
CONTINUOUS
 10
5.751240
 20
4.190120
  0
VERTEX
  8
0
  6
CONTINUOUS
 10
5.789960
 20
4.188360
  0
VERTEX
  8
0
  6
CONTINUOUS
 10
5.789960
 20
4.058560
  0
VERTEX
  8
0
  6
CONTINUOUS
 10
6.776880
 20
4.058560
  0
VERTEX
  8
0
  6
CONTINUOUS
 10
6.776880
 20
4.013240
  0
VERTEX
  8
0
  6
CONTINUOUS
 10
6.813840
 20
4.011480
  0
VERTEX
  8
0
  6
CONTINUOUS
 10
6.845080
 20
4.005320
  0
VERTEX
  8
0
  6
CONTINUOUS
 10
6.859160
 20
4.000920
  0
VERTEX
  8
0
  6
CONTINUOUS
 10
6.882920
 20
3.988600
  0
VERTEX
  8
0
  6
CONTINUOUS
 10
6.893040
 20
3.981120
  0
VERTEX
  8
0
  6
CONTINUOUS
 10
6.908880
 20
3.962200
  0
VERTEX
  8
0
  6
CONTINUOUS
 10
6.915480
 20
3.951640
  0
VERTEX
  8
0
  6
CONTINUOUS
 10
6.920760
 20
3.939760
  0
VERTEX
  8
0
  6
CONTINUOUS
 10
6.927360
 20
3.912920
  0
VERTEX
  8
0
  6
CONTINUOUS
 10
6.929120
 20
3.897960
  0
VERTEX
  8
0
  6
CONTINUOUS
 10
6.929560
 20
3.881680
  0
VERTEX
  8
0
  6
CONTINUOUS
 10
6.989840
 20
3.881680
  0
VERTEX
  8
0
  6
CONTINUOUS
 10
6.989840
 20
3.801600
  0
VERTEX
  8
0
  6
CONTINUOUS
 10
7.049240
 20
3.801160
  0
VERTEX
  8
0
  6
CONTINUOUS
 10
7.103360
 20
3.797640
  0
VERTEX
  8
0
  6
CONTINUOUS
 10
7.168480
 20
3.788840
  0
VERTEX
  8
0
  6
CONTINUOUS
 10
7.225680
 20
3.775640
  0
VERTEX
  8
0
  6
CONTINUOUS
 10
7.275400
 20
3.759360
  0
VERTEX
  8
0
  6
CONTINUOUS
 10
7.318520
 20
3.740000
  0
VERTEX
  8
0
  6
CONTINUOUS
 10
7.355040
 20
3.718880
  0
VERTEX
  8
0
  6
CONTINUOUS
 10
7.385400
 20
3.696000
  0
VERTEX
  8
0
  6
CONTINUOUS
 10
7.421480
 20
3.660360
  0
VERTEX
  8
0
  6
CONTINUOUS
 10
7.439520
 20
3.636600
  0
VERTEX
  8
0
  6
CONTINUOUS
 10
7.458880
 20
3.602720
  0
VERTEX
  8
0
  6
CONTINUOUS
 10
7.470320
 20
3.573240
  0
VERTEX
  8
0
  6
CONTINUOUS
 10
7.477360
 20
3.544200
  0
VERTEX
  8
0
  6
CONTINUOUS
 10
7.477800
 20
3.535400
  0
VERTEX
  8
0
  6
CONTINUOUS
 10
5.271200
 20
3.535400
  0
SEQEND
  8
0
  0
SOLID
  8
0
 62
    15
 10
3.863200
 20
1.265440
 11
4.511320
 21
1.640320
 12
3.861880
 22
1.187560
 13
4.510000
 23
1.562440
  0
POLYLINE
  8
0
  6
CONTINUOUS
 66
     1
 40
0.000000
 41
0.000000
  0
VERTEX
  8
0
  6
CONTINUOUS
 10
3.863200
 20
1.265440
  0
VERTEX
  8
0
  6
CONTINUOUS
 10
4.511320
 20
1.640320
  0
VERTEX
  8
0
  6
CONTINUOUS
 10
4.510000
 20
1.562440
  0
VERTEX
  8
0
  6
CONTINUOUS
 10
3.861880
 20
1.187560
  0
VERTEX
  8
0
  6
CONTINUOUS
 10
3.863200
 20
1.265440
  0
SEQEND
  8
0
  0
SOLID
  8
0
 62
    15
 10
4.400880
 20
2.747360
 11
5.049000
 21
3.122240
 12
4.352040
 22
2.709080
 13
5.000160
 23
3.083960
  0
POLYLINE
  8
0
  6
CONTINUOUS
 66
     1
 40
0.000000
 41
0.000000
  0
VERTEX
  8
0
  6
CONTINUOUS
 10
4.400880
 20
2.747360
  0
VERTEX
  8
0
  6
CONTINUOUS
 10
5.049000
 20
3.122240
  0
VERTEX
  8
0
  6
CONTINUOUS
 10
5.000160
 20
3.083960
  0
VERTEX
  8
0
  6
CONTINUOUS
 10
4.352040
 20
2.709080
  0
VERTEX
  8
0
  6
CONTINUOUS
 10
4.400880
 20
2.747360
  0
SEQEND
  8
0
  0
SOLID
  8
0
 62
    15
 10
4.352040
 20
2.709080
 11
5.000160
 21
3.083960
 12
4.310240
 22
2.662000
 13
4.958360
 23
3.036880
  0
POLYLINE
  8
0
  6
CONTINUOUS
 66
     1
 40
0.000000
 41
0.000000
  0
VERTEX
  8
0
  6
CONTINUOUS
 10
4.352040
 20
2.709080
  0
VERTEX
  8
0
  6
CONTINUOUS
 10
5.000160
 20
3.083960
  0
VERTEX
  8
0
  6
CONTINUOUS
 10
4.958360
 20
3.036880
  0
VERTEX
  8
0
  6
CONTINUOUS
 10
4.310240
 20
2.662000
  0
VERTEX
  8
0
  6
CONTINUOUS
 10
4.352040
 20
2.709080
  0
SEQEND
  8
0
  0
SOLID
  8
0
 62
    15
 10
4.310240
 20
2.662000
 11
4.958360
 21
3.036880
 12
4.278120
 22
2.605680
 13
4.926240
 23
2.980560
  0
POLYLINE
  8
0
  6
CONTINUOUS
 66
     1
 40
0.000000
 41
0.000000
  0
VERTEX
  8
0
  6
CONTINUOUS
 10
4.310240
 20
2.662000
  0
VERTEX
  8
0
  6
CONTINUOUS
 10
4.958360
 20
3.036880
  0
VERTEX
  8
0
  6
CONTINUOUS
 10
4.926240
 20
2.980560
  0
VERTEX
  8
0
  6
CONTINUOUS
 10
4.278120
 20
2.605680
  0
VERTEX
  8
0
  6
CONTINUOUS
 10
4.310240
 20
2.662000
  0
SEQEND
  8
0
  0
SOLID
  8
0
 62
    15
 10
4.572480
 20
2.984080
 11
5.220600
 21
3.358960
 12
4.572480
 22
2.810280
 13
5.220600
 23
3.185160
  0
POLYLINE
  8
0
  6
CONTINUOUS
 66
     1
 40
0.000000
 41
0.000000
  0
VERTEX
  8
0
  6
CONTINUOUS
 10
4.572480
 20
2.984080
  0
VERTEX
  8
0
  6
CONTINUOUS
 10
5.220600
 20
3.358960
  0
VERTEX
  8
0
  6
CONTINUOUS
 10
5.220600
 20
3.185160
  0
VERTEX
  8
0
  6
CONTINUOUS
 10
4.572480
 20
2.810280
  0
VERTEX
  8
0
  6
CONTINUOUS
 10
4.572480
 20
2.984080
  0
SEQEND
  8
0
  0
SOLID
  8
0
 62
    15
 10
4.074840
 20
1.477960
 11
4.722960
 21
1.852840
 12
4.073080
 22
1.441440
 13
4.721200
 23
1.816320
  0
POLYLINE
  8
0
  6
CONTINUOUS
 66
     1
 40
0.000000
 41
0.000000
  0
VERTEX
  8
0
  6
CONTINUOUS
 10
4.074840
 20
1.477960
  0
VERTEX
  8
0
  6
CONTINUOUS
 10
4.722960
 20
1.852840
  0
VERTEX
  8
0
  6
CONTINUOUS
 10
4.721200
 20
1.816320
  0
VERTEX
  8
0
  6
CONTINUOUS
 10
4.073080
 20
1.441440
  0
VERTEX
  8
0
  6
CONTINUOUS
 10
4.074840
 20
1.477960
  0
SEQEND
  8
0
  0
SOLID
  8
0
 62
    15
 10
4.120160
 20
2.465320
 11
4.768720
 21
2.840200
 12
4.120160
 22
1.477960
 13
4.768720
 23
1.852840
  0
POLYLINE
  8
0
  6
CONTINUOUS
 66
     1
 40
0.000000
 41
0.000000
  0
VERTEX
  8
0
  6
CONTINUOUS
 10
4.120160
 20
2.465320
  0
VERTEX
  8
0
  6
CONTINUOUS
 10
4.768720
 20
2.840200
  0
VERTEX
  8
0
  6
CONTINUOUS
 10
4.768720
 20
1.852840
  0
VERTEX
  8
0
  6
CONTINUOUS
 10
4.120160
 20
1.477960
  0
VERTEX
  8
0
  6
CONTINUOUS
 10
4.120160
 20
2.465320
  0
SEQEND
  8
0
  0
SOLID
  8
0
 62
    15
 10
4.278120
 20
2.605680
 11
4.926240
 21
2.980560
 12
4.257440
 22
2.540120
 13
4.905560
 23
2.915000
  0
POLYLINE
  8
0
  6
CONTINUOUS
 66
     1
 40
0.000000
 41
0.000000
  0
VERTEX
  8
0
  6
CONTINUOUS
 10
4.278120
 20
2.605680
  0
VERTEX
  8
0
  6
CONTINUOUS
 10
4.926240
 20
2.980560
  0
VERTEX
  8
0
  6
CONTINUOUS
 10
4.905560
 20
2.915000
  0
VERTEX
  8
0
  6
CONTINUOUS
 10
4.257440
 20
2.540120
  0
VERTEX
  8
0
  6
CONTINUOUS
 10
4.278120
 20
2.605680
  0
SEQEND
  8
0
  0
SOLID
  8
0
 62
    15
 10
4.257440
 20
2.540120
 11
4.905560
 21
2.915000
 12
4.249960
 22
2.465320
 13
4.898080
 23
2.840200
  0
POLYLINE
  8
0
  6
CONTINUOUS
 66
     1
 40
0.000000
 41
0.000000
  0
VERTEX
  8
0
  6
CONTINUOUS
 10
4.257440
 20
2.540120
  0
VERTEX
  8
0
  6
CONTINUOUS
 10
4.905560
 20
2.915000
  0
VERTEX
  8
0
  6
CONTINUOUS
 10
4.898080
 20
2.840200
  0
VERTEX
  8
0
  6
CONTINUOUS
 10
4.249960
 20
2.465320
  0
VERTEX
  8
0
  6
CONTINUOUS
 10
4.257440
 20
2.540120
  0
SEQEND
  8
0
  0
SOLID
  8
0
 62
    15
 10
4.073080
 20
1.441440
 11
4.721200
 21
1.816320
 12
4.067360
 22
1.409760
 13
4.715480
 23
1.784640
  0
POLYLINE
  8
0
  6
CONTINUOUS
 66
     1
 40
0.000000
 41
0.000000
  0
VERTEX
  8
0
  6
CONTINUOUS
 10
4.073080
 20
1.441440
  0
VERTEX
  8
0
  6
CONTINUOUS
 10
4.721200
 20
1.816320
  0
VERTEX
  8
0
  6
CONTINUOUS
 10
4.715480
 20
1.784640
  0
VERTEX
  8
0
  6
CONTINUOUS
 10
4.067360
 20
1.409760
  0
VERTEX
  8
0
  6
CONTINUOUS
 10
4.073080
 20
1.441440
  0
SEQEND
  8
0
  0
SOLID
  8
0
 62
    15
 10
3.943280
 20
1.325280
 11
4.591400
 21
1.700160
 12
3.943280
 22
1.265440
 13
4.591400
 23
1.640320
  0
POLYLINE
  8
0
  6
CONTINUOUS
 66
     1
 40
0.000000
 41
0.000000
  0
VERTEX
  8
0
  6
CONTINUOUS
 10
3.943280
 20
1.325280
  0
VERTEX
  8
0
  6
CONTINUOUS
 10
4.591400
 20
1.700160
  0
VERTEX
  8
0
  6
CONTINUOUS
 10
4.591400
 20
1.640320
  0
VERTEX
  8
0
  6
CONTINUOUS
 10
3.943280
 20
1.265440
  0
VERTEX
  8
0
  6
CONTINUOUS
 10
3.943280
 20
1.325280
  0
SEQEND
  8
0
  0
SOLID
  8
0
 62
    15
 10
3.597440
 20
2.984080
 11
4.245560
 21
3.358960
 12
4.572480
 22
2.984080
 13
5.220600
 23
3.358960
  0
POLYLINE
  8
0
  6
CONTINUOUS
 66
     1
 40
0.000000
 41
0.000000
  0
VERTEX
  8
0
  6
CONTINUOUS
 10
3.597440
 20
2.984080
  0
VERTEX
  8
0
  6
CONTINUOUS
 10
4.245560
 20
3.358960
  0
VERTEX
  8
0
  6
CONTINUOUS
 10
5.220600
 20
3.358960
  0
VERTEX
  8
0
  6
CONTINUOUS
 10
4.572480
 20
2.984080
  0
VERTEX
  8
0
  6
CONTINUOUS
 10
3.597440
 20
2.984080
  0
SEQEND
  8
0
  0
SOLID
  8
0
 62
    15
 10
4.042720
 20
1.362240
 11
4.690840
 21
1.737120
 12
4.024240
 22
1.345960
 13
4.672360
 23
1.720840
  0
POLYLINE
  8
0
  6
CONTINUOUS
 66
     1
 40
0.000000
 41
0.000000
  0
VERTEX
  8
0
  6
CONTINUOUS
 10
4.042720
 20
1.362240
  0
VERTEX
  8
0
  6
CONTINUOUS
 10
4.690840
 20
1.737120
  0
VERTEX
  8
0
  6
CONTINUOUS
 10
4.672360
 20
1.720840
  0
VERTEX
  8
0
  6
CONTINUOUS
 10
4.024240
 20
1.345960
  0
VERTEX
  8
0
  6
CONTINUOUS
 10
4.042720
 20
1.362240
  0
SEQEND
  8
0
  0
SOLID
  8
0
 62
    15
 10
4.057240
 20
1.383360
 11
4.705360
 21
1.758240
 12
4.042720
 22
1.362240
 13
4.690840
 23
1.737120
  0
POLYLINE
  8
0
  6
CONTINUOUS
 66
     1
 40
0.000000
 41
0.000000
  0
VERTEX
  8
0
  6
CONTINUOUS
 10
4.057240
 20
1.383360
  0
VERTEX
  8
0
  6
CONTINUOUS
 10
4.705360
 20
1.758240
  0
VERTEX
  8
0
  6
CONTINUOUS
 10
4.690840
 20
1.737120
  0
VERTEX
  8
0
  6
CONTINUOUS
 10
4.042720
 20
1.362240
  0
VERTEX
  8
0
  6
CONTINUOUS
 10
4.057240
 20
1.383360
  0
SEQEND
  8
0
  0
SOLID
  8
0
 62
    15
 10
4.067360
 20
1.409760
 11
4.715480
 21
1.784640
 12
4.057240
 22
1.383360
 13
4.705360
 23
1.758240
  0
POLYLINE
  8
0
  6
CONTINUOUS
 66
     1
 40
0.000000
 41
0.000000
  0
VERTEX
  8
0
  6
CONTINUOUS
 10
4.067360
 20
1.409760
  0
VERTEX
  8
0
  6
CONTINUOUS
 10
4.715480
 20
1.784640
  0
VERTEX
  8
0
  6
CONTINUOUS
 10
4.705360
 20
1.758240
  0
VERTEX
  8
0
  6
CONTINUOUS
 10
4.057240
 20
1.383360
  0
VERTEX
  8
0
  6
CONTINUOUS
 10
4.067360
 20
1.409760
  0
SEQEND
  8
0
  0
SOLID
  8
0
 62
    15
 10
3.861880
 20
1.187560
 11
4.510000
 21
1.562440
 12
3.855280
 22
1.118040
 13
4.503400
 23
1.492920
  0
POLYLINE
  8
0
  6
CONTINUOUS
 66
     1
 40
0.000000
 41
0.000000
  0
VERTEX
  8
0
  6
CONTINUOUS
 10
3.861880
 20
1.187560
  0
VERTEX
  8
0
  6
CONTINUOUS
 10
4.510000
 20
1.562440
  0
VERTEX
  8
0
  6
CONTINUOUS
 10
4.503400
 20
1.492920
  0
VERTEX
  8
0
  6
CONTINUOUS
 10
3.855280
 20
1.118040
  0
VERTEX
  8
0
  6
CONTINUOUS
 10
3.861880
 20
1.187560
  0
SEQEND
  8
0
  0
SOLID
  8
0
 62
    15
 10
3.855280
 20
1.118040
 11
4.503400
 21
1.492920
 12
3.844280
 22
1.056880
 13
4.492400
 23
1.431760
  0
POLYLINE
  8
0
  6
CONTINUOUS
 66
     1
 40
0.000000
 41
0.000000
  0
VERTEX
  8
0
  6
CONTINUOUS
 10
3.855280
 20
1.118040
  0
VERTEX
  8
0
  6
CONTINUOUS
 10
4.503400
 20
1.492920
  0
VERTEX
  8
0
  6
CONTINUOUS
 10
4.492400
 20
1.431760
  0
VERTEX
  8
0
  6
CONTINUOUS
 10
3.844280
 20
1.056880
  0
VERTEX
  8
0
  6
CONTINUOUS
 10
3.855280
 20
1.118040
  0
SEQEND
  8
0
  0
SOLID
  8
0
 62
    15
 10
3.844280
 20
1.056880
 11
4.492400
 21
1.431760
 12
3.829760
 22
1.003640
 13
4.477880
 23
1.378520
  0
POLYLINE
  8
0
  6
CONTINUOUS
 66
     1
 40
0.000000
 41
0.000000
  0
VERTEX
  8
0
  6
CONTINUOUS
 10
3.844280
 20
1.056880
  0
VERTEX
  8
0
  6
CONTINUOUS
 10
4.492400
 20
1.431760
  0
VERTEX
  8
0
  6
CONTINUOUS
 10
4.477880
 20
1.378520
  0
VERTEX
  8
0
  6
CONTINUOUS
 10
3.829760
 20
1.003640
  0
VERTEX
  8
0
  6
CONTINUOUS
 10
3.844280
 20
1.056880
  0
SEQEND
  8
0
  0
SOLID
  8
0
 62
    15
 10
3.829760
 20
1.003640
 11
4.477880
 21
1.378520
 12
3.811720
 22
0.957440
 13
4.459840
 23
1.332320
  0
POLYLINE
  8
0
  6
CONTINUOUS
 66
     1
 40
0.000000
 41
0.000000
  0
VERTEX
  8
0
  6
CONTINUOUS
 10
3.829760
 20
1.003640
  0
VERTEX
  8
0
  6
CONTINUOUS
 10
4.477880
 20
1.378520
  0
VERTEX
  8
0
  6
CONTINUOUS
 10
4.459840
 20
1.332320
  0
VERTEX
  8
0
  6
CONTINUOUS
 10
3.811720
 20
0.957440
  0
VERTEX
  8
0
  6
CONTINUOUS
 10
3.829760
 20
1.003640
  0
SEQEND
  8
0
  0
SOLID
  8
0
 62
    15
 10
3.811720
 20
0.957440
 11
4.459840
 21
1.332320
 12
3.791480
 22
0.917840
 13
4.439600
 23
1.292720
  0
POLYLINE
  8
0
  6
CONTINUOUS
 66
     1
 40
0.000000
 41
0.000000
  0
VERTEX
  8
0
  6
CONTINUOUS
 10
3.811720
 20
0.957440
  0
VERTEX
  8
0
  6
CONTINUOUS
 10
4.459840
 20
1.332320
  0
VERTEX
  8
0
  6
CONTINUOUS
 10
4.439600
 20
1.292720
  0
VERTEX
  8
0
  6
CONTINUOUS
 10
3.791480
 20
0.917840
  0
VERTEX
  8
0
  6
CONTINUOUS
 10
3.811720
 20
0.957440
  0
SEQEND
  8
0
  0
SOLID
  8
0
 62
    15
 10
3.791480
 20
0.917840
 11
4.439600
 21
1.292720
 12
3.769040
 22
0.884400
 13
4.417160
 23
1.259280
  0
POLYLINE
  8
0
  6
CONTINUOUS
 66
     1
 40
0.000000
 41
0.000000
  0
VERTEX
  8
0
  6
CONTINUOUS
 10
3.791480
 20
0.917840
  0
VERTEX
  8
0
  6
CONTINUOUS
 10
4.439600
 20
1.292720
  0
VERTEX
  8
0
  6
CONTINUOUS
 10
4.417160
 20
1.259280
  0
VERTEX
  8
0
  6
CONTINUOUS
 10
3.769040
 20
0.884400
  0
VERTEX
  8
0
  6
CONTINUOUS
 10
3.791480
 20
0.917840
  0
SEQEND
  8
0
  0
SOLID
  8
0
 62
    15
 10
3.769040
 20
0.884400
 11
4.417160
 21
1.259280
 12
3.745720
 22
0.856680
 13
4.393840
 23
1.231560
  0
POLYLINE
  8
0
  6
CONTINUOUS
 66
     1
 40
0.000000
 41
0.000000
  0
VERTEX
  8
0
  6
CONTINUOUS
 10
3.769040
 20
0.884400
  0
VERTEX
  8
0
  6
CONTINUOUS
 10
4.417160
 20
1.259280
  0
VERTEX
  8
0
  6
CONTINUOUS
 10
4.393840
 20
1.231560
  0
VERTEX
  8
0
  6
CONTINUOUS
 10
3.745720
 20
0.856680
  0
VERTEX
  8
0
  6
CONTINUOUS
 10
3.769040
 20
0.884400
  0
SEQEND
  8
0
  0
SOLID
  8
0
 62
    15
 10
3.745720
 20
0.856680
 11
4.393840
 21
1.231560
 12
3.698200
 22
0.815760
 13
4.346320
 23
1.190640
  0
POLYLINE
  8
0
  6
CONTINUOUS
 66
     1
 40
0.000000
 41
0.000000
  0
VERTEX
  8
0
  6
CONTINUOUS
 10
3.745720
 20
0.856680
  0
VERTEX
  8
0
  6
CONTINUOUS
 10
4.393840
 20
1.231560
  0
VERTEX
  8
0
  6
CONTINUOUS
 10
4.346320
 20
1.190640
  0
VERTEX
  8
0
  6
CONTINUOUS
 10
3.698200
 20
0.815760
  0
VERTEX
  8
0
  6
CONTINUOUS
 10
3.745720
 20
0.856680
  0
SEQEND
  8
0
  0
POLYLINE
  8
0
  6
CONTINUOUS
 66
     1
 40
0.000000
 41
0.000000
  0
VERTEX
  8
0
  6
CONTINUOUS
 10
3.597440
 20
2.984080
  0
VERTEX
  8
0
  6
CONTINUOUS
 10
4.572480
 20
2.984080
  0
VERTEX
  8
0
  6
CONTINUOUS
 10
4.572480
 20
2.810280
  0
VERTEX
  8
0
  6
CONTINUOUS
 10
4.513080
 20
2.797520
  0
VERTEX
  8
0
  6
CONTINUOUS
 10
4.455440
 20
2.776400
  0
VERTEX
  8
0
  6
CONTINUOUS
 10
4.400880
 20
2.747360
  0
VERTEX
  8
0
  6
CONTINUOUS
 10
4.352040
 20
2.709080
  0
VERTEX
  8
0
  6
CONTINUOUS
 10
4.310240
 20
2.662000
  0
VERTEX
  8
0
  6
CONTINUOUS
 10
4.278120
 20
2.605680
  0
VERTEX
  8
0
  6
CONTINUOUS
 10
4.257440
 20
2.540120
  0
VERTEX
  8
0
  6
CONTINUOUS
 10
4.249960
 20
2.465320
  0
VERTEX
  8
0
  6
CONTINUOUS
 10
4.120160
 20
2.465320
  0
VERTEX
  8
0
  6
CONTINUOUS
 10
4.120160
 20
1.477960
  0
VERTEX
  8
0
  6
CONTINUOUS
 10
4.074840
 20
1.477960
  0
VERTEX
  8
0
  6
CONTINUOUS
 10
4.073080
 20
1.441440
  0
VERTEX
  8
0
  6
CONTINUOUS
 10
4.067360
 20
1.409760
  0
VERTEX
  8
0
  6
CONTINUOUS
 10
4.057240
 20
1.383360
  0
VERTEX
  8
0
  6
CONTINUOUS
 10
4.042720
 20
1.362240
  0
VERTEX
  8
0
  6
CONTINUOUS
 10
4.024240
 20
1.345960
  0
VERTEX
  8
0
  6
CONTINUOUS
 10
4.001360
 20
1.334520
  0
VERTEX
  8
0
  6
CONTINUOUS
 10
3.974520
 20
1.327480
  0
VERTEX
  8
0
  6
CONTINUOUS
 10
3.943280
 20
1.325280
  0
VERTEX
  8
0
  6
CONTINUOUS
 10
3.943280
 20
1.265440
  0
VERTEX
  8
0
  6
CONTINUOUS
 10
3.863200
 20
1.265440
  0
VERTEX
  8
0
  6
CONTINUOUS
 10
3.861880
 20
1.187560
  0
VERTEX
  8
0
  6
CONTINUOUS
 10
3.855280
 20
1.118040
  0
VERTEX
  8
0
  6
CONTINUOUS
 10
3.844280
 20
1.056880
  0
VERTEX
  8
0
  6
CONTINUOUS
 10
3.829760
 20
1.003640
  0
VERTEX
  8
0
  6
CONTINUOUS
 10
3.811720
 20
0.957440
  0
VERTEX
  8
0
  6
CONTINUOUS
 10
3.791480
 20
0.917840
  0
VERTEX
  8
0
  6
CONTINUOUS
 10
3.769040
 20
0.884400
  0
VERTEX
  8
0
  6
CONTINUOUS
 10
3.745720
 20
0.856680
  0
VERTEX
  8
0
  6
CONTINUOUS
 10
3.698200
 20
0.815760
  0
VERTEX
  8
0
  6
CONTINUOUS
 10
3.654200
 20
0.792000
  0
VERTEX
  8
0
  6
CONTINUOUS
 10
3.618560
 20
0.780560
  0
VERTEX
  8
0
  6
CONTINUOUS
 10
3.605800
 20
0.777920
  0
VERTEX
  8
0
  6
CONTINUOUS
 10
3.597440
 20
0.777480
  0
VERTEX
  8
0
  6
CONTINUOUS
 10
3.597440
 20
2.983640
  0
VERTEX
  8
0
  6
CONTINUOUS
 10
3.597440
 20
2.984080
  0
SEQEND
  8
0
  0
TEXT
  8
0
 10
4.067360
 20
0.530200
 40
0.138039
  1
BA  1234
 41
1.000000
  7
SN0
 71
     0
 72
     5
 11
4.750193
 21
0.530200
  0
TEXT
  8
0
 10
4.027320
 20
0.338360
 40
0.138039
  1
1" x 2-1/4"
 41
1.000000
  7
SN0
 71
     0
 72
     5
 11
4.790916
 21
0.338360
  0
TEXT
  8
0
 10
5.537840
 20
3.813040
 40
0.138039
  1
BA  1234
 41
1.000000
  7
SN0
 71
     0
 72
     5
 11
6.220673
 21
3.813040
  0
TEXT
  8
0
 10
5.497800
 20
3.621640
 40
0.138039
  1
1" x 2-1/4"
 41
1.000000
  7
SN0
 71
     0
 72
     5
 11
6.261396
 21
3.621640
  0
POLYLINE
  8
0
  6
CONTINUOUS
 66
     1
 40
0.000000
 41
0.000000
  0
VERTEX
  8
0
  6
CONTINUOUS
 10
2.267760
 20
3.534520
  0
VERTEX
  8
0
  6
CONTINUOUS
 10
2.267760
 20
4.510000
  0
VERTEX
  8
0
  6
CONTINUOUS
 10
2.441560
 20
4.510000
  0
VERTEX
  8
0
  6
CONTINUOUS
 10
2.446840
 20
4.480080
  0
VERTEX
  8
0
  6
CONTINUOUS
 10
2.454320
 20
4.450600
  0
VERTEX
  8
0
  6
CONTINUOUS
 10
2.463560
 20
4.421560
  0
VERTEX
  8
0
  6
CONTINUOUS
 10
2.475440
 20
4.392960
  0
VERTEX
  8
0
  6
CONTINUOUS
 10
2.496560
 20
4.351600
  0
VERTEX
  8
0
  6
CONTINUOUS
 10
2.522520
 20
4.312880
  0
VERTEX
  8
0
  6
CONTINUOUS
 10
2.553760
 20
4.278120
  0
VERTEX
  8
0
  6
CONTINUOUS
 10
2.589840
 20
4.247760
  0
VERTEX
  8
0
  6
CONTINUOUS
 10
2.616680
 20
4.230160
  0
VERTEX
  8
0
  6
CONTINUOUS
 10
2.661560
 20
4.209480
  0
VERTEX
  8
0
  6
CONTINUOUS
 10
2.694560
 20
4.198920
  0
VERTEX
  8
0
  6
CONTINUOUS
 10
2.729760
 20
4.191880
  0
VERTEX
  8
0
  6
CONTINUOUS
 10
2.767160
 20
4.187920
  0
VERTEX
  8
0
  6
CONTINUOUS
 10
2.786960
 20
4.187480
  0
VERTEX
  8
0
  6
CONTINUOUS
 10
2.786960
 20
4.057680
  0
VERTEX
  8
0
  6
CONTINUOUS
 10
3.773880
 20
4.057680
  0
VERTEX
  8
0
  6
CONTINUOUS
 10
3.773880
 20
4.012360
  0
VERTEX
  8
0
  6
CONTINUOUS
 10
3.810840
 20
4.010600
  0
VERTEX
  8
0
  6
CONTINUOUS
 10
3.842080
 20
4.004440
  0
VERTEX
  8
0
  6
CONTINUOUS
 10
3.856160
 20
4.000040
  0
VERTEX
  8
0
  6
CONTINUOUS
 10
3.879920
 20
3.987720
  0
VERTEX
  8
0
  6
CONTINUOUS
 10
3.898400
 20
3.971440
  0
VERTEX
  8
0
  6
CONTINUOUS
 10
3.912480
 20
3.950320
  0
VERTEX
  8
0
  6
CONTINUOUS
 10
3.921720
 20
3.925680
  0
VERTEX
  8
0
  6
CONTINUOUS
 10
3.926120
 20
3.896640
  0
VERTEX
  8
0
  6
CONTINUOUS
 10
3.926560
 20
3.880360
  0
VERTEX
  8
0
  6
CONTINUOUS
 10
3.986400
 20
3.880360
  0
VERTEX
  8
0
  6
CONTINUOUS
 10
3.986400
 20
3.800720
  0
VERTEX
  8
0
  6
CONTINUOUS
 10
4.045800
 20
3.800280
  0
VERTEX
  8
0
  6
CONTINUOUS
 10
4.099920
 20
3.796760
  0
VERTEX
  8
0
  6
CONTINUOUS
 10
4.165040
 20
3.787960
  0
VERTEX
  8
0
  6
CONTINUOUS
 10
4.222680
 20
3.774760
  0
VERTEX
  8
0
  6
CONTINUOUS
 10
4.272400
 20
3.758480
  0
VERTEX
  8
0
  6
CONTINUOUS
 10
4.315080
 20
3.739120
  0
VERTEX
  8
0
  6
CONTINUOUS
 10
4.351600
 20
3.718000
  0
VERTEX
  8
0
  6
CONTINUOUS
 10
4.395600
 20
3.683240
  0
VERTEX
  8
0
  6
CONTINUOUS
 10
4.427720
 20
3.647600
  0
VERTEX
  8
0
  6
CONTINUOUS
 10
4.449720
 20
3.612840
  0
VERTEX
  8
0
  6
CONTINUOUS
 10
4.463800
 20
3.581600
  0
VERTEX
  8
0
  6
CONTINUOUS
 10
4.471280
 20
3.556080
  0
VERTEX
  8
0
  6
CONTINUOUS
 10
4.474360
 20
3.538480
  0
VERTEX
  8
0
  6
CONTINUOUS
 10
4.474360
 20
3.534520
  0
VERTEX
  8
0
  6
CONTINUOUS
 10
2.267760
 20
3.534520
  0
SEQEND
  8
0
  0
ENDSEC
  0
EOF
