  0
SECTION
  2
HEADER
  9
$ACADVER
  1
AC1006
  9
$EXTMIN
 10
2.431000
 20
0.970200
  9
$EXTMAX
 10
6.315760
 20
6.789640
  9
$LTSCALE
 40
0.044000
  9
$PDMODE
 70
    35
  9
$PDSIZE
 40
0.035200
  0
ENDSEC
  0
SECTION
  2
TABLES
  0
TABLE
  2
LTYPE
 70
     9
  0
LTYPE
  2
CONTINUOUS
 70
    64
  3
Solid line
 72
    65
 73
     0
 40
0.000000
  0
LTYPE
  2
DASHED
 70
    64
  3
__ __ __ __ __ __ __ __ __ __ __ __ __ __ __
 72
    65
 73
     2
 40
0.000330
 49
0.000220
 49
-0.000110
  0
LTYPE
  2
HIDDEN
 70
    64
  3
 _ _ _ _ _ _ _ _ _ _ _ _ _ _ _ _ _ _ _ _ _ _
 72
    65
 73
     2
 40
0.000165
 49
0.000110
 49
-0.000055
  0
LTYPE
  2
CENTER
 70
    64
  3
____ _ ____ _ ____ _ ____ _ ____ _ ____ _ ____
 72
    65
 73
     4
 40
0.000880
 49
0.000550
 49
-0.000110
 49
0.000110
 49
-0.000110
  0
LTYPE
  2
PHANTOM
 70
    64
  3
_____ _ _ _____ _ _ _____ _ _ _____ _ _ ____
 72
    65
 73
     6
 40
0.001100
 49
0.000550
 49
-0.000110
 49
0.000110
 49
-0.000110
 49
0.000110
 49
-0.000110
  0
LTYPE
  2
DOT
 70
    64
  3
...............................................
 72
    65
 73
     2
 40
0.000110
 49
0.000000
 49
-0.000110
  0
LTYPE
  2
DASHDOT
 70
    64
  3
__ . __ . __ . __ . __ . __ . __ . __ . __ . __
 72
    65
 73
     4
 40
0.000440
 49
0.000220
 49
-0.000110
 49
0.000000
 49
-0.000110
  0
LTYPE
  2
BORDER
 70
    64
  3
__ __ . __ __ . __ __ . __ __ . __ __ . __ __
 72
    65
 73
     6
 40
0.000770
 49
0.000220
 49
-0.000110
 49
0.000220
 49
-0.000110
 49
0.000000
 49
-0.000110
  0
LTYPE
  2
DIVIDE
 70
    64
  3
__ . . __ . . __ . . __ . . __ . . __ . . __
 72
    65
 73
     6
 40
0.000550
 49
0.000220
 49
-0.000110
 49
0.000000
 49
-0.000110
 49
0.000000
 49
-0.000110
  0
LTYPE
  2
DOTDOT
 70
    64
  3
 . .  . .  . .  . .  . .  . . 
 72
    65
 73
     5
 40
0.000242
 49
-0.000110
 49
0.000000
 49
-0.000110
 49
0.000000
 49
-0.000110
  0
ENDTAB
  0
TABLE
  2
STYLE
 70
     2
  0
STYLE
 70
     0
  2
SN0
 40
0.000000
 41
0.000440
 50
0.000000
 71
     0
 42
0.000000
  3
ROMAND
  0
STYLE
 70
    68
  2
SV0
 40
0.000000
 41
0.000440
 50
0.000000
 71
     0
 42
0.000000
  3
ROMAND
  0
ENDTAB
  0
TABLE
  2
LAYER
 70
     3
  0
LAYER
  2
FOREGROUND
 70
    64
 62
     7
  6
CONTINUOUS
  0
LAYER
  2
BACKGROUND
 70
    65
 62
    -7
  6
CONTINUOUS
  0
LAYER
  2
0
 70
    64
 62
     7
  6
CONTINUOUS
  0
ENDTAB
  0
ENDSEC
  0
SECTION
  2
ENTITIES
  0
POLYLINE
  8
FOREGROUND
  6
CONTINUOUS
 66
     1
 40
0.000000
 41
0.000000
  0
VERTEX
  8
FOREGROUND
  6
CONTINUOUS
 10
0.000000
 20
7.759840
  0
VERTEX
  8
FOREGROUND
  6
CONTINUOUS
 10
8.499920
 20
7.759840
  0
VERTEX
  8
FOREGROUND
  6
CONTINUOUS
 10
8.499920
 20
-3.240160
  0
VERTEX
  8
FOREGROUND
  6
CONTINUOUS
 10
0.000000
 20
-3.240160
  0
VERTEX
  8
FOREGROUND
  6
CONTINUOUS
 10
0.000000
 20
7.759840
  0
SEQEND
  8
0
  0
POLYLINE
  8
FOREGROUND
  6
CONTINUOUS
 66
     1
 40
0.000000
 41
0.000000
  0
VERTEX
  8
FOREGROUND
  6
CONTINUOUS
 10
0.000000
 20
7.759840
  0
VERTEX
  8
FOREGROUND
  6
CONTINUOUS
 10
8.499920
 20
7.759840
  0
VERTEX
  8
FOREGROUND
  6
CONTINUOUS
 10
8.499920
 20
-3.240160
  0
VERTEX
  8
FOREGROUND
  6
CONTINUOUS
 10
0.000000
 20
-3.240160
  0
VERTEX
  8
FOREGROUND
  6
CONTINUOUS
 10
0.000000
 20
7.759840
  0
SEQEND
  8
0
  0
POLYLINE
  8
0
  6
CONTINUOUS
 66
     1
 40
0.014080
 41
0.014080
  0
VERTEX
  8
0
  6
CONTINUOUS
 10
5.645200
 20
4.530680
  0
VERTEX
  8
0
  6
CONTINUOUS
 10
3.014880
 20
4.530680
  0
VERTEX
  8
0
  6
CONTINUOUS
 10
2.441560
 20
4.889280
  0
VERTEX
  8
0
  6
CONTINUOUS
 10
2.900040
 20
5.533440
  0
VERTEX
  8
0
  6
CONTINUOUS
 10
3.571920
 20
5.057800
  0
VERTEX
  8
0
  6
CONTINUOUS
 10
3.606240
 20
5.099160
  0
VERTEX
  8
0
  6
CONTINUOUS
 10
3.642320
 20
5.133480
  0
VERTEX
  8
0
  6
CONTINUOUS
 10
3.679720
 20
5.160320
  0
VERTEX
  8
0
  6
CONTINUOUS
 10
3.718000
 20
5.180560
  0
VERTEX
  8
0
  6
CONTINUOUS
 10
3.756720
 20
5.195520
  0
VERTEX
  8
0
  6
CONTINUOUS
 10
3.795440
 20
5.204760
  0
VERTEX
  8
0
  6
CONTINUOUS
 10
3.833720
 20
5.209160
  0
VERTEX
  8
0
  6
CONTINUOUS
 10
3.871560
 20
5.210040
  0
VERTEX
  8
0
  6
CONTINUOUS
 10
3.907640
 20
5.206960
  0
VERTEX
  8
0
  6
CONTINUOUS
 10
3.942400
 20
5.201240
  0
VERTEX
  8
0
  6
CONTINUOUS
 10
3.990800
 20
5.188040
  0
VERTEX
  8
0
  6
CONTINUOUS
 10
4.033040
 20
5.171760
  0
VERTEX
  8
0
  6
CONTINUOUS
 10
4.077920
 20
5.148000
  0
VERTEX
  8
0
  6
CONTINUOUS
 10
4.094200
 20
5.137000
  0
VERTEX
  8
0
  6
CONTINUOUS
 10
4.211240
 20
5.280880
  0
VERTEX
  8
0
  6
CONTINUOUS
 10
4.364800
 20
5.174400
  0
VERTEX
  8
0
  6
CONTINUOUS
 10
4.425960
 20
5.231160
  0
VERTEX
  8
0
  6
CONTINUOUS
 10
4.484040
 20
5.277800
  0
VERTEX
  8
0
  6
CONTINUOUS
 10
4.539920
 20
5.315640
  0
VERTEX
  8
0
  6
CONTINUOUS
 10
4.592720
 20
5.344680
  0
VERTEX
  8
0
  6
CONTINUOUS
 10
4.643320
 20
5.366680
  0
VERTEX
  8
0
  6
CONTINUOUS
 10
4.691720
 20
5.382080
  0
VERTEX
  8
0
  6
CONTINUOUS
 10
4.737920
 20
5.391320
  0
VERTEX
  8
0
  6
CONTINUOUS
 10
4.760360
 20
5.394400
  0
VERTEX
  8
0
  6
CONTINUOUS
 10
4.803480
 20
5.396160
  0
VERTEX
  8
0
  6
CONTINUOUS
 10
4.845280
 20
5.394400
  0
VERTEX
  8
0
  6
CONTINUOUS
 10
4.885320
 20
5.390000
  0
VERTEX
  8
0
  6
CONTINUOUS
 10
4.942520
 20
5.378560
  0
VERTEX
  8
0
  6
CONTINUOUS
 10
5.049000
 20
5.352600
  0
VERTEX
  8
0
  6
CONTINUOUS
 10
5.144920
 20
5.334560
  0
VERTEX
  8
0
  6
CONTINUOUS
 10
5.198160
 20
5.327080
  0
VERTEX
  8
0
  6
CONTINUOUS
 10
5.246120
 20
5.324000
  0
VERTEX
  8
0
  6
CONTINUOUS
 10
5.290560
 20
5.327960
  0
VERTEX
  8
0
  6
CONTINUOUS
 10
5.312120
 20
5.332800
  0
VERTEX
  8
0
  6
CONTINUOUS
 10
5.344680
 20
5.344680
  0
VERTEX
  8
0
  6
CONTINUOUS
 10
5.379000
 20
5.361840
  0
VERTEX
  8
0
  6
CONTINUOUS
 10
5.415520
 20
5.386040
  0
VERTEX
  8
0
  6
CONTINUOUS
 10
5.455560
 20
5.417280
  0
VERTEX
  8
0
  6
CONTINUOUS
 10
5.484600
 20
5.442360
  0
VERTEX
  8
0
  6
CONTINUOUS
 10
5.581840
 20
5.375040
  0
VERTEX
  8
0
  6
CONTINUOUS
 10
5.637280
 20
5.443240
  0
VERTEX
  8
0
  6
CONTINUOUS
 10
5.673800
 20
5.423000
  0
VERTEX
  8
0
  6
CONTINUOUS
 10
5.709000
 20
5.408920
  0
VERTEX
  8
0
  6
CONTINUOUS
 10
5.749040
 20
5.397480
  0
VERTEX
  8
0
  6
CONTINUOUS
 10
5.793040
 20
5.389560
  0
VERTEX
  8
0
  6
CONTINUOUS
 10
5.840560
 20
5.386920
  0
VERTEX
  8
0
  6
CONTINUOUS
 10
5.873120
 20
5.388240
  0
VERTEX
  8
0
  6
CONTINUOUS
 10
5.906560
 20
5.393080
  0
VERTEX
  8
0
  6
CONTINUOUS
 10
5.940440
 20
5.401440
  0
VERTEX
  8
0
  6
CONTINUOUS
 10
5.973880
 20
5.413760
  0
VERTEX
  8
0
  6
CONTINUOUS
 10
6.006880
 20
5.430920
  0
VERTEX
  8
0
  6
CONTINUOUS
 10
6.039440
 20
5.452040
  0
VERTEX
  8
0
  6
CONTINUOUS
 10
6.071120
 20
5.478880
  0
VERTEX
  8
0
  6
CONTINUOUS
 10
6.101480
 20
5.511000
  0
VERTEX
  8
0
  6
CONTINUOUS
 10
6.279240
 20
5.387800
  0
VERTEX
  8
0
  6
CONTINUOUS
 10
5.645200
 20
4.530680
  0
SEQEND
  8
0
  0
SOLID
  8
0
 62
    15
 10
4.520560
 20
3.230040
 11
5.180560
 21
2.847240
 12
4.507360
 22
3.195720
 13
5.167360
 23
2.812920
  0
POLYLINE
  8
0
  6
CONTINUOUS
 66
     1
 40
0.000000
 41
0.000000
  0
VERTEX
  8
0
  6
CONTINUOUS
 10
4.520560
 20
3.230040
  0
VERTEX
  8
0
  6
CONTINUOUS
 10
5.180560
 20
2.847240
  0
VERTEX
  8
0
  6
CONTINUOUS
 10
5.167360
 20
2.812920
  0
VERTEX
  8
0
  6
CONTINUOUS
 10
4.507360
 20
3.195720
  0
VERTEX
  8
0
  6
CONTINUOUS
 10
4.520560
 20
3.230040
  0
SEQEND
  8
0
  0
SOLID
  8
0
 62
    15
 10
5.271200
 20
4.030400
 11
5.931200
 21
3.647600
 12
5.187160
 22
4.014120
 13
5.847160
 23
3.630880
  0
POLYLINE
  8
0
  6
CONTINUOUS
 66
     1
 40
0.000000
 41
0.000000
  0
VERTEX
  8
0
  6
CONTINUOUS
 10
5.271200
 20
4.030400
  0
VERTEX
  8
0
  6
CONTINUOUS
 10
5.931200
 20
3.647600
  0
VERTEX
  8
0
  6
CONTINUOUS
 10
5.847160
 20
3.630880
  0
VERTEX
  8
0
  6
CONTINUOUS
 10
5.187160
 20
4.014120
  0
VERTEX
  8
0
  6
CONTINUOUS
 10
5.271200
 20
4.030400
  0
SEQEND
  8
0
  0
SOLID
  8
0
 62
    15
 10
5.187160
 20
4.014120
 11
5.847160
 21
3.630880
 12
5.118080
 22
3.982440
 13
5.778080
 23
3.599200
  0
POLYLINE
  8
0
  6
CONTINUOUS
 66
     1
 40
0.000000
 41
0.000000
  0
VERTEX
  8
0
  6
CONTINUOUS
 10
5.187160
 20
4.014120
  0
VERTEX
  8
0
  6
CONTINUOUS
 10
5.847160
 20
3.630880
  0
VERTEX
  8
0
  6
CONTINUOUS
 10
5.778080
 20
3.599200
  0
VERTEX
  8
0
  6
CONTINUOUS
 10
5.118080
 20
3.982440
  0
VERTEX
  8
0
  6
CONTINUOUS
 10
5.187160
 20
4.014120
  0
SEQEND
  8
0
  0
SOLID
  8
0
 62
    15
 10
5.118080
 20
3.982440
 11
5.778080
 21
3.599200
 12
5.062200
 22
3.939320
 13
5.722200
 23
3.556520
  0
POLYLINE
  8
0
  6
CONTINUOUS
 66
     1
 40
0.000000
 41
0.000000
  0
VERTEX
  8
0
  6
CONTINUOUS
 10
5.118080
 20
3.982440
  0
VERTEX
  8
0
  6
CONTINUOUS
 10
5.778080
 20
3.599200
  0
VERTEX
  8
0
  6
CONTINUOUS
 10
5.722200
 20
3.556520
  0
VERTEX
  8
0
  6
CONTINUOUS
 10
5.062200
 20
3.939320
  0
VERTEX
  8
0
  6
CONTINUOUS
 10
5.118080
 20
3.982440
  0
SEQEND
  8
0
  0
SOLID
  8
0
 62
    15
 10
5.062200
 20
3.939320
 11
5.722200
 21
3.556520
 12
5.018640
 22
3.889160
 13
5.678640
 23
3.506360
  0
POLYLINE
  8
0
  6
CONTINUOUS
 66
     1
 40
0.000000
 41
0.000000
  0
VERTEX
  8
0
  6
CONTINUOUS
 10
5.062200
 20
3.939320
  0
VERTEX
  8
0
  6
CONTINUOUS
 10
5.722200
 20
3.556520
  0
VERTEX
  8
0
  6
CONTINUOUS
 10
5.678640
 20
3.506360
  0
VERTEX
  8
0
  6
CONTINUOUS
 10
5.018640
 20
3.889160
  0
VERTEX
  8
0
  6
CONTINUOUS
 10
5.062200
 20
3.939320
  0
SEQEND
  8
0
  0
SOLID
  8
0
 62
    15
 10
5.018640
 20
3.889160
 11
5.678640
 21
3.506360
 12
4.964960
 22
3.781800
 13
5.624960
 23
3.399000
  0
POLYLINE
  8
0
  6
CONTINUOUS
 66
     1
 40
0.000000
 41
0.000000
  0
VERTEX
  8
0
  6
CONTINUOUS
 10
5.018640
 20
3.889160
  0
VERTEX
  8
0
  6
CONTINUOUS
 10
5.678640
 20
3.506360
  0
VERTEX
  8
0
  6
CONTINUOUS
 10
5.624960
 20
3.399000
  0
VERTEX
  8
0
  6
CONTINUOUS
 10
4.964960
 20
3.781800
  0
VERTEX
  8
0
  6
CONTINUOUS
 10
5.018640
 20
3.889160
  0
SEQEND
  8
0
  0
SOLID
  8
0
 62
    15
 10
4.964960
 20
3.781800
 11
5.624960
 21
3.399000
 12
4.947360
 22
3.690720
 13
5.607360
 23
3.307920
  0
POLYLINE
  8
0
  6
CONTINUOUS
 66
     1
 40
0.000000
 41
0.000000
  0
VERTEX
  8
0
  6
CONTINUOUS
 10
4.964960
 20
3.781800
  0
VERTEX
  8
0
  6
CONTINUOUS
 10
5.624960
 20
3.399000
  0
VERTEX
  8
0
  6
CONTINUOUS
 10
5.607360
 20
3.307920
  0
VERTEX
  8
0
  6
CONTINUOUS
 10
4.947360
 20
3.690720
  0
VERTEX
  8
0
  6
CONTINUOUS
 10
4.964960
 20
3.781800
  0
SEQEND
  8
0
  0
SOLID
  8
0
 62
    15
 10
4.947360
 20
3.690720
 11
5.607360
 21
3.307920
 12
4.859800
 22
3.685000
 13
5.519800
 23
3.302200
  0
POLYLINE
  8
0
  6
CONTINUOUS
 66
     1
 40
0.000000
 41
0.000000
  0
VERTEX
  8
0
  6
CONTINUOUS
 10
4.947360
 20
3.690720
  0
VERTEX
  8
0
  6
CONTINUOUS
 10
5.607360
 20
3.307920
  0
VERTEX
  8
0
  6
CONTINUOUS
 10
5.519800
 20
3.302200
  0
VERTEX
  8
0
  6
CONTINUOUS
 10
4.859800
 20
3.685000
  0
VERTEX
  8
0
  6
CONTINUOUS
 10
4.947360
 20
3.690720
  0
SEQEND
  8
0
  0
SOLID
  8
0
 62
    15
 10
4.859800
 20
3.685000
 11
5.519800
 21
3.302200
 12
4.858480
 22
3.566200
 13
5.518480
 23
3.183400
  0
POLYLINE
  8
0
  6
CONTINUOUS
 66
     1
 40
0.000000
 41
0.000000
  0
VERTEX
  8
0
  6
CONTINUOUS
 10
4.859800
 20
3.685000
  0
VERTEX
  8
0
  6
CONTINUOUS
 10
5.519800
 20
3.302200
  0
VERTEX
  8
0
  6
CONTINUOUS
 10
5.518480
 20
3.183400
  0
VERTEX
  8
0
  6
CONTINUOUS
 10
4.858480
 20
3.566200
  0
VERTEX
  8
0
  6
CONTINUOUS
 10
4.859800
 20
3.685000
  0
SEQEND
  8
0
  0
SOLID
  8
0
 62
    15
 10
4.858480
 20
3.566200
 11
5.518480
 21
3.183400
 12
4.787640
 22
3.547720
 13
5.447640
 23
3.164920
  0
POLYLINE
  8
0
  6
CONTINUOUS
 66
     1
 40
0.000000
 41
0.000000
  0
VERTEX
  8
0
  6
CONTINUOUS
 10
4.858480
 20
3.566200
  0
VERTEX
  8
0
  6
CONTINUOUS
 10
5.518480
 20
3.183400
  0
VERTEX
  8
0
  6
CONTINUOUS
 10
5.447640
 20
3.164920
  0
VERTEX
  8
0
  6
CONTINUOUS
 10
4.787640
 20
3.547720
  0
VERTEX
  8
0
  6
CONTINUOUS
 10
4.858480
 20
3.566200
  0
SEQEND
  8
0
  0
SOLID
  8
0
 62
    15
 10
4.787640
 20
3.547720
 11
5.447640
 21
3.164920
 12
4.731760
 22
3.526600
 13
5.391760
 23
3.143800
  0
POLYLINE
  8
0
  6
CONTINUOUS
 66
     1
 40
0.000000
 41
0.000000
  0
VERTEX
  8
0
  6
CONTINUOUS
 10
4.787640
 20
3.547720
  0
VERTEX
  8
0
  6
CONTINUOUS
 10
5.447640
 20
3.164920
  0
VERTEX
  8
0
  6
CONTINUOUS
 10
5.391760
 20
3.143800
  0
VERTEX
  8
0
  6
CONTINUOUS
 10
4.731760
 20
3.526600
  0
VERTEX
  8
0
  6
CONTINUOUS
 10
4.787640
 20
3.547720
  0
SEQEND
  8
0
  0
SOLID
  8
0
 62
    15
 10
4.731760
 20
3.526600
 11
5.391760
 21
3.143800
 12
4.652560
 22
3.473800
 13
5.313000
 23
3.091000
  0
POLYLINE
  8
0
  6
CONTINUOUS
 66
     1
 40
0.000000
 41
0.000000
  0
VERTEX
  8
0
  6
CONTINUOUS
 10
4.731760
 20
3.526600
  0
VERTEX
  8
0
  6
CONTINUOUS
 10
5.391760
 20
3.143800
  0
VERTEX
  8
0
  6
CONTINUOUS
 10
5.313000
 20
3.091000
  0
VERTEX
  8
0
  6
CONTINUOUS
 10
4.652560
 20
3.473800
  0
VERTEX
  8
0
  6
CONTINUOUS
 10
4.731760
 20
3.526600
  0
SEQEND
  8
0
  0
SOLID
  8
0
 62
    15
 10
4.652560
 20
3.473800
 11
5.313000
 21
3.091000
 12
4.598880
 22
3.399440
 13
5.258880
 23
3.016640
  0
POLYLINE
  8
0
  6
CONTINUOUS
 66
     1
 40
0.000000
 41
0.000000
  0
VERTEX
  8
0
  6
CONTINUOUS
 10
4.652560
 20
3.473800
  0
VERTEX
  8
0
  6
CONTINUOUS
 10
5.313000
 20
3.091000
  0
VERTEX
  8
0
  6
CONTINUOUS
 10
5.258880
 20
3.016640
  0
VERTEX
  8
0
  6
CONTINUOUS
 10
4.598880
 20
3.399440
  0
VERTEX
  8
0
  6
CONTINUOUS
 10
4.652560
 20
3.473800
  0
SEQEND
  8
0
  0
SOLID
  8
0
 62
    15
 10
4.598880
 20
3.399440
 11
5.258880
 21
3.016640
 12
4.574240
 22
3.351480
 13
5.234240
 23
2.968680
  0
POLYLINE
  8
0
  6
CONTINUOUS
 66
     1
 40
0.000000
 41
0.000000
  0
VERTEX
  8
0
  6
CONTINUOUS
 10
4.598880
 20
3.399440
  0
VERTEX
  8
0
  6
CONTINUOUS
 10
5.258880
 20
3.016640
  0
VERTEX
  8
0
  6
CONTINUOUS
 10
5.234240
 20
2.968680
  0
VERTEX
  8
0
  6
CONTINUOUS
 10
4.574240
 20
3.351480
  0
VERTEX
  8
0
  6
CONTINUOUS
 10
4.598880
 20
3.399440
  0
SEQEND
  8
0
  0
SOLID
  8
0
 62
    15
 10
4.574240
 20
3.351480
 11
5.234240
 21
2.968680
 12
4.561040
 22
3.324200
 13
5.221040
 23
2.941400
  0
POLYLINE
  8
0
  6
CONTINUOUS
 66
     1
 40
0.000000
 41
0.000000
  0
VERTEX
  8
0
  6
CONTINUOUS
 10
4.574240
 20
3.351480
  0
VERTEX
  8
0
  6
CONTINUOUS
 10
5.234240
 20
2.968680
  0
VERTEX
  8
0
  6
CONTINUOUS
 10
5.221040
 20
2.941400
  0
VERTEX
  8
0
  6
CONTINUOUS
 10
4.561040
 20
3.324200
  0
VERTEX
  8
0
  6
CONTINUOUS
 10
4.574240
 20
3.351480
  0
SEQEND
  8
0
  0
SOLID
  8
0
 62
    15
 10
4.561040
 20
3.324200
 11
5.221040
 21
2.941400
 12
4.547400
 22
3.294720
 13
5.207400
 23
2.911920
  0
POLYLINE
  8
0
  6
CONTINUOUS
 66
     1
 40
0.000000
 41
0.000000
  0
VERTEX
  8
0
  6
CONTINUOUS
 10
4.561040
 20
3.324200
  0
VERTEX
  8
0
  6
CONTINUOUS
 10
5.221040
 20
2.941400
  0
VERTEX
  8
0
  6
CONTINUOUS
 10
5.207400
 20
2.911920
  0
VERTEX
  8
0
  6
CONTINUOUS
 10
4.547400
 20
3.294720
  0
VERTEX
  8
0
  6
CONTINUOUS
 10
4.561040
 20
3.324200
  0
SEQEND
  8
0
  0
SOLID
  8
0
 62
    15
 10
4.547400
 20
3.294720
 11
5.207400
 21
2.911920
 12
4.520560
 22
3.230040
 13
5.180560
 23
2.847240
  0
POLYLINE
  8
0
  6
CONTINUOUS
 66
     1
 40
0.000000
 41
0.000000
  0
VERTEX
  8
0
  6
CONTINUOUS
 10
4.547400
 20
3.294720
  0
VERTEX
  8
0
  6
CONTINUOUS
 10
5.207400
 20
2.911920
  0
VERTEX
  8
0
  6
CONTINUOUS
 10
5.180560
 20
2.847240
  0
VERTEX
  8
0
  6
CONTINUOUS
 10
4.520560
 20
3.230040
  0
VERTEX
  8
0
  6
CONTINUOUS
 10
4.547400
 20
3.294720
  0
SEQEND
  8
0
  0
SOLID
  8
0
 62
    15
 10
5.272960
 20
4.246880
 11
5.932960
 21
3.864080
 12
5.271200
 22
4.030400
 13
5.931200
 23
3.647600
  0
POLYLINE
  8
0
  6
CONTINUOUS
 66
     1
 40
0.000000
 41
0.000000
  0
VERTEX
  8
0
  6
CONTINUOUS
 10
5.272960
 20
4.246880
  0
VERTEX
  8
0
  6
CONTINUOUS
 10
5.932960
 20
3.864080
  0
VERTEX
  8
0
  6
CONTINUOUS
 10
5.931200
 20
3.647600
  0
VERTEX
  8
0
  6
CONTINUOUS
 10
5.271200
 20
4.030400
  0
VERTEX
  8
0
  6
CONTINUOUS
 10
5.272960
 20
4.246880
  0
SEQEND
  8
0
  0
SOLID
  8
0
 62
    15
 10
4.507360
 20
3.195720
 11
5.167360
 21
2.812920
 12
4.493280
 22
3.160960
 13
5.153280
 23
2.778160
  0
POLYLINE
  8
0
  6
CONTINUOUS
 66
     1
 40
0.000000
 41
0.000000
  0
VERTEX
  8
0
  6
CONTINUOUS
 10
4.507360
 20
3.195720
  0
VERTEX
  8
0
  6
CONTINUOUS
 10
5.167360
 20
2.812920
  0
VERTEX
  8
0
  6
CONTINUOUS
 10
5.153280
 20
2.778160
  0
VERTEX
  8
0
  6
CONTINUOUS
 10
4.493280
 20
3.160960
  0
VERTEX
  8
0
  6
CONTINUOUS
 10
4.507360
 20
3.195720
  0
SEQEND
  8
0
  0
SOLID
  8
0
 62
    15
 10
4.493280
 20
3.160960
 11
5.153280
 21
2.778160
 12
4.414520
 22
3.020160
 13
5.074520
 23
2.637360
  0
POLYLINE
  8
0
  6
CONTINUOUS
 66
     1
 40
0.000000
 41
0.000000
  0
VERTEX
  8
0
  6
CONTINUOUS
 10
4.493280
 20
3.160960
  0
VERTEX
  8
0
  6
CONTINUOUS
 10
5.153280
 20
2.778160
  0
VERTEX
  8
0
  6
CONTINUOUS
 10
5.074520
 20
2.637360
  0
VERTEX
  8
0
  6
CONTINUOUS
 10
4.414520
 20
3.020160
  0
VERTEX
  8
0
  6
CONTINUOUS
 10
4.493280
 20
3.160960
  0
SEQEND
  8
0
  0
SOLID
  8
0
 62
    15
 10
4.414520
 20
3.020160
 11
5.074520
 21
2.637360
 12
4.351160
 22
2.954600
 13
5.011160
 23
2.571360
  0
POLYLINE
  8
0
  6
CONTINUOUS
 66
     1
 40
0.000000
 41
0.000000
  0
VERTEX
  8
0
  6
CONTINUOUS
 10
4.414520
 20
3.020160
  0
VERTEX
  8
0
  6
CONTINUOUS
 10
5.074520
 20
2.637360
  0
VERTEX
  8
0
  6
CONTINUOUS
 10
5.011160
 20
2.571360
  0
VERTEX
  8
0
  6
CONTINUOUS
 10
4.351160
 20
2.954600
  0
VERTEX
  8
0
  6
CONTINUOUS
 10
4.414520
 20
3.020160
  0
SEQEND
  8
0
  0
SOLID
  8
0
 62
    15
 10
4.351160
 20
2.954600
 11
5.011160
 21
2.571360
 12
4.263600
 22
2.895200
 13
4.923600
 23
2.512400
  0
POLYLINE
  8
0
  6
CONTINUOUS
 66
     1
 40
0.000000
 41
0.000000
  0
VERTEX
  8
0
  6
CONTINUOUS
 10
4.351160
 20
2.954600
  0
VERTEX
  8
0
  6
CONTINUOUS
 10
5.011160
 20
2.571360
  0
VERTEX
  8
0
  6
CONTINUOUS
 10
4.923600
 20
2.512400
  0
VERTEX
  8
0
  6
CONTINUOUS
 10
4.263600
 20
2.895200
  0
VERTEX
  8
0
  6
CONTINUOUS
 10
4.351160
 20
2.954600
  0
SEQEND
  8
0
  0
SOLID
  8
0
 62
    15
 10
4.263600
 20
2.895200
 11
4.923600
 21
2.512400
 12
4.146120
 22
2.845480
 13
4.806120
 23
2.462240
  0
POLYLINE
  8
0
  6
CONTINUOUS
 66
     1
 40
0.000000
 41
0.000000
  0
VERTEX
  8
0
  6
CONTINUOUS
 10
4.263600
 20
2.895200
  0
VERTEX
  8
0
  6
CONTINUOUS
 10
4.923600
 20
2.512400
  0
VERTEX
  8
0
  6
CONTINUOUS
 10
4.806120
 20
2.462240
  0
VERTEX
  8
0
  6
CONTINUOUS
 10
4.146120
 20
2.845480
  0
VERTEX
  8
0
  6
CONTINUOUS
 10
4.263600
 20
2.895200
  0
SEQEND
  8
0
  0
SOLID
  8
0
 62
    15
 10
4.146120
 20
2.845480
 11
4.806120
 21
2.462240
 12
3.992560
 22
2.807640
 13
4.652560
 23
2.424840
  0
POLYLINE
  8
0
  6
CONTINUOUS
 66
     1
 40
0.000000
 41
0.000000
  0
VERTEX
  8
0
  6
CONTINUOUS
 10
4.146120
 20
2.845480
  0
VERTEX
  8
0
  6
CONTINUOUS
 10
4.806120
 20
2.462240
  0
VERTEX
  8
0
  6
CONTINUOUS
 10
4.652560
 20
2.424840
  0
VERTEX
  8
0
  6
CONTINUOUS
 10
3.992560
 20
2.807640
  0
VERTEX
  8
0
  6
CONTINUOUS
 10
4.146120
 20
2.845480
  0
SEQEND
  8
0
  0
SOLID
  8
0
 62
    15
 10
3.992560
 20
2.807640
 11
4.652560
 21
2.424840
 12
3.990800
 22
2.620640
 13
4.650800
 23
2.237840
  0
POLYLINE
  8
0
  6
CONTINUOUS
 66
     1
 40
0.000000
 41
0.000000
  0
VERTEX
  8
0
  6
CONTINUOUS
 10
3.992560
 20
2.807640
  0
VERTEX
  8
0
  6
CONTINUOUS
 10
4.652560
 20
2.424840
  0
VERTEX
  8
0
  6
CONTINUOUS
 10
4.650800
 20
2.237840
  0
VERTEX
  8
0
  6
CONTINUOUS
 10
3.990800
 20
2.620640
  0
VERTEX
  8
0
  6
CONTINUOUS
 10
3.992560
 20
2.807640
  0
SEQEND
  8
0
  0
SOLID
  8
0
 62
    15
 10
3.990800
 20
2.620640
 11
4.650800
 21
2.237840
 12
3.805560
 22
2.608320
 13
4.465560
 23
2.225520
  0
POLYLINE
  8
0
  6
CONTINUOUS
 66
     1
 40
0.000000
 41
0.000000
  0
VERTEX
  8
0
  6
CONTINUOUS
 10
3.990800
 20
2.620640
  0
VERTEX
  8
0
  6
CONTINUOUS
 10
4.650800
 20
2.237840
  0
VERTEX
  8
0
  6
CONTINUOUS
 10
4.465560
 20
2.225520
  0
VERTEX
  8
0
  6
CONTINUOUS
 10
3.805560
 20
2.608320
  0
VERTEX
  8
0
  6
CONTINUOUS
 10
3.990800
 20
2.620640
  0
SEQEND
  8
0
  0
SOLID
  8
0
 62
    15
 10
3.805560
 20
2.608320
 11
4.465560
 21
2.225520
 12
3.802920
 22
2.564760
 13
4.462920
 23
2.181960
  0
POLYLINE
  8
0
  6
CONTINUOUS
 66
     1
 40
0.000000
 41
0.000000
  0
VERTEX
  8
0
  6
CONTINUOUS
 10
3.805560
 20
2.608320
  0
VERTEX
  8
0
  6
CONTINUOUS
 10
4.465560
 20
2.225520
  0
VERTEX
  8
0
  6
CONTINUOUS
 10
4.462920
 20
2.181960
  0
VERTEX
  8
0
  6
CONTINUOUS
 10
3.802920
 20
2.564760
  0
VERTEX
  8
0
  6
CONTINUOUS
 10
3.805560
 20
2.608320
  0
SEQEND
  8
0
  0
SOLID
  8
0
 62
    15
 10
3.802920
 20
2.564760
 11
4.462920
 21
2.181960
 12
3.791920
 22
2.509320
 13
4.451920
 23
2.126520
  0
POLYLINE
  8
0
  6
CONTINUOUS
 66
     1
 40
0.000000
 41
0.000000
  0
VERTEX
  8
0
  6
CONTINUOUS
 10
3.802920
 20
2.564760
  0
VERTEX
  8
0
  6
CONTINUOUS
 10
4.462920
 20
2.181960
  0
VERTEX
  8
0
  6
CONTINUOUS
 10
4.451920
 20
2.126520
  0
VERTEX
  8
0
  6
CONTINUOUS
 10
3.791920
 20
2.509320
  0
VERTEX
  8
0
  6
CONTINUOUS
 10
3.802920
 20
2.564760
  0
SEQEND
  8
0
  0
SOLID
  8
0
 62
    15
 10
3.791920
 20
2.509320
 11
4.451920
 21
2.126520
 12
3.736480
 22
2.384360
 13
4.396480
 23
2.001120
  0
POLYLINE
  8
0
  6
CONTINUOUS
 66
     1
 40
0.000000
 41
0.000000
  0
VERTEX
  8
0
  6
CONTINUOUS
 10
3.791920
 20
2.509320
  0
VERTEX
  8
0
  6
CONTINUOUS
 10
4.451920
 20
2.126520
  0
VERTEX
  8
0
  6
CONTINUOUS
 10
4.396480
 20
2.001120
  0
VERTEX
  8
0
  6
CONTINUOUS
 10
3.736480
 20
2.384360
  0
VERTEX
  8
0
  6
CONTINUOUS
 10
3.791920
 20
2.509320
  0
SEQEND
  8
0
  0
SOLID
  8
0
 62
    15
 10
3.736480
 20
2.384360
 11
4.396480
 21
2.001120
 12
3.688080
 22
2.325400
 13
4.348520
 23
1.942600
  0
POLYLINE
  8
0
  6
CONTINUOUS
 66
     1
 40
0.000000
 41
0.000000
  0
VERTEX
  8
0
  6
CONTINUOUS
 10
3.736480
 20
2.384360
  0
VERTEX
  8
0
  6
CONTINUOUS
 10
4.396480
 20
2.001120
  0
VERTEX
  8
0
  6
CONTINUOUS
 10
4.348520
 20
1.942600
  0
VERTEX
  8
0
  6
CONTINUOUS
 10
3.688080
 20
2.325400
  0
VERTEX
  8
0
  6
CONTINUOUS
 10
3.736480
 20
2.384360
  0
SEQEND
  8
0
  0
SOLID
  8
0
 62
    15
 10
3.688080
 20
2.325400
 11
4.348520
 21
1.942600
 12
3.623840
 22
2.276120
 13
4.283840
 23
1.893320
  0
POLYLINE
  8
0
  6
CONTINUOUS
 66
     1
 40
0.000000
 41
0.000000
  0
VERTEX
  8
0
  6
CONTINUOUS
 10
3.688080
 20
2.325400
  0
VERTEX
  8
0
  6
CONTINUOUS
 10
4.348520
 20
1.942600
  0
VERTEX
  8
0
  6
CONTINUOUS
 10
4.283840
 20
1.893320
  0
VERTEX
  8
0
  6
CONTINUOUS
 10
3.623840
 20
2.276120
  0
VERTEX
  8
0
  6
CONTINUOUS
 10
3.688080
 20
2.325400
  0
SEQEND
  8
0
  0
SOLID
  8
0
 62
    15
 10
3.623840
 20
2.276120
 11
4.283840
 21
1.893320
 12
3.541560
 22
2.241800
 13
4.201560
 23
1.858560
  0
POLYLINE
  8
0
  6
CONTINUOUS
 66
     1
 40
0.000000
 41
0.000000
  0
VERTEX
  8
0
  6
CONTINUOUS
 10
3.623840
 20
2.276120
  0
VERTEX
  8
0
  6
CONTINUOUS
 10
4.283840
 20
1.893320
  0
VERTEX
  8
0
  6
CONTINUOUS
 10
4.201560
 20
1.858560
  0
VERTEX
  8
0
  6
CONTINUOUS
 10
3.541560
 20
2.241800
  0
VERTEX
  8
0
  6
CONTINUOUS
 10
3.623840
 20
2.276120
  0
SEQEND
  8
0
  0
SOLID
  8
0
 62
    15
 10
3.541560
 20
2.241800
 11
4.201560
 21
1.858560
 12
3.439040
 22
2.227720
 13
4.099480
 23
1.844920
  0
POLYLINE
  8
0
  6
CONTINUOUS
 66
     1
 40
0.000000
 41
0.000000
  0
VERTEX
  8
0
  6
CONTINUOUS
 10
3.541560
 20
2.241800
  0
VERTEX
  8
0
  6
CONTINUOUS
 10
4.201560
 20
1.858560
  0
VERTEX
  8
0
  6
CONTINUOUS
 10
4.099480
 20
1.844920
  0
VERTEX
  8
0
  6
CONTINUOUS
 10
3.439040
 20
2.227720
  0
VERTEX
  8
0
  6
CONTINUOUS
 10
3.541560
 20
2.241800
  0
SEQEND
  8
0
  0
SOLID
  8
0
 62
    15
 10
3.439040
 20
2.227720
 11
4.099480
 21
1.844920
 12
3.439040
 22
1.404480
 13
4.099040
 23
1.021680
  0
POLYLINE
  8
0
  6
CONTINUOUS
 66
     1
 40
0.000000
 41
0.000000
  0
VERTEX
  8
0
  6
CONTINUOUS
 10
3.439040
 20
2.227720
  0
VERTEX
  8
0
  6
CONTINUOUS
 10
4.099480
 20
1.844920
  0
VERTEX
  8
0
  6
CONTINUOUS
 10
4.099040
 20
1.021680
  0
VERTEX
  8
0
  6
CONTINUOUS
 10
3.439040
 20
1.404480
  0
VERTEX
  8
0
  6
CONTINUOUS
 10
3.439040
 20
2.227720
  0
SEQEND
  8
0
  0
SOLID
  8
0
 62
    15
 10
3.439040
 20
1.404480
 11
4.099040
 21
1.021680
 12
2.648360
 22
1.402720
 13
3.308360
 23
1.019480
  0
POLYLINE
  8
0
  6
CONTINUOUS
 66
     1
 40
0.000000
 41
0.000000
  0
VERTEX
  8
0
  6
CONTINUOUS
 10
3.439040
 20
1.404480
  0
VERTEX
  8
0
  6
CONTINUOUS
 10
4.099040
 20
1.021680
  0
VERTEX
  8
0
  6
CONTINUOUS
 10
3.308360
 20
1.019480
  0
VERTEX
  8
0
  6
CONTINUOUS
 10
2.648360
 20
1.402720
  0
VERTEX
  8
0
  6
CONTINUOUS
 10
3.439040
 20
1.404480
  0
SEQEND
  8
0
  0
POLYLINE
  8
0
  6
CONTINUOUS
 66
     1
 40
0.000000
 41
0.000000
  0
VERTEX
  8
0
  6
CONTINUOUS
 10
5.272960
 20
4.246880
  0
VERTEX
  8
0
  6
CONTINUOUS
 10
5.271200
 20
4.030400
  0
VERTEX
  8
0
  6
CONTINUOUS
 10
5.187160
 20
4.014120
  0
VERTEX
  8
0
  6
CONTINUOUS
 10
5.118080
 20
3.982440
  0
VERTEX
  8
0
  6
CONTINUOUS
 10
5.062200
 20
3.939320
  0
VERTEX
  8
0
  6
CONTINUOUS
 10
5.018640
 20
3.889160
  0
VERTEX
  8
0
  6
CONTINUOUS
 10
4.964960
 20
3.781800
  0
VERTEX
  8
0
  6
CONTINUOUS
 10
4.947360
 20
3.690720
  0
VERTEX
  8
0
  6
CONTINUOUS
 10
4.859800
 20
3.685000
  0
VERTEX
  8
0
  6
CONTINUOUS
 10
4.858480
 20
3.566200
  0
VERTEX
  8
0
  6
CONTINUOUS
 10
4.787640
 20
3.547720
  0
VERTEX
  8
0
  6
CONTINUOUS
 10
4.731760
 20
3.526600
  0
VERTEX
  8
0
  6
CONTINUOUS
 10
4.652560
 20
3.473800
  0
VERTEX
  8
0
  6
CONTINUOUS
 10
4.598880
 20
3.399440
  0
VERTEX
  8
0
  6
CONTINUOUS
 10
4.574240
 20
3.351480
  0
VERTEX
  8
0
  6
CONTINUOUS
 10
4.561040
 20
3.324200
  0
VERTEX
  8
0
  6
CONTINUOUS
 10
4.547400
 20
3.294720
  0
VERTEX
  8
0
  6
CONTINUOUS
 10
4.520560
 20
3.230040
  0
VERTEX
  8
0
  6
CONTINUOUS
 10
4.507360
 20
3.195720
  0
VERTEX
  8
0
  6
CONTINUOUS
 10
4.493280
 20
3.160960
  0
VERTEX
  8
0
  6
CONTINUOUS
 10
4.414520
 20
3.020160
  0
VERTEX
  8
0
  6
CONTINUOUS
 10
4.351160
 20
2.954600
  0
VERTEX
  8
0
  6
CONTINUOUS
 10
4.263600
 20
2.895200
  0
VERTEX
  8
0
  6
CONTINUOUS
 10
4.146120
 20
2.845480
  0
VERTEX
  8
0
  6
CONTINUOUS
 10
3.992560
 20
2.807640
  0
VERTEX
  8
0
  6
CONTINUOUS
 10
3.990800
 20
2.620640
  0
VERTEX
  8
0
  6
CONTINUOUS
 10
3.805560
 20
2.608320
  0
VERTEX
  8
0
  6
CONTINUOUS
 10
3.802920
 20
2.564760
  0
VERTEX
  8
0
  6
CONTINUOUS
 10
3.791920
 20
2.509320
  0
VERTEX
  8
0
  6
CONTINUOUS
 10
3.736480
 20
2.384360
  0
VERTEX
  8
0
  6
CONTINUOUS
 10
3.688080
 20
2.325400
  0
VERTEX
  8
0
  6
CONTINUOUS
 10
3.623840
 20
2.276120
  0
VERTEX
  8
0
  6
CONTINUOUS
 10
3.541560
 20
2.241800
  0
VERTEX
  8
0
  6
CONTINUOUS
 10
3.439040
 20
2.227720
  0
VERTEX
  8
0
  6
CONTINUOUS
 10
3.439040
 20
1.404480
  0
VERTEX
  8
0
  6
CONTINUOUS
 10
2.648360
 20
1.402720
  0
VERTEX
  8
0
  6
CONTINUOUS
 10
2.687520
 20
2.077680
  0
VERTEX
  8
0
  6
CONTINUOUS
 10
4.207280
 20
4.224440
  0
VERTEX
  8
0
  6
CONTINUOUS
 10
5.272960
 20
4.246880
  0
SEQEND
  8
0
  0
TEXT
  8
0
 10
4.784560
 20
1.213080
 40
0.138168
  1
BA  1233
 41
1.000000
  7
SN0
 71
     0
 72
     5
 11
5.467471
 21
1.213080
  0
TEXT
  8
0
 10
4.744080
 20
1.021680
 40
0.138168
  1
1" x 3-7/8"
 41
1.000000
  7
SN0
 71
     0
 72
     5
 11
5.506718
 21
1.021680
  0
TEXT
  8
0
 10
4.017640
 20
4.870360
 40
0.138168
  1
BA  1233
 41
1.000000
  7
SN0
 71
     0
 72
     5
 11
4.700551
 21
4.870360
  0
TEXT
  8
0
 10
3.977160
 20
4.678520
 40
0.138168
  1
1" x 3-7/8"
 41
1.000000
  7
SN0
 71
     0
 72
     5
 11
4.739798
 21
4.678520
  0
POLYLINE
  8
0
  6
CONTINUOUS
 66
     1
 40
0.000000
 41
0.000000
  0
VERTEX
  8
0
  6
CONTINUOUS
 10
5.681280
 20
5.786440
  0
VERTEX
  8
0
  6
CONTINUOUS
 10
3.050960
 20
5.786440
  0
VERTEX
  8
0
  6
CONTINUOUS
 10
2.477640
 20
6.145040
  0
VERTEX
  8
0
  6
CONTINUOUS
 10
2.935680
 20
6.789200
  0
VERTEX
  8
0
  6
CONTINUOUS
 10
3.608000
 20
6.313560
  0
VERTEX
  8
0
  6
CONTINUOUS
 10
3.642320
 20
6.354920
  0
VERTEX
  8
0
  6
CONTINUOUS
 10
3.678400
 20
6.389240
  0
VERTEX
  8
0
  6
CONTINUOUS
 10
3.715800
 20
6.416080
  0
VERTEX
  8
0
  6
CONTINUOUS
 10
3.754080
 20
6.436320
  0
VERTEX
  8
0
  6
CONTINUOUS
 10
3.792800
 20
6.450840
  0
VERTEX
  8
0
  6
CONTINUOUS
 10
3.831520
 20
6.460520
  0
VERTEX
  8
0
  6
CONTINUOUS
 10
3.869800
 20
6.464920
  0
VERTEX
  8
0
  6
CONTINUOUS
 10
3.907200
 20
6.465360
  0
VERTEX
  8
0
  6
CONTINUOUS
 10
3.943720
 20
6.462720
  0
VERTEX
  8
0
  6
CONTINUOUS
 10
3.995200
 20
6.453040
  0
VERTEX
  8
0
  6
CONTINUOUS
 10
4.041400
 20
6.438520
  0
VERTEX
  8
0
  6
CONTINUOUS
 10
4.081440
 20
6.421360
  0
VERTEX
  8
0
  6
CONTINUOUS
 10
4.113560
 20
6.403760
  0
VERTEX
  8
0
  6
CONTINUOUS
 10
4.130280
 20
6.392760
  0
VERTEX
  8
0
  6
CONTINUOUS
 10
4.247320
 20
6.536200
  0
VERTEX
  8
0
  6
CONTINUOUS
 10
4.400880
 20
6.429720
  0
VERTEX
  8
0
  6
CONTINUOUS
 10
4.462040
 20
6.486480
  0
VERTEX
  8
0
  6
CONTINUOUS
 10
4.520120
 20
6.533120
  0
VERTEX
  8
0
  6
CONTINUOUS
 10
4.576000
 20
6.570960
  0
VERTEX
  8
0
  6
CONTINUOUS
 10
4.628800
 20
6.600440
  0
VERTEX
  8
0
  6
CONTINUOUS
 10
4.654320
 20
6.612320
  0
VERTEX
  8
0
  6
CONTINUOUS
 10
4.704040
 20
6.630800
  0
VERTEX
  8
0
  6
CONTINUOUS
 10
4.751120
 20
6.643120
  0
VERTEX
  8
0
  6
CONTINUOUS
 10
4.796440
 20
6.649720
  0
VERTEX
  8
0
  6
CONTINUOUS
 10
4.839560
 20
6.651920
  0
VERTEX
  8
0
  6
CONTINUOUS
 10
4.881360
 20
6.650160
  0
VERTEX
  8
0
  6
CONTINUOUS
 10
4.940760
 20
6.642240
  0
VERTEX
  8
0
  6
CONTINUOUS
 10
5.118960
 20
6.601320
  0
VERTEX
  8
0
  6
CONTINUOUS
 10
5.208720
 20
6.585920
  0
VERTEX
  8
0
  6
CONTINUOUS
 10
5.258880
 20
6.580640
  0
VERTEX
  8
0
  6
CONTINUOUS
 10
5.282200
 20
6.579760
  0
VERTEX
  8
0
  6
CONTINUOUS
 10
5.326200
 20
6.583720
  0
VERTEX
  8
0
  6
CONTINUOUS
 10
5.347760
 20
6.588560
  0
VERTEX
  8
0
  6
CONTINUOUS
 10
5.369760
 20
6.595600
  0
VERTEX
  8
0
  6
CONTINUOUS
 10
5.403200
 20
6.611440
  0
VERTEX
  8
0
  6
CONTINUOUS
 10
5.438840
 20
6.633000
  0
VERTEX
  8
0
  6
CONTINUOUS
 10
5.491640
 20
6.673040
  0
VERTEX
  8
0
  6
CONTINUOUS
 10
5.520680
 20
6.698120
  0
VERTEX
  8
0
  6
CONTINUOUS
 10
5.617920
 20
6.630800
  0
VERTEX
  8
0
  6
CONTINUOUS
 10
5.673360
 20
6.698560
  0
VERTEX
  8
0
  6
CONTINUOUS
 10
5.709880
 20
6.678320
  0
VERTEX
  8
0
  6
CONTINUOUS
 10
5.757840
 20
6.660280
  0
VERTEX
  8
0
  6
CONTINUOUS
 10
5.784680
 20
6.653240
  0
VERTEX
  8
0
  6
CONTINUOUS
 10
5.829120
 20
6.645320
  0
VERTEX
  8
0
  6
CONTINUOUS
 10
5.860360
 20
6.642680
  0
VERTEX
  8
0
  6
CONTINUOUS
 10
5.892480
 20
6.642680
  0
VERTEX
  8
0
  6
CONTINUOUS
 10
5.925920
 20
6.645760
  0
VERTEX
  8
0
  6
CONTINUOUS
 10
5.959360
 20
6.652360
  0
VERTEX
  8
0
  6
CONTINUOUS
 10
6.009520
 20
6.669520
  0
VERTEX
  8
0
  6
CONTINUOUS
 10
6.042960
 20
6.686240
  0
VERTEX
  8
0
  6
CONTINUOUS
 10
6.075520
 20
6.707800
  0
VERTEX
  8
0
  6
CONTINUOUS
 10
6.107200
 20
6.734640
  0
VERTEX
  8
0
  6
CONTINUOUS
 10
6.137560
 20
6.766760
  0
VERTEX
  8
0
  6
CONTINUOUS
 10
6.315320
 20
6.643120
  0
VERTEX
  8
0
  6
CONTINUOUS
 10
5.681280
 20
5.786440
  0
SEQEND
  8
0
  0
ENDSEC
  0
EOF
