  0
SECTION
  2
HEADER
  9
$ACADVER
  1
AC1006
  9
$EXTMIN
 10
1.949640
 20
1.218360
  9
$EXTMAX
 10
6.937920
 20
9.907040
  9
$LTSCALE
 40
0.044000
  9
$PDMODE
 70
    35
  9
$PDSIZE
 40
0.035200
  0
ENDSEC
  0
SECTION
  2
TABLES
  0
TABLE
  2
LTYPE
 70
     9
  0
LTYPE
  2
CONTINUOUS
 70
    64
  3
Solid line
 72
    65
 73
     0
 40
0.000000
  0
LTYPE
  2
DASHED
 70
    64
  3
__ __ __ __ __ __ __ __ __ __ __ __ __ __ __
 72
    65
 73
     2
 40
0.000330
 49
0.000220
 49
-0.000110
  0
LTYPE
  2
HIDDEN
 70
    64
  3
 _ _ _ _ _ _ _ _ _ _ _ _ _ _ _ _ _ _ _ _ _ _
 72
    65
 73
     2
 40
0.000165
 49
0.000110
 49
-0.000055
  0
LTYPE
  2
CENTER
 70
    64
  3
____ _ ____ _ ____ _ ____ _ ____ _ ____ _ ____
 72
    65
 73
     4
 40
0.000880
 49
0.000550
 49
-0.000110
 49
0.000110
 49
-0.000110
  0
LTYPE
  2
PHANTOM
 70
    64
  3
_____ _ _ _____ _ _ _____ _ _ _____ _ _ ____
 72
    65
 73
     6
 40
0.001100
 49
0.000550
 49
-0.000110
 49
0.000110
 49
-0.000110
 49
0.000110
 49
-0.000110
  0
LTYPE
  2
DOT
 70
    64
  3
...............................................
 72
    65
 73
     2
 40
0.000110
 49
0.000000
 49
-0.000110
  0
LTYPE
  2
DASHDOT
 70
    64
  3
__ . __ . __ . __ . __ . __ . __ . __ . __ . __
 72
    65
 73
     4
 40
0.000440
 49
0.000220
 49
-0.000110
 49
0.000000
 49
-0.000110
  0
LTYPE
  2
BORDER
 70
    64
  3
__ __ . __ __ . __ __ . __ __ . __ __ . __ __
 72
    65
 73
     6
 40
0.000770
 49
0.000220
 49
-0.000110
 49
0.000220
 49
-0.000110
 49
0.000000
 49
-0.000110
  0
LTYPE
  2
DIVIDE
 70
    64
  3
__ . . __ . . __ . . __ . . __ . . __ . . __
 72
    65
 73
     6
 40
0.000550
 49
0.000220
 49
-0.000110
 49
0.000000
 49
-0.000110
 49
0.000000
 49
-0.000110
  0
LTYPE
  2
DOTDOT
 70
    64
  3
 . .  . .  . .  . .  . .  . . 
 72
    65
 73
     5
 40
0.000242
 49
-0.000110
 49
0.000000
 49
-0.000110
 49
0.000000
 49
-0.000110
  0
ENDTAB
  0
TABLE
  2
STYLE
 70
     2
  0
STYLE
 70
     0
  2
SN0
 40
0.000000
 41
0.000440
 50
0.000000
 71
     0
 42
0.000000
  3
ROMAND
  0
STYLE
 70
    68
  2
SV0
 40
0.000000
 41
0.000440
 50
0.000000
 71
     0
 42
0.000000
  3
ROMAND
  0
ENDTAB
  0
TABLE
  2
LAYER
 70
     3
  0
LAYER
  2
FOREGROUND
 70
    64
 62
     7
  6
CONTINUOUS
  0
LAYER
  2
BACKGROUND
 70
    65
 62
    -7
  6
CONTINUOUS
  0
LAYER
  2
0
 70
    64
 62
     7
  6
CONTINUOUS
  0
ENDTAB
  0
ENDSEC
  0
SECTION
  2
ENTITIES
  0
POLYLINE
  8
FOREGROUND
  6
CONTINUOUS
 66
     1
 40
0.000000
 41
0.000000
  0
VERTEX
  8
FOREGROUND
  6
CONTINUOUS
 10
0.000000
 20
11.125400
  0
VERTEX
  8
FOREGROUND
  6
CONTINUOUS
 10
8.499920
 20
11.125400
  0
VERTEX
  8
FOREGROUND
  6
CONTINUOUS
 10
8.499920
 20
0.125400
  0
VERTEX
  8
FOREGROUND
  6
CONTINUOUS
 10
0.000000
 20
0.125400
  0
VERTEX
  8
FOREGROUND
  6
CONTINUOUS
 10
0.000000
 20
11.125400
  0
SEQEND
  8
0
  0
POLYLINE
  8
FOREGROUND
  6
CONTINUOUS
 66
     1
 40
0.000000
 41
0.000000
  0
VERTEX
  8
FOREGROUND
  6
CONTINUOUS
 10
0.000000
 20
11.125400
  0
VERTEX
  8
FOREGROUND
  6
CONTINUOUS
 10
8.499920
 20
11.125400
  0
VERTEX
  8
FOREGROUND
  6
CONTINUOUS
 10
8.499920
 20
0.125400
  0
VERTEX
  8
FOREGROUND
  6
CONTINUOUS
 10
0.000000
 20
0.125400
  0
VERTEX
  8
FOREGROUND
  6
CONTINUOUS
 10
0.000000
 20
11.125400
  0
SEQEND
  8
0
  0
POLYLINE
  8
0
  6
CONTINUOUS
 66
     1
 40
0.014080
 41
0.014080
  0
VERTEX
  8
0
  6
CONTINUOUS
 10
4.346760
 20
8.572960
  0
VERTEX
  8
0
  6
CONTINUOUS
 10
4.346760
 20
9.713440
  0
VERTEX
  8
0
  6
CONTINUOUS
 10
4.869920
 20
9.713440
  0
VERTEX
  8
0
  6
CONTINUOUS
 10
4.939000
 20
9.710800
  0
VERTEX
  8
0
  6
CONTINUOUS
 10
5.022160
 20
9.702880
  0
VERTEX
  8
0
  6
CONTINUOUS
 10
5.078480
 20
9.693640
  0
VERTEX
  8
0
  6
CONTINUOUS
 10
5.129960
 20
9.682200
  0
VERTEX
  8
0
  6
CONTINUOUS
 10
5.191120
 20
9.663720
  0
VERTEX
  8
0
  6
CONTINUOUS
 10
5.244800
 20
9.641280
  0
VERTEX
  8
0
  6
CONTINUOUS
 10
5.291880
 20
9.616640
  0
VERTEX
  8
0
  6
CONTINUOUS
 10
5.332360
 20
9.589360
  0
VERTEX
  8
0
  6
CONTINUOUS
 10
5.383400
 20
9.544920
  0
VERTEX
  8
0
  6
CONTINUOUS
 10
5.411560
 20
9.513680
  0
VERTEX
  8
0
  6
CONTINUOUS
 10
5.446760
 20
9.466160
  0
VERTEX
  8
0
  6
CONTINUOUS
 10
5.475800
 20
9.419080
  0
VERTEX
  8
0
  6
CONTINUOUS
 10
5.525080
 20
9.332400
  0
VERTEX
  8
0
  6
CONTINUOUS
 10
5.559840
 20
9.278720
  0
VERTEX
  8
0
  6
CONTINUOUS
 10
5.601640
 20
9.223280
  0
VERTEX
  8
0
  6
CONTINUOUS
 10
5.625400
 20
9.195560
  0
VERTEX
  8
0
  6
CONTINUOUS
 10
5.650920
 20
9.168720
  0
VERTEX
  8
0
  6
CONTINUOUS
 10
5.693160
 20
9.130000
  0
VERTEX
  8
0
  6
CONTINUOUS
 10
5.740680
 20
9.094800
  0
VERTEX
  8
0
  6
CONTINUOUS
 10
5.793480
 20
9.064000
  0
VERTEX
  8
0
  6
CONTINUOUS
 10
5.831760
 20
9.046400
  0
VERTEX
  8
0
  6
CONTINUOUS
 10
5.872680
 20
9.031440
  0
VERTEX
  8
0
  6
CONTINUOUS
 10
5.916240
 20
9.020000
  0
VERTEX
  8
0
  6
CONTINUOUS
 10
5.962440
 20
9.012080
  0
VERTEX
  8
0
  6
CONTINUOUS
 10
6.011720
 20
9.007680
  0
VERTEX
  8
0
  6
CONTINUOUS
 10
6.037240
 20
9.007240
  0
VERTEX
  8
0
  6
CONTINUOUS
 10
6.053960
 20
9.047720
  0
VERTEX
  8
0
  6
CONTINUOUS
 10
6.082560
 20
9.102720
  0
VERTEX
  8
0
  6
CONTINUOUS
 10
6.103680
 20
9.135280
  0
VERTEX
  8
0
  6
CONTINUOUS
 10
6.138440
 20
9.177960
  0
VERTEX
  8
0
  6
CONTINUOUS
 10
6.163080
 20
9.202600
  0
VERTEX
  8
0
  6
CONTINUOUS
 10
6.201800
 20
9.233400
  0
VERTEX
  8
0
  6
CONTINUOUS
 10
6.242720
 20
9.257600
  0
VERTEX
  8
0
  6
CONTINUOUS
 10
6.270880
 20
9.270360
  0
VERTEX
  8
0
  6
CONTINUOUS
 10
6.314000
 20
9.283560
  0
VERTEX
  8
0
  6
CONTINUOUS
 10
6.342600
 20
9.288840
  0
VERTEX
  8
0
  6
CONTINUOUS
 10
6.371640
 20
9.291040
  0
VERTEX
  8
0
  6
CONTINUOUS
 10
6.400680
 20
9.290600
  0
VERTEX
  8
0
  6
CONTINUOUS
 10
6.429280
 20
9.287520
  0
VERTEX
  8
0
  6
CONTINUOUS
 10
6.471520
 20
9.277840
  0
VERTEX
  8
0
  6
CONTINUOUS
 10
6.512000
 20
9.262000
  0
VERTEX
  8
0
  6
CONTINUOUS
 10
6.550720
 20
9.240440
  0
VERTEX
  8
0
  6
CONTINUOUS
 10
6.586800
 20
9.213160
  0
VERTEX
  8
0
  6
CONTINUOUS
 10
6.609240
 20
9.192040
  0
VERTEX
  8
0
  6
CONTINUOUS
 10
6.640040
 20
9.155520
  0
VERTEX
  8
0
  6
CONTINUOUS
 10
6.666880
 20
9.113720
  0
VERTEX
  8
0
  6
CONTINUOUS
 10
6.682280
 20
9.082920
  0
VERTEX
  8
0
  6
CONTINUOUS
 10
6.701200
 20
9.032760
  0
VERTEX
  8
0
  6
CONTINUOUS
 10
6.710880
 20
8.996680
  0
VERTEX
  8
0
  6
CONTINUOUS
 10
6.717920
 20
8.957960
  0
VERTEX
  8
0
  6
CONTINUOUS
 10
6.722320
 20
8.917480
  0
VERTEX
  8
0
  6
CONTINUOUS
 10
6.723640
 20
8.874800
  0
VERTEX
  8
0
  6
CONTINUOUS
 10
6.728040
 20
8.807040
  0
VERTEX
  8
0
  6
CONTINUOUS
 10
6.917680
 20
8.807040
  0
VERTEX
  8
0
  6
CONTINUOUS
 10
6.917680
 20
8.501680
  0
VERTEX
  8
0
  6
CONTINUOUS
 10
4.346760
 20
8.501680
  0
VERTEX
  8
0
  6
CONTINUOUS
 10
4.346760
 20
8.572960
  0
SEQEND
  8
0
  0
POLYLINE
  8
0
  6
CONTINUOUS
 66
     1
 40
0.014080
 41
0.014080
  0
VERTEX
  8
0
  6
CONTINUOUS
 10
3.685000
 20
8.515760
  0
VERTEX
  8
0
  6
CONTINUOUS
 10
3.685000
 20
8.606400
  0
VERTEX
  8
0
  6
CONTINUOUS
 10
3.685000
 20
9.220200
  0
VERTEX
  8
0
  6
CONTINUOUS
 10
3.685000
 20
9.406320
  0
VERTEX
  8
0
  6
CONTINUOUS
 10
3.664320
 20
9.406320
  0
VERTEX
  8
0
  6
CONTINUOUS
 10
2.472800
 20
9.406320
  0
VERTEX
  8
0
  6
CONTINUOUS
 10
2.472800
 20
9.899120
  0
VERTEX
  8
0
  6
CONTINUOUS
 10
2.305160
 20
9.899120
  0
VERTEX
  8
0
  6
CONTINUOUS
 10
2.304720
 20
9.876240
  0
VERTEX
  8
0
  6
CONTINUOUS
 10
2.304280
 20
9.854240
  0
VERTEX
  8
0
  6
CONTINUOUS
 10
2.303400
 20
9.832680
  0
VERTEX
  8
0
  6
CONTINUOUS
 10
2.302520
 20
9.811560
  0
VERTEX
  8
0
  6
CONTINUOUS
 10
2.300760
 20
9.791320
  0
VERTEX
  8
0
  6
CONTINUOUS
 10
2.299000
 20
9.771520
  0
VERTEX
  8
0
  6
CONTINUOUS
 10
2.296360
 20
9.752160
  0
VERTEX
  8
0
  6
CONTINUOUS
 10
2.293720
 20
9.733680
  0
VERTEX
  8
0
  6
CONTINUOUS
 10
2.290200
 20
9.715640
  0
VERTEX
  8
0
  6
CONTINUOUS
 10
2.286240
 20
9.698040
  0
VERTEX
  8
0
  6
CONTINUOUS
 10
2.281400
 20
9.681320
  0
VERTEX
  8
0
  6
CONTINUOUS
 10
2.276120
 20
9.665040
  0
VERTEX
  8
0
  6
CONTINUOUS
 10
2.269960
 20
9.649200
  0
VERTEX
  8
0
  6
CONTINUOUS
 10
2.262920
 20
9.633800
  0
VERTEX
  8
0
  6
CONTINUOUS
 10
2.255440
 20
9.619280
  0
VERTEX
  8
0
  6
CONTINUOUS
 10
2.246640
 20
9.605200
  0
VERTEX
  8
0
  6
CONTINUOUS
 10
2.237400
 20
9.591560
  0
VERTEX
  8
0
  6
CONTINUOUS
 10
2.226840
 20
9.578360
  0
VERTEX
  8
0
  6
CONTINUOUS
 10
2.215400
 20
9.566040
  0
VERTEX
  8
0
  6
CONTINUOUS
 10
2.203080
 20
9.553720
  0
VERTEX
  8
0
  6
CONTINUOUS
 10
2.189880
 20
9.542280
  0
VERTEX
  8
0
  6
CONTINUOUS
 10
2.174920
 20
9.531280
  0
VERTEX
  8
0
  6
CONTINUOUS
 10
2.159080
 20
9.520720
  0
VERTEX
  8
0
  6
CONTINUOUS
 10
2.142360
 20
9.510600
  0
VERTEX
  8
0
  6
CONTINUOUS
 10
2.123880
 20
9.500920
  0
VERTEX
  8
0
  6
CONTINUOUS
 10
2.104520
 20
9.492120
  0
VERTEX
  8
0
  6
CONTINUOUS
 10
2.083400
 20
9.483320
  0
VERTEX
  8
0
  6
CONTINUOUS
 10
2.060960
 20
9.475400
  0
VERTEX
  8
0
  6
CONTINUOUS
 10
2.037640
 20
9.467920
  0
VERTEX
  8
0
  6
CONTINUOUS
 10
2.012120
 20
9.460440
  0
VERTEX
  8
0
  6
CONTINUOUS
 10
1.985280
 20
9.453840
  0
VERTEX
  8
0
  6
CONTINUOUS
 10
1.957120
 20
9.447680
  0
VERTEX
  8
0
  6
CONTINUOUS
 10
1.957120
 20
8.515760
  0
VERTEX
  8
0
  6
CONTINUOUS
 10
3.558720
 20
8.515760
  0
VERTEX
  8
0
  6
CONTINUOUS
 10
3.685440
 20
8.515760
  0
VERTEX
  8
0
  6
CONTINUOUS
 10
3.685000
 20
8.515760
  0
SEQEND
  8
0
  0
TEXT
  8
0
 10
2.449920
 20
8.847520
 40
0.138191
  1
BA  1230
 41
1.000000
  7
SN0
 71
     0
 72
     5
 11
3.130678
 21
8.847520
  0
TEXT
  8
0
 10
2.266440
 20
8.655680
 40
0.138191
  1
1-3/8" x 1-3/4"
 41
1.000000
  7
SN0
 71
     0
 72
     5
 11
3.312557
 21
8.655680
  0
TEXT
  8
0
 10
4.872560
 20
8.789880
 40
0.138191
  1
BA  1231
 41
1.000000
  7
SN0
 71
     0
 72
     5
 11
5.553318
 21
8.789880
  0
TEXT
  8
0
 10
4.596680
 20
8.598040
 40
0.138191
  1
1-3/16" x 2-9/16"
 41
1.000000
  7
SN0
 71
     0
 72
     5
 11
5.826997
 21
8.598040
  0
SOLID
  8
0
 62
    15
 10
5.717800
 20
5.675120
 11
5.718680
 21
6.428400
 12
5.804920
 22
5.651800
 13
5.806240
 23
6.405520
  0
POLYLINE
  8
0
  6
CONTINUOUS
 66
     1
 40
0.000000
 41
0.000000
  0
VERTEX
  8
0
  6
CONTINUOUS
 10
5.717800
 20
5.675120
  0
VERTEX
  8
0
  6
CONTINUOUS
 10
5.718680
 20
6.428400
  0
VERTEX
  8
0
  6
CONTINUOUS
 10
5.806240
 20
6.405520
  0
VERTEX
  8
0
  6
CONTINUOUS
 10
5.804920
 20
5.651800
  0
VERTEX
  8
0
  6
CONTINUOUS
 10
5.717800
 20
5.675120
  0
SEQEND
  8
0
  0
SOLID
  8
0
 62
    15
 10
4.711520
 20
6.350080
 11
4.712400
 21
7.103360
 12
4.804800
 22
6.347000
 13
4.805680
 23
7.100720
  0
POLYLINE
  8
0
  6
CONTINUOUS
 66
     1
 40
0.000000
 41
0.000000
  0
VERTEX
  8
0
  6
CONTINUOUS
 10
4.711520
 20
6.350080
  0
VERTEX
  8
0
  6
CONTINUOUS
 10
4.712400
 20
7.103360
  0
VERTEX
  8
0
  6
CONTINUOUS
 10
4.805680
 20
7.100720
  0
VERTEX
  8
0
  6
CONTINUOUS
 10
4.804800
 20
6.347000
  0
VERTEX
  8
0
  6
CONTINUOUS
 10
4.711520
 20
6.350080
  0
SEQEND
  8
0
  0
SOLID
  8
0
 62
    15
 10
4.804800
 20
6.347000
 11
4.805680
 21
7.100720
 12
4.887960
 22
6.339080
 13
4.889280
 23
7.092800
  0
POLYLINE
  8
0
  6
CONTINUOUS
 66
     1
 40
0.000000
 41
0.000000
  0
VERTEX
  8
0
  6
CONTINUOUS
 10
4.804800
 20
6.347000
  0
VERTEX
  8
0
  6
CONTINUOUS
 10
4.805680
 20
7.100720
  0
VERTEX
  8
0
  6
CONTINUOUS
 10
4.889280
 20
7.092800
  0
VERTEX
  8
0
  6
CONTINUOUS
 10
4.887960
 20
6.339080
  0
VERTEX
  8
0
  6
CONTINUOUS
 10
4.804800
 20
6.347000
  0
SEQEND
  8
0
  0
SOLID
  8
0
 62
    15
 10
4.887960
 20
6.339080
 11
4.889280
 21
7.092800
 12
4.962320
 22
6.326760
 13
4.963200
 23
7.080040
  0
POLYLINE
  8
0
  6
CONTINUOUS
 66
     1
 40
0.000000
 41
0.000000
  0
VERTEX
  8
0
  6
CONTINUOUS
 10
4.887960
 20
6.339080
  0
VERTEX
  8
0
  6
CONTINUOUS
 10
4.889280
 20
7.092800
  0
VERTEX
  8
0
  6
CONTINUOUS
 10
4.963200
 20
7.080040
  0
VERTEX
  8
0
  6
CONTINUOUS
 10
4.962320
 20
6.326760
  0
VERTEX
  8
0
  6
CONTINUOUS
 10
4.887960
 20
6.339080
  0
SEQEND
  8
0
  0
SOLID
  8
0
 62
    15
 10
4.962320
 20
6.326760
 11
4.963200
 21
7.080040
 12
5.027440
 22
6.310040
 13
5.028320
 23
7.063320
  0
POLYLINE
  8
0
  6
CONTINUOUS
 66
     1
 40
0.000000
 41
0.000000
  0
VERTEX
  8
0
  6
CONTINUOUS
 10
4.962320
 20
6.326760
  0
VERTEX
  8
0
  6
CONTINUOUS
 10
4.963200
 20
7.080040
  0
VERTEX
  8
0
  6
CONTINUOUS
 10
5.028320
 20
7.063320
  0
VERTEX
  8
0
  6
CONTINUOUS
 10
5.027440
 20
6.310040
  0
VERTEX
  8
0
  6
CONTINUOUS
 10
4.962320
 20
6.326760
  0
SEQEND
  8
0
  0
SOLID
  8
0
 62
    15
 10
5.027440
 20
6.310040
 11
5.028320
 21
7.063320
 12
5.085080
 22
6.289360
 13
5.085960
 23
7.043080
  0
POLYLINE
  8
0
  6
CONTINUOUS
 66
     1
 40
0.000000
 41
0.000000
  0
VERTEX
  8
0
  6
CONTINUOUS
 10
5.027440
 20
6.310040
  0
VERTEX
  8
0
  6
CONTINUOUS
 10
5.028320
 20
7.063320
  0
VERTEX
  8
0
  6
CONTINUOUS
 10
5.085960
 20
7.043080
  0
VERTEX
  8
0
  6
CONTINUOUS
 10
5.085080
 20
6.289360
  0
VERTEX
  8
0
  6
CONTINUOUS
 10
5.027440
 20
6.310040
  0
SEQEND
  8
0
  0
SOLID
  8
0
 62
    15
 10
5.085080
 20
6.289360
 11
5.085960
 21
7.043080
 12
5.135240
 22
6.266040
 13
5.136120
 23
7.019320
  0
POLYLINE
  8
0
  6
CONTINUOUS
 66
     1
 40
0.000000
 41
0.000000
  0
VERTEX
  8
0
  6
CONTINUOUS
 10
5.085080
 20
6.289360
  0
VERTEX
  8
0
  6
CONTINUOUS
 10
5.085960
 20
7.043080
  0
VERTEX
  8
0
  6
CONTINUOUS
 10
5.136120
 20
7.019320
  0
VERTEX
  8
0
  6
CONTINUOUS
 10
5.135240
 20
6.266040
  0
VERTEX
  8
0
  6
CONTINUOUS
 10
5.085080
 20
6.289360
  0
SEQEND
  8
0
  0
SOLID
  8
0
 62
    15
 10
5.135240
 20
6.266040
 11
5.136120
 21
7.019320
 12
5.178800
 22
6.239640
 13
5.179680
 23
6.993360
  0
POLYLINE
  8
0
  6
CONTINUOUS
 66
     1
 40
0.000000
 41
0.000000
  0
VERTEX
  8
0
  6
CONTINUOUS
 10
5.135240
 20
6.266040
  0
VERTEX
  8
0
  6
CONTINUOUS
 10
5.136120
 20
7.019320
  0
VERTEX
  8
0
  6
CONTINUOUS
 10
5.179680
 20
6.993360
  0
VERTEX
  8
0
  6
CONTINUOUS
 10
5.178800
 20
6.239640
  0
VERTEX
  8
0
  6
CONTINUOUS
 10
5.135240
 20
6.266040
  0
SEQEND
  8
0
  0
SOLID
  8
0
 62
    15
 10
5.178800
 20
6.239640
 11
5.179680
 21
6.993360
 12
5.216640
 22
6.211480
 13
5.217520
 23
6.964760
  0
POLYLINE
  8
0
  6
CONTINUOUS
 66
     1
 40
0.000000
 41
0.000000
  0
VERTEX
  8
0
  6
CONTINUOUS
 10
5.178800
 20
6.239640
  0
VERTEX
  8
0
  6
CONTINUOUS
 10
5.179680
 20
6.993360
  0
VERTEX
  8
0
  6
CONTINUOUS
 10
5.217520
 20
6.964760
  0
VERTEX
  8
0
  6
CONTINUOUS
 10
5.216640
 20
6.211480
  0
VERTEX
  8
0
  6
CONTINUOUS
 10
5.178800
 20
6.239640
  0
SEQEND
  8
0
  0
SOLID
  8
0
 62
    15
 10
5.216640
 20
6.211480
 11
5.217520
 21
6.964760
 12
5.277360
 22
6.150320
 13
5.278240
 23
6.903600
  0
POLYLINE
  8
0
  6
CONTINUOUS
 66
     1
 40
0.000000
 41
0.000000
  0
VERTEX
  8
0
  6
CONTINUOUS
 10
5.216640
 20
6.211480
  0
VERTEX
  8
0
  6
CONTINUOUS
 10
5.217520
 20
6.964760
  0
VERTEX
  8
0
  6
CONTINUOUS
 10
5.278240
 20
6.903600
  0
VERTEX
  8
0
  6
CONTINUOUS
 10
5.277360
 20
6.150320
  0
VERTEX
  8
0
  6
CONTINUOUS
 10
5.216640
 20
6.211480
  0
SEQEND
  8
0
  0
SOLID
  8
0
 62
    15
 10
5.277360
 20
6.150320
 11
5.278240
 21
6.903600
 12
5.323120
 22
6.086520
 13
5.324000
 23
6.840240
  0
POLYLINE
  8
0
  6
CONTINUOUS
 66
     1
 40
0.000000
 41
0.000000
  0
VERTEX
  8
0
  6
CONTINUOUS
 10
5.277360
 20
6.150320
  0
VERTEX
  8
0
  6
CONTINUOUS
 10
5.278240
 20
6.903600
  0
VERTEX
  8
0
  6
CONTINUOUS
 10
5.324000
 20
6.840240
  0
VERTEX
  8
0
  6
CONTINUOUS
 10
5.323120
 20
6.086520
  0
VERTEX
  8
0
  6
CONTINUOUS
 10
5.277360
 20
6.150320
  0
SEQEND
  8
0
  0
SOLID
  8
0
 62
    15
 10
5.323120
 20
6.086520
 11
5.324000
 21
6.840240
 12
5.359200
 22
6.024920
 13
5.360080
 23
6.778640
  0
POLYLINE
  8
0
  6
CONTINUOUS
 66
     1
 40
0.000000
 41
0.000000
  0
VERTEX
  8
0
  6
CONTINUOUS
 10
5.323120
 20
6.086520
  0
VERTEX
  8
0
  6
CONTINUOUS
 10
5.324000
 20
6.840240
  0
VERTEX
  8
0
  6
CONTINUOUS
 10
5.360080
 20
6.778640
  0
VERTEX
  8
0
  6
CONTINUOUS
 10
5.359200
 20
6.024920
  0
VERTEX
  8
0
  6
CONTINUOUS
 10
5.323120
 20
6.086520
  0
SEQEND
  8
0
  0
SOLID
  8
0
 62
    15
 10
5.359200
 20
6.024920
 11
5.360080
 21
6.778640
 12
5.375480
 22
5.995880
 13
5.376360
 23
6.749600
  0
POLYLINE
  8
0
  6
CONTINUOUS
 66
     1
 40
0.000000
 41
0.000000
  0
VERTEX
  8
0
  6
CONTINUOUS
 10
5.359200
 20
6.024920
  0
VERTEX
  8
0
  6
CONTINUOUS
 10
5.360080
 20
6.778640
  0
VERTEX
  8
0
  6
CONTINUOUS
 10
5.376360
 20
6.749600
  0
VERTEX
  8
0
  6
CONTINUOUS
 10
5.375480
 20
5.995880
  0
VERTEX
  8
0
  6
CONTINUOUS
 10
5.359200
 20
6.024920
  0
SEQEND
  8
0
  0
SOLID
  8
0
 62
    15
 10
5.375480
 20
5.995880
 11
5.376360
 21
6.749600
 12
5.391320
 22
5.969040
 13
5.392200
 23
6.722320
  0
POLYLINE
  8
0
  6
CONTINUOUS
 66
     1
 40
0.000000
 41
0.000000
  0
VERTEX
  8
0
  6
CONTINUOUS
 10
5.375480
 20
5.995880
  0
VERTEX
  8
0
  6
CONTINUOUS
 10
5.376360
 20
6.749600
  0
VERTEX
  8
0
  6
CONTINUOUS
 10
5.392200
 20
6.722320
  0
VERTEX
  8
0
  6
CONTINUOUS
 10
5.391320
 20
5.969040
  0
VERTEX
  8
0
  6
CONTINUOUS
 10
5.375480
 20
5.995880
  0
SEQEND
  8
0
  0
SOLID
  8
0
 62
    15
 10
5.391320
 20
5.969040
 11
5.392200
 21
6.722320
 12
5.426080
 22
5.915360
 13
5.426960
 23
6.668640
  0
POLYLINE
  8
0
  6
CONTINUOUS
 66
     1
 40
0.000000
 41
0.000000
  0
VERTEX
  8
0
  6
CONTINUOUS
 10
5.391320
 20
5.969040
  0
VERTEX
  8
0
  6
CONTINUOUS
 10
5.392200
 20
6.722320
  0
VERTEX
  8
0
  6
CONTINUOUS
 10
5.426960
 20
6.668640
  0
VERTEX
  8
0
  6
CONTINUOUS
 10
5.426080
 20
5.915360
  0
VERTEX
  8
0
  6
CONTINUOUS
 10
5.391320
 20
5.969040
  0
SEQEND
  8
0
  0
SOLID
  8
0
 62
    15
 10
5.426080
 20
5.915360
 11
5.426960
 21
6.668640
 12
5.467880
 22
5.859920
 13
5.468760
 23
6.613200
  0
POLYLINE
  8
0
  6
CONTINUOUS
 66
     1
 40
0.000000
 41
0.000000
  0
VERTEX
  8
0
  6
CONTINUOUS
 10
5.426080
 20
5.915360
  0
VERTEX
  8
0
  6
CONTINUOUS
 10
5.426960
 20
6.668640
  0
VERTEX
  8
0
  6
CONTINUOUS
 10
5.468760
 20
6.613200
  0
VERTEX
  8
0
  6
CONTINUOUS
 10
5.467880
 20
5.859920
  0
VERTEX
  8
0
  6
CONTINUOUS
 10
5.426080
 20
5.915360
  0
SEQEND
  8
0
  0
SOLID
  8
0
 62
    15
 10
5.467880
 20
5.859920
 11
5.468760
 21
6.613200
 12
5.517160
 22
5.805360
 13
5.518040
 23
6.559080
  0
POLYLINE
  8
0
  6
CONTINUOUS
 66
     1
 40
0.000000
 41
0.000000
  0
VERTEX
  8
0
  6
CONTINUOUS
 10
5.467880
 20
5.859920
  0
VERTEX
  8
0
  6
CONTINUOUS
 10
5.468760
 20
6.613200
  0
VERTEX
  8
0
  6
CONTINUOUS
 10
5.518040
 20
6.559080
  0
VERTEX
  8
0
  6
CONTINUOUS
 10
5.517160
 20
5.805360
  0
VERTEX
  8
0
  6
CONTINUOUS
 10
5.467880
 20
5.859920
  0
SEQEND
  8
0
  0
SOLID
  8
0
 62
    15
 10
5.517160
 20
5.805360
 11
5.518040
 21
6.559080
 12
5.574800
 22
5.754320
 13
5.575680
 23
6.508040
  0
POLYLINE
  8
0
  6
CONTINUOUS
 66
     1
 40
0.000000
 41
0.000000
  0
VERTEX
  8
0
  6
CONTINUOUS
 10
5.517160
 20
5.805360
  0
VERTEX
  8
0
  6
CONTINUOUS
 10
5.518040
 20
6.559080
  0
VERTEX
  8
0
  6
CONTINUOUS
 10
5.575680
 20
6.508040
  0
VERTEX
  8
0
  6
CONTINUOUS
 10
5.574800
 20
5.754320
  0
VERTEX
  8
0
  6
CONTINUOUS
 10
5.517160
 20
5.805360
  0
SEQEND
  8
0
  0
SOLID
  8
0
 62
    15
 10
5.574800
 20
5.754320
 11
5.575680
 21
6.508040
 12
5.641240
 22
5.710320
 13
5.642560
 23
6.463600
  0
POLYLINE
  8
0
  6
CONTINUOUS
 66
     1
 40
0.000000
 41
0.000000
  0
VERTEX
  8
0
  6
CONTINUOUS
 10
5.574800
 20
5.754320
  0
VERTEX
  8
0
  6
CONTINUOUS
 10
5.575680
 20
6.508040
  0
VERTEX
  8
0
  6
CONTINUOUS
 10
5.642560
 20
6.463600
  0
VERTEX
  8
0
  6
CONTINUOUS
 10
5.641240
 20
5.710320
  0
VERTEX
  8
0
  6
CONTINUOUS
 10
5.574800
 20
5.754320
  0
SEQEND
  8
0
  0
SOLID
  8
0
 62
    15
 10
5.641240
 20
5.710320
 11
5.642560
 21
6.463600
 12
5.717800
 22
5.675120
 13
5.718680
 23
6.428400
  0
POLYLINE
  8
0
  6
CONTINUOUS
 66
     1
 40
0.000000
 41
0.000000
  0
VERTEX
  8
0
  6
CONTINUOUS
 10
5.641240
 20
5.710320
  0
VERTEX
  8
0
  6
CONTINUOUS
 10
5.642560
 20
6.463600
  0
VERTEX
  8
0
  6
CONTINUOUS
 10
5.718680
 20
6.428400
  0
VERTEX
  8
0
  6
CONTINUOUS
 10
5.717800
 20
5.675120
  0
VERTEX
  8
0
  6
CONTINUOUS
 10
5.641240
 20
5.710320
  0
SEQEND
  8
0
  0
SOLID
  8
0
 62
    15
 10
4.213000
 20
6.350080
 11
4.213880
 21
7.103360
 12
4.711520
 22
6.350080
 13
4.712400
 23
7.103360
  0
POLYLINE
  8
0
  6
CONTINUOUS
 66
     1
 40
0.000000
 41
0.000000
  0
VERTEX
  8
0
  6
CONTINUOUS
 10
4.213000
 20
6.350080
  0
VERTEX
  8
0
  6
CONTINUOUS
 10
4.213880
 20
7.103360
  0
VERTEX
  8
0
  6
CONTINUOUS
 10
4.712400
 20
7.103360
  0
VERTEX
  8
0
  6
CONTINUOUS
 10
4.711520
 20
6.350080
  0
VERTEX
  8
0
  6
CONTINUOUS
 10
4.213000
 20
6.350080
  0
SEQEND
  8
0
  0
SOLID
  8
0
 62
    15
 10
5.804920
 20
5.651800
 11
5.806240
 21
6.405520
 12
5.903480
 22
5.643880
 13
5.904360
 23
6.397160
  0
POLYLINE
  8
0
  6
CONTINUOUS
 66
     1
 40
0.000000
 41
0.000000
  0
VERTEX
  8
0
  6
CONTINUOUS
 10
5.804920
 20
5.651800
  0
VERTEX
  8
0
  6
CONTINUOUS
 10
5.806240
 20
6.405520
  0
VERTEX
  8
0
  6
CONTINUOUS
 10
5.904360
 20
6.397160
  0
VERTEX
  8
0
  6
CONTINUOUS
 10
5.903480
 20
5.643880
  0
VERTEX
  8
0
  6
CONTINUOUS
 10
5.804920
 20
5.651800
  0
SEQEND
  8
0
  0
SOLID
  8
0
 62
    15
 10
5.903480
 20
5.643880
 11
5.904360
 21
6.397160
 12
5.939120
 22
5.721760
 13
5.940000
 23
6.475040
  0
POLYLINE
  8
0
  6
CONTINUOUS
 66
     1
 40
0.000000
 41
0.000000
  0
VERTEX
  8
0
  6
CONTINUOUS
 10
5.903480
 20
5.643880
  0
VERTEX
  8
0
  6
CONTINUOUS
 10
5.904360
 20
6.397160
  0
VERTEX
  8
0
  6
CONTINUOUS
 10
5.940000
 20
6.475040
  0
VERTEX
  8
0
  6
CONTINUOUS
 10
5.939120
 20
5.721760
  0
VERTEX
  8
0
  6
CONTINUOUS
 10
5.903480
 20
5.643880
  0
SEQEND
  8
0
  0
SOLID
  8
0
 62
    15
 10
5.939120
 20
5.721760
 11
5.940000
 21
6.475040
 12
5.981360
 22
5.786440
 13
5.982240
 23
6.540160
  0
POLYLINE
  8
0
  6
CONTINUOUS
 66
     1
 40
0.000000
 41
0.000000
  0
VERTEX
  8
0
  6
CONTINUOUS
 10
5.939120
 20
5.721760
  0
VERTEX
  8
0
  6
CONTINUOUS
 10
5.940000
 20
6.475040
  0
VERTEX
  8
0
  6
CONTINUOUS
 10
5.982240
 20
6.540160
  0
VERTEX
  8
0
  6
CONTINUOUS
 10
5.981360
 20
5.786440
  0
VERTEX
  8
0
  6
CONTINUOUS
 10
5.939120
 20
5.721760
  0
SEQEND
  8
0
  0
SOLID
  8
0
 62
    15
 10
5.981360
 20
5.786440
 11
5.982240
 21
6.540160
 12
6.029320
 22
5.838800
 13
6.030200
 23
6.592520
  0
POLYLINE
  8
0
  6
CONTINUOUS
 66
     1
 40
0.000000
 41
0.000000
  0
VERTEX
  8
0
  6
CONTINUOUS
 10
5.981360
 20
5.786440
  0
VERTEX
  8
0
  6
CONTINUOUS
 10
5.982240
 20
6.540160
  0
VERTEX
  8
0
  6
CONTINUOUS
 10
6.030200
 20
6.592520
  0
VERTEX
  8
0
  6
CONTINUOUS
 10
6.029320
 20
5.838800
  0
VERTEX
  8
0
  6
CONTINUOUS
 10
5.981360
 20
5.786440
  0
SEQEND
  8
0
  0
SOLID
  8
0
 62
    15
 10
6.029320
 20
5.838800
 11
6.030200
 21
6.592520
 12
6.081680
 22
5.878840
 13
6.082560
 23
6.632560
  0
POLYLINE
  8
0
  6
CONTINUOUS
 66
     1
 40
0.000000
 41
0.000000
  0
VERTEX
  8
0
  6
CONTINUOUS
 10
6.029320
 20
5.838800
  0
VERTEX
  8
0
  6
CONTINUOUS
 10
6.030200
 20
6.592520
  0
VERTEX
  8
0
  6
CONTINUOUS
 10
6.082560
 20
6.632560
  0
VERTEX
  8
0
  6
CONTINUOUS
 10
6.081680
 20
5.878840
  0
VERTEX
  8
0
  6
CONTINUOUS
 10
6.029320
 20
5.838800
  0
SEQEND
  8
0
  0
SOLID
  8
0
 62
    15
 10
6.081680
 20
5.878840
 11
6.082560
 21
6.632560
 12
6.137120
 22
5.906560
 13
6.138000
 23
6.660280
  0
POLYLINE
  8
0
  6
CONTINUOUS
 66
     1
 40
0.000000
 41
0.000000
  0
VERTEX
  8
0
  6
CONTINUOUS
 10
6.081680
 20
5.878840
  0
VERTEX
  8
0
  6
CONTINUOUS
 10
6.082560
 20
6.632560
  0
VERTEX
  8
0
  6
CONTINUOUS
 10
6.138000
 20
6.660280
  0
VERTEX
  8
0
  6
CONTINUOUS
 10
6.137120
 20
5.906560
  0
VERTEX
  8
0
  6
CONTINUOUS
 10
6.081680
 20
5.878840
  0
SEQEND
  8
0
  0
SOLID
  8
0
 62
    15
 10
6.137120
 20
5.906560
 11
6.138000
 21
6.660280
 12
6.194320
 22
5.922840
 13
6.195200
 23
6.676560
  0
POLYLINE
  8
0
  6
CONTINUOUS
 66
     1
 40
0.000000
 41
0.000000
  0
VERTEX
  8
0
  6
CONTINUOUS
 10
6.137120
 20
5.906560
  0
VERTEX
  8
0
  6
CONTINUOUS
 10
6.138000
 20
6.660280
  0
VERTEX
  8
0
  6
CONTINUOUS
 10
6.195200
 20
6.676560
  0
VERTEX
  8
0
  6
CONTINUOUS
 10
6.194320
 20
5.922840
  0
VERTEX
  8
0
  6
CONTINUOUS
 10
6.137120
 20
5.906560
  0
SEQEND
  8
0
  0
SOLID
  8
0
 62
    15
 10
6.194320
 20
5.922840
 11
6.195200
 21
6.676560
 12
6.252400
 22
5.927680
 13
6.253280
 23
6.681400
  0
POLYLINE
  8
0
  6
CONTINUOUS
 66
     1
 40
0.000000
 41
0.000000
  0
VERTEX
  8
0
  6
CONTINUOUS
 10
6.194320
 20
5.922840
  0
VERTEX
  8
0
  6
CONTINUOUS
 10
6.195200
 20
6.676560
  0
VERTEX
  8
0
  6
CONTINUOUS
 10
6.253280
 20
6.681400
  0
VERTEX
  8
0
  6
CONTINUOUS
 10
6.252400
 20
5.927680
  0
VERTEX
  8
0
  6
CONTINUOUS
 10
6.194320
 20
5.922840
  0
SEQEND
  8
0
  0
SOLID
  8
0
 62
    15
 10
6.252400
 20
5.927680
 11
6.253280
 21
6.681400
 12
6.309600
 22
5.921520
 13
6.310480
 23
6.675240
  0
POLYLINE
  8
0
  6
CONTINUOUS
 66
     1
 40
0.000000
 41
0.000000
  0
VERTEX
  8
0
  6
CONTINUOUS
 10
6.252400
 20
5.927680
  0
VERTEX
  8
0
  6
CONTINUOUS
 10
6.253280
 20
6.681400
  0
VERTEX
  8
0
  6
CONTINUOUS
 10
6.310480
 20
6.675240
  0
VERTEX
  8
0
  6
CONTINUOUS
 10
6.309600
 20
5.921520
  0
VERTEX
  8
0
  6
CONTINUOUS
 10
6.252400
 20
5.927680
  0
SEQEND
  8
0
  0
SOLID
  8
0
 62
    15
 10
6.309600
 20
5.921520
 11
6.310480
 21
6.675240
 12
6.364600
 22
5.904360
 13
6.365920
 23
6.658080
  0
POLYLINE
  8
0
  6
CONTINUOUS
 66
     1
 40
0.000000
 41
0.000000
  0
VERTEX
  8
0
  6
CONTINUOUS
 10
6.309600
 20
5.921520
  0
VERTEX
  8
0
  6
CONTINUOUS
 10
6.310480
 20
6.675240
  0
VERTEX
  8
0
  6
CONTINUOUS
 10
6.365920
 20
6.658080
  0
VERTEX
  8
0
  6
CONTINUOUS
 10
6.364600
 20
5.904360
  0
VERTEX
  8
0
  6
CONTINUOUS
 10
6.309600
 20
5.921520
  0
SEQEND
  8
0
  0
SOLID
  8
0
 62
    15
 10
6.364600
 20
5.904360
 11
6.365920
 21
6.658080
 12
6.416960
 22
5.877080
 13
6.417840
 23
6.630360
  0
POLYLINE
  8
0
  6
CONTINUOUS
 66
     1
 40
0.000000
 41
0.000000
  0
VERTEX
  8
0
  6
CONTINUOUS
 10
6.364600
 20
5.904360
  0
VERTEX
  8
0
  6
CONTINUOUS
 10
6.365920
 20
6.658080
  0
VERTEX
  8
0
  6
CONTINUOUS
 10
6.417840
 20
6.630360
  0
VERTEX
  8
0
  6
CONTINUOUS
 10
6.416960
 20
5.877080
  0
VERTEX
  8
0
  6
CONTINUOUS
 10
6.364600
 20
5.904360
  0
SEQEND
  8
0
  0
SOLID
  8
0
 62
    15
 10
6.416960
 20
5.877080
 11
6.417840
 21
6.630360
 12
6.464480
 22
5.839240
 13
6.465360
 23
6.592960
  0
POLYLINE
  8
0
  6
CONTINUOUS
 66
     1
 40
0.000000
 41
0.000000
  0
VERTEX
  8
0
  6
CONTINUOUS
 10
6.416960
 20
5.877080
  0
VERTEX
  8
0
  6
CONTINUOUS
 10
6.417840
 20
6.630360
  0
VERTEX
  8
0
  6
CONTINUOUS
 10
6.465360
 20
6.592960
  0
VERTEX
  8
0
  6
CONTINUOUS
 10
6.464480
 20
5.839240
  0
VERTEX
  8
0
  6
CONTINUOUS
 10
6.416960
 20
5.877080
  0
SEQEND
  8
0
  0
SOLID
  8
0
 62
    15
 10
6.464480
 20
5.839240
 11
6.465360
 21
6.592960
 12
6.505840
 22
5.792160
 13
6.507160
 23
6.545880
  0
POLYLINE
  8
0
  6
CONTINUOUS
 66
     1
 40
0.000000
 41
0.000000
  0
VERTEX
  8
0
  6
CONTINUOUS
 10
6.464480
 20
5.839240
  0
VERTEX
  8
0
  6
CONTINUOUS
 10
6.465360
 20
6.592960
  0
VERTEX
  8
0
  6
CONTINUOUS
 10
6.507160
 20
6.545880
  0
VERTEX
  8
0
  6
CONTINUOUS
 10
6.505840
 20
5.792160
  0
VERTEX
  8
0
  6
CONTINUOUS
 10
6.464480
 20
5.839240
  0
SEQEND
  8
0
  0
SOLID
  8
0
 62
    15
 10
6.505840
 20
5.792160
 11
6.507160
 21
6.545880
 12
6.540600
 22
5.735400
 13
6.541480
 23
6.488680
  0
POLYLINE
  8
0
  6
CONTINUOUS
 66
     1
 40
0.000000
 41
0.000000
  0
VERTEX
  8
0
  6
CONTINUOUS
 10
6.505840
 20
5.792160
  0
VERTEX
  8
0
  6
CONTINUOUS
 10
6.507160
 20
6.545880
  0
VERTEX
  8
0
  6
CONTINUOUS
 10
6.541480
 20
6.488680
  0
VERTEX
  8
0
  6
CONTINUOUS
 10
6.540600
 20
5.735400
  0
VERTEX
  8
0
  6
CONTINUOUS
 10
6.505840
 20
5.792160
  0
SEQEND
  8
0
  0
SOLID
  8
0
 62
    15
 10
6.540600
 20
5.735400
 11
6.541480
 21
6.488680
 12
6.567000
 22
5.669400
 13
6.567880
 23
6.423120
  0
POLYLINE
  8
0
  6
CONTINUOUS
 66
     1
 40
0.000000
 41
0.000000
  0
VERTEX
  8
0
  6
CONTINUOUS
 10
6.540600
 20
5.735400
  0
VERTEX
  8
0
  6
CONTINUOUS
 10
6.541480
 20
6.488680
  0
VERTEX
  8
0
  6
CONTINUOUS
 10
6.567880
 20
6.423120
  0
VERTEX
  8
0
  6
CONTINUOUS
 10
6.567000
 20
5.669400
  0
VERTEX
  8
0
  6
CONTINUOUS
 10
6.540600
 20
5.735400
  0
SEQEND
  8
0
  0
SOLID
  8
0
 62
    15
 10
6.583720
 20
5.594600
 11
6.584600
 21
6.348320
 12
6.589440
 22
5.511440
 13
6.590760
 23
6.264720
  0
POLYLINE
  8
0
  6
CONTINUOUS
 66
     1
 40
0.000000
 41
0.000000
  0
VERTEX
  8
0
  6
CONTINUOUS
 10
6.583720
 20
5.594600
  0
VERTEX
  8
0
  6
CONTINUOUS
 10
6.584600
 20
6.348320
  0
VERTEX
  8
0
  6
CONTINUOUS
 10
6.590760
 20
6.264720
  0
VERTEX
  8
0
  6
CONTINUOUS
 10
6.589440
 20
5.511440
  0
VERTEX
  8
0
  6
CONTINUOUS
 10
6.583720
 20
5.594600
  0
SEQEND
  8
0
  0
SOLID
  8
0
 62
    15
 10
6.567000
 20
5.669400
 11
6.567880
 21
6.423120
 12
6.583720
 22
5.594600
 13
6.584600
 23
6.348320
  0
POLYLINE
  8
0
  6
CONTINUOUS
 66
     1
 40
0.000000
 41
0.000000
  0
VERTEX
  8
0
  6
CONTINUOUS
 10
6.567000
 20
5.669400
  0
VERTEX
  8
0
  6
CONTINUOUS
 10
6.567880
 20
6.423120
  0
VERTEX
  8
0
  6
CONTINUOUS
 10
6.584600
 20
6.348320
  0
VERTEX
  8
0
  6
CONTINUOUS
 10
6.583720
 20
5.594600
  0
VERTEX
  8
0
  6
CONTINUOUS
 10
6.567000
 20
5.669400
  0
SEQEND
  8
0
  0
SOLID
  8
0
 62
    15
 10
6.783920
 20
5.443680
 11
6.784800
 21
6.196960
 12
6.783920
 22
5.138320
 13
6.784800
 23
5.891600
  0
POLYLINE
  8
0
  6
CONTINUOUS
 66
     1
 40
0.000000
 41
0.000000
  0
VERTEX
  8
0
  6
CONTINUOUS
 10
6.783920
 20
5.443680
  0
VERTEX
  8
0
  6
CONTINUOUS
 10
6.784800
 20
6.196960
  0
VERTEX
  8
0
  6
CONTINUOUS
 10
6.784800
 20
5.891600
  0
VERTEX
  8
0
  6
CONTINUOUS
 10
6.783920
 20
5.138320
  0
VERTEX
  8
0
  6
CONTINUOUS
 10
6.783920
 20
5.443680
  0
SEQEND
  8
0
  0
SOLID
  8
0
 62
    15
 10
6.594280
 20
5.443680
 11
6.595160
 21
6.196960
 12
6.783920
 22
5.443680
 13
6.784800
 23
6.196960
  0
POLYLINE
  8
0
  6
CONTINUOUS
 66
     1
 40
0.000000
 41
0.000000
  0
VERTEX
  8
0
  6
CONTINUOUS
 10
6.594280
 20
5.443680
  0
VERTEX
  8
0
  6
CONTINUOUS
 10
6.595160
 20
6.196960
  0
VERTEX
  8
0
  6
CONTINUOUS
 10
6.784800
 20
6.196960
  0
VERTEX
  8
0
  6
CONTINUOUS
 10
6.783920
 20
5.443680
  0
VERTEX
  8
0
  6
CONTINUOUS
 10
6.594280
 20
5.443680
  0
SEQEND
  8
0
  0
SOLID
  8
0
 62
    15
 10
6.589440
 20
5.511440
 11
6.590760
 21
6.264720
 12
6.594280
 22
5.443680
 13
6.595160
 23
6.196960
  0
POLYLINE
  8
0
  6
CONTINUOUS
 66
     1
 40
0.000000
 41
0.000000
  0
VERTEX
  8
0
  6
CONTINUOUS
 10
6.589440
 20
5.511440
  0
VERTEX
  8
0
  6
CONTINUOUS
 10
6.590760
 20
6.264720
  0
VERTEX
  8
0
  6
CONTINUOUS
 10
6.595160
 20
6.196960
  0
VERTEX
  8
0
  6
CONTINUOUS
 10
6.594280
 20
5.443680
  0
VERTEX
  8
0
  6
CONTINUOUS
 10
6.589440
 20
5.511440
  0
SEQEND
  8
0
  0
POLYLINE
  8
0
  6
CONTINUOUS
 66
     1
 40
0.000000
 41
0.000000
  0
VERTEX
  8
0
  6
CONTINUOUS
 10
4.213000
 20
5.209600
  0
VERTEX
  8
0
  6
CONTINUOUS
 10
4.213000
 20
6.350080
  0
VERTEX
  8
0
  6
CONTINUOUS
 10
4.711520
 20
6.350080
  0
VERTEX
  8
0
  6
CONTINUOUS
 10
4.804800
 20
6.347000
  0
VERTEX
  8
0
  6
CONTINUOUS
 10
4.887960
 20
6.339080
  0
VERTEX
  8
0
  6
CONTINUOUS
 10
4.962320
 20
6.326760
  0
VERTEX
  8
0
  6
CONTINUOUS
 10
5.027440
 20
6.310040
  0
VERTEX
  8
0
  6
CONTINUOUS
 10
5.085080
 20
6.289360
  0
VERTEX
  8
0
  6
CONTINUOUS
 10
5.135240
 20
6.266040
  0
VERTEX
  8
0
  6
CONTINUOUS
 10
5.178800
 20
6.239640
  0
VERTEX
  8
0
  6
CONTINUOUS
 10
5.216640
 20
6.211480
  0
VERTEX
  8
0
  6
CONTINUOUS
 10
5.277360
 20
6.150320
  0
VERTEX
  8
0
  6
CONTINUOUS
 10
5.323120
 20
6.086520
  0
VERTEX
  8
0
  6
CONTINUOUS
 10
5.359200
 20
6.024920
  0
VERTEX
  8
0
  6
CONTINUOUS
 10
5.375480
 20
5.995880
  0
VERTEX
  8
0
  6
CONTINUOUS
 10
5.391320
 20
5.969040
  0
VERTEX
  8
0
  6
CONTINUOUS
 10
5.426080
 20
5.915360
  0
VERTEX
  8
0
  6
CONTINUOUS
 10
5.467880
 20
5.859920
  0
VERTEX
  8
0
  6
CONTINUOUS
 10
5.517160
 20
5.805360
  0
VERTEX
  8
0
  6
CONTINUOUS
 10
5.574800
 20
5.754320
  0
VERTEX
  8
0
  6
CONTINUOUS
 10
5.641240
 20
5.710320
  0
VERTEX
  8
0
  6
CONTINUOUS
 10
5.717800
 20
5.675120
  0
VERTEX
  8
0
  6
CONTINUOUS
 10
5.804920
 20
5.651800
  0
VERTEX
  8
0
  6
CONTINUOUS
 10
5.903480
 20
5.643880
  0
VERTEX
  8
0
  6
CONTINUOUS
 10
5.939120
 20
5.721760
  0
VERTEX
  8
0
  6
CONTINUOUS
 10
5.981360
 20
5.786440
  0
VERTEX
  8
0
  6
CONTINUOUS
 10
6.029320
 20
5.838800
  0
VERTEX
  8
0
  6
CONTINUOUS
 10
6.081680
 20
5.878840
  0
VERTEX
  8
0
  6
CONTINUOUS
 10
6.137120
 20
5.906560
  0
VERTEX
  8
0
  6
CONTINUOUS
 10
6.194320
 20
5.922840
  0
VERTEX
  8
0
  6
CONTINUOUS
 10
6.252400
 20
5.927680
  0
VERTEX
  8
0
  6
CONTINUOUS
 10
6.309600
 20
5.921520
  0
VERTEX
  8
0
  6
CONTINUOUS
 10
6.364600
 20
5.904360
  0
VERTEX
  8
0
  6
CONTINUOUS
 10
6.416960
 20
5.877080
  0
VERTEX
  8
0
  6
CONTINUOUS
 10
6.464480
 20
5.839240
  0
VERTEX
  8
0
  6
CONTINUOUS
 10
6.505840
 20
5.792160
  0
VERTEX
  8
0
  6
CONTINUOUS
 10
6.540600
 20
5.735400
  0
VERTEX
  8
0
  6
CONTINUOUS
 10
6.567000
 20
5.669400
  0
VERTEX
  8
0
  6
CONTINUOUS
 10
6.583720
 20
5.594600
  0
VERTEX
  8
0
  6
CONTINUOUS
 10
6.589440
 20
5.511440
  0
VERTEX
  8
0
  6
CONTINUOUS
 10
6.594280
 20
5.443680
  0
VERTEX
  8
0
  6
CONTINUOUS
 10
6.783920
 20
5.443680
  0
VERTEX
  8
0
  6
CONTINUOUS
 10
6.783920
 20
5.138320
  0
VERTEX
  8
0
  6
CONTINUOUS
 10
4.213000
 20
5.138320
  0
VERTEX
  8
0
  6
CONTINUOUS
 10
4.213000
 20
5.209600
  0
SEQEND
  8
0
  0
SOLID
  8
0
 62
    15
 10
4.362160
 20
6.620240
 11
4.351160
 21
7.339200
 12
4.413640
 22
6.576680
 13
4.402640
 23
7.295640
  0
POLYLINE
  8
0
  6
CONTINUOUS
 66
     1
 40
0.000000
 41
0.000000
  0
VERTEX
  8
0
  6
CONTINUOUS
 10
4.362160
 20
6.620240
  0
VERTEX
  8
0
  6
CONTINUOUS
 10
4.351160
 20
7.339200
  0
VERTEX
  8
0
  6
CONTINUOUS
 10
4.402640
 20
7.295640
  0
VERTEX
  8
0
  6
CONTINUOUS
 10
4.413640
 20
6.576680
  0
VERTEX
  8
0
  6
CONTINUOUS
 10
4.362160
 20
6.620240
  0
SEQEND
  8
0
  0
SOLID
  8
0
 62
    15
 10
3.324200
 20
5.138320
 11
3.313640
 21
5.857280
 12
3.324200
 22
6.866640
 13
3.313640
 23
7.585600
  0
POLYLINE
  8
0
  6
CONTINUOUS
 66
     1
 40
0.000000
 41
0.000000
  0
VERTEX
  8
0
  6
CONTINUOUS
 10
3.324200
 20
5.138320
  0
VERTEX
  8
0
  6
CONTINUOUS
 10
3.313640
 20
5.857280
  0
VERTEX
  8
0
  6
CONTINUOUS
 10
3.313640
 20
7.585600
  0
VERTEX
  8
0
  6
CONTINUOUS
 10
3.324200
 20
6.866640
  0
VERTEX
  8
0
  6
CONTINUOUS
 10
3.324200
 20
5.138320
  0
SEQEND
  8
0
  0
SOLID
  8
0
 62
    15
 10
4.256120
 20
6.866640
 11
4.245120
 21
7.585600
 12
4.283840
 22
6.762360
 13
4.272840
 23
7.481320
  0
POLYLINE
  8
0
  6
CONTINUOUS
 66
     1
 40
0.000000
 41
0.000000
  0
VERTEX
  8
0
  6
CONTINUOUS
 10
4.256120
 20
6.866640
  0
VERTEX
  8
0
  6
CONTINUOUS
 10
4.245120
 20
7.585600
  0
VERTEX
  8
0
  6
CONTINUOUS
 10
4.272840
 20
7.481320
  0
VERTEX
  8
0
  6
CONTINUOUS
 10
4.283840
 20
6.762360
  0
VERTEX
  8
0
  6
CONTINUOUS
 10
4.256120
 20
6.866640
  0
SEQEND
  8
0
  0
SOLID
  8
0
 62
    15
 10
4.283840
 20
6.762360
 11
4.272840
 21
7.481320
 12
4.319040
 22
6.681400
 13
4.308040
 23
7.400360
  0
POLYLINE
  8
0
  6
CONTINUOUS
 66
     1
 40
0.000000
 41
0.000000
  0
VERTEX
  8
0
  6
CONTINUOUS
 10
4.283840
 20
6.762360
  0
VERTEX
  8
0
  6
CONTINUOUS
 10
4.272840
 20
7.481320
  0
VERTEX
  8
0
  6
CONTINUOUS
 10
4.308040
 20
7.400360
  0
VERTEX
  8
0
  6
CONTINUOUS
 10
4.319040
 20
6.681400
  0
VERTEX
  8
0
  6
CONTINUOUS
 10
4.283840
 20
6.762360
  0
SEQEND
  8
0
  0
SOLID
  8
0
 62
    15
 10
4.319040
 20
6.681400
 11
4.308040
 21
7.400360
 12
4.362160
 22
6.620240
 13
4.351160
 23
7.339200
  0
POLYLINE
  8
0
  6
CONTINUOUS
 66
     1
 40
0.000000
 41
0.000000
  0
VERTEX
  8
0
  6
CONTINUOUS
 10
4.319040
 20
6.681400
  0
VERTEX
  8
0
  6
CONTINUOUS
 10
4.308040
 20
7.400360
  0
VERTEX
  8
0
  6
CONTINUOUS
 10
4.351160
 20
7.339200
  0
VERTEX
  8
0
  6
CONTINUOUS
 10
4.362160
 20
6.620240
  0
VERTEX
  8
0
  6
CONTINUOUS
 10
4.319040
 20
6.681400
  0
SEQEND
  8
0
  0
SOLID
  8
0
 62
    15
 10
3.324200
 20
6.866640
 11
3.313640
 21
7.585600
 12
4.256120
 22
6.866640
 13
4.245120
 23
7.585600
  0
POLYLINE
  8
0
  6
CONTINUOUS
 66
     1
 40
0.000000
 41
0.000000
  0
VERTEX
  8
0
  6
CONTINUOUS
 10
3.324200
 20
6.866640
  0
VERTEX
  8
0
  6
CONTINUOUS
 10
3.313640
 20
7.585600
  0
VERTEX
  8
0
  6
CONTINUOUS
 10
4.245120
 20
7.585600
  0
VERTEX
  8
0
  6
CONTINUOUS
 10
4.256120
 20
6.866640
  0
VERTEX
  8
0
  6
CONTINUOUS
 10
3.324200
 20
6.866640
  0
SEQEND
  8
0
  0
SOLID
  8
0
 62
    15
 10
4.413640
 20
6.576680
 11
4.402640
 21
7.295640
 12
4.473480
 22
6.547640
 13
4.462480
 23
7.266600
  0
POLYLINE
  8
0
  6
CONTINUOUS
 66
     1
 40
0.000000
 41
0.000000
  0
VERTEX
  8
0
  6
CONTINUOUS
 10
4.413640
 20
6.576680
  0
VERTEX
  8
0
  6
CONTINUOUS
 10
4.402640
 20
7.295640
  0
VERTEX
  8
0
  6
CONTINUOUS
 10
4.462480
 20
7.266600
  0
VERTEX
  8
0
  6
CONTINUOUS
 10
4.473480
 20
6.547640
  0
VERTEX
  8
0
  6
CONTINUOUS
 10
4.413640
 20
6.576680
  0
SEQEND
  8
0
  0
SOLID
  8
0
 62
    15
 10
4.473480
 20
6.547640
 11
4.462480
 21
7.266600
 12
4.542120
 22
6.530040
 13
4.531120
 23
7.249000
  0
POLYLINE
  8
0
  6
CONTINUOUS
 66
     1
 40
0.000000
 41
0.000000
  0
VERTEX
  8
0
  6
CONTINUOUS
 10
4.473480
 20
6.547640
  0
VERTEX
  8
0
  6
CONTINUOUS
 10
4.462480
 20
7.266600
  0
VERTEX
  8
0
  6
CONTINUOUS
 10
4.531120
 20
7.249000
  0
VERTEX
  8
0
  6
CONTINUOUS
 10
4.542120
 20
6.530040
  0
VERTEX
  8
0
  6
CONTINUOUS
 10
4.473480
 20
6.547640
  0
SEQEND
  8
0
  0
SOLID
  8
0
 62
    15
 10
4.542120
 20
6.530040
 11
4.531120
 21
7.249000
 12
4.620000
 22
6.521240
 13
4.609440
 23
7.240200
  0
POLYLINE
  8
0
  6
CONTINUOUS
 66
     1
 40
0.000000
 41
0.000000
  0
VERTEX
  8
0
  6
CONTINUOUS
 10
4.542120
 20
6.530040
  0
VERTEX
  8
0
  6
CONTINUOUS
 10
4.531120
 20
7.249000
  0
VERTEX
  8
0
  6
CONTINUOUS
 10
4.609440
 20
7.240200
  0
VERTEX
  8
0
  6
CONTINUOUS
 10
4.620000
 20
6.521240
  0
VERTEX
  8
0
  6
CONTINUOUS
 10
4.542120
 20
6.530040
  0
SEQEND
  8
0
  0
SOLID
  8
0
 62
    15
 10
4.620000
 20
6.521240
 11
4.609440
 21
7.240200
 12
4.707560
 22
6.518160
 13
4.697000
 23
7.237560
  0
POLYLINE
  8
0
  6
CONTINUOUS
 66
     1
 40
0.000000
 41
0.000000
  0
VERTEX
  8
0
  6
CONTINUOUS
 10
4.620000
 20
6.521240
  0
VERTEX
  8
0
  6
CONTINUOUS
 10
4.609440
 20
7.240200
  0
VERTEX
  8
0
  6
CONTINUOUS
 10
4.697000
 20
7.237560
  0
VERTEX
  8
0
  6
CONTINUOUS
 10
4.707560
 20
6.518160
  0
VERTEX
  8
0
  6
CONTINUOUS
 10
4.620000
 20
6.521240
  0
SEQEND
  8
0
  0
POLYLINE
  8
0
  6
CONTINUOUS
 66
     1
 40
0.000000
 41
0.000000
  0
VERTEX
  8
0
  6
CONTINUOUS
 10
3.324200
 20
5.138320
  0
VERTEX
  8
0
  6
CONTINUOUS
 10
3.324200
 20
6.866640
  0
VERTEX
  8
0
  6
CONTINUOUS
 10
4.256120
 20
6.866640
  0
VERTEX
  8
0
  6
CONTINUOUS
 10
4.283840
 20
6.762360
  0
VERTEX
  8
0
  6
CONTINUOUS
 10
4.319040
 20
6.681400
  0
VERTEX
  8
0
  6
CONTINUOUS
 10
4.362160
 20
6.620240
  0
VERTEX
  8
0
  6
CONTINUOUS
 10
4.413640
 20
6.576680
  0
VERTEX
  8
0
  6
CONTINUOUS
 10
4.473480
 20
6.547640
  0
VERTEX
  8
0
  6
CONTINUOUS
 10
4.542120
 20
6.530040
  0
VERTEX
  8
0
  6
CONTINUOUS
 10
4.620000
 20
6.521240
  0
VERTEX
  8
0
  6
CONTINUOUS
 10
4.707560
 20
6.518160
  0
VERTEX
  8
0
  6
CONTINUOUS
 10
4.707560
 20
6.350520
  0
VERTEX
  8
0
  6
CONTINUOUS
 10
4.214760
 20
6.350520
  0
VERTEX
  8
0
  6
CONTINUOUS
 10
4.214760
 20
5.138320
  0
VERTEX
  8
0
  6
CONTINUOUS
 10
3.324200
 20
5.138320
  0
SEQEND
  8
0
  0
TEXT
  8
0
 10
3.904560
 20
4.815800
 40
0.138191
  1
BA  1230 1-3/8" x 1-3/4"
 41
1.000000
  7
SN0
 71
     0
 72
     5
 11
5.676616
 21
4.815800
  0
TEXT
  8
0
 10
3.904560
 20
4.623960
 40
0.138191
  1
BA  1231 1-3/16" x 2-9/16"
 41
1.000000
  7
SN0
 71
     0
 72
     5
 11
5.860816
 21
4.623960
  0
SOLID
  8
0
 62
    15
 10
3.406920
 20
3.283720
 11
3.396360
 21
4.003120
 12
3.458400
 22
3.240160
 13
3.447400
 23
3.959120
  0
POLYLINE
  8
0
  6
CONTINUOUS
 66
     1
 40
0.000000
 41
0.000000
  0
VERTEX
  8
0
  6
CONTINUOUS
 10
3.406920
 20
3.283720
  0
VERTEX
  8
0
  6
CONTINUOUS
 10
3.396360
 20
4.003120
  0
VERTEX
  8
0
  6
CONTINUOUS
 10
3.447400
 20
3.959120
  0
VERTEX
  8
0
  6
CONTINUOUS
 10
3.458400
 20
3.240160
  0
VERTEX
  8
0
  6
CONTINUOUS
 10
3.406920
 20
3.283720
  0
SEQEND
  8
0
  0
SOLID
  8
0
 62
    15
 10
2.369400
 20
1.801800
 11
2.358400
 21
2.520760
 12
2.369400
 22
3.530120
 13
2.358400
 23
4.249080
  0
POLYLINE
  8
0
  6
CONTINUOUS
 66
     1
 40
0.000000
 41
0.000000
  0
VERTEX
  8
0
  6
CONTINUOUS
 10
2.369400
 20
1.801800
  0
VERTEX
  8
0
  6
CONTINUOUS
 10
2.358400
 20
2.520760
  0
VERTEX
  8
0
  6
CONTINUOUS
 10
2.358400
 20
4.249080
  0
VERTEX
  8
0
  6
CONTINUOUS
 10
2.369400
 20
3.530120
  0
VERTEX
  8
0
  6
CONTINUOUS
 10
2.369400
 20
1.801800
  0
SEQEND
  8
0
  0
SOLID
  8
0
 62
    15
 10
3.300880
 20
3.530120
 11
3.290320
 21
4.249080
 12
3.328600
 22
3.425840
 13
3.318040
 23
4.144800
  0
POLYLINE
  8
0
  6
CONTINUOUS
 66
     1
 40
0.000000
 41
0.000000
  0
VERTEX
  8
0
  6
CONTINUOUS
 10
3.300880
 20
3.530120
  0
VERTEX
  8
0
  6
CONTINUOUS
 10
3.290320
 20
4.249080
  0
VERTEX
  8
0
  6
CONTINUOUS
 10
3.318040
 20
4.144800
  0
VERTEX
  8
0
  6
CONTINUOUS
 10
3.328600
 20
3.425840
  0
VERTEX
  8
0
  6
CONTINUOUS
 10
3.300880
 20
3.530120
  0
SEQEND
  8
0
  0
SOLID
  8
0
 62
    15
 10
3.328600
 20
3.425840
 11
3.318040
 21
4.144800
 12
3.363800
 22
3.344880
 13
3.353240
 23
4.063840
  0
POLYLINE
  8
0
  6
CONTINUOUS
 66
     1
 40
0.000000
 41
0.000000
  0
VERTEX
  8
0
  6
CONTINUOUS
 10
3.328600
 20
3.425840
  0
VERTEX
  8
0
  6
CONTINUOUS
 10
3.318040
 20
4.144800
  0
VERTEX
  8
0
  6
CONTINUOUS
 10
3.353240
 20
4.063840
  0
VERTEX
  8
0
  6
CONTINUOUS
 10
3.363800
 20
3.344880
  0
VERTEX
  8
0
  6
CONTINUOUS
 10
3.328600
 20
3.425840
  0
SEQEND
  8
0
  0
SOLID
  8
0
 62
    15
 10
3.363800
 20
3.344880
 11
3.353240
 21
4.063840
 12
3.406920
 22
3.283720
 13
3.396360
 23
4.003120
  0
POLYLINE
  8
0
  6
CONTINUOUS
 66
     1
 40
0.000000
 41
0.000000
  0
VERTEX
  8
0
  6
CONTINUOUS
 10
3.363800
 20
3.344880
  0
VERTEX
  8
0
  6
CONTINUOUS
 10
3.353240
 20
4.063840
  0
VERTEX
  8
0
  6
CONTINUOUS
 10
3.396360
 20
4.003120
  0
VERTEX
  8
0
  6
CONTINUOUS
 10
3.406920
 20
3.283720
  0
VERTEX
  8
0
  6
CONTINUOUS
 10
3.363800
 20
3.344880
  0
SEQEND
  8
0
  0
SOLID
  8
0
 62
    15
 10
2.369400
 20
3.530120
 11
2.358400
 21
4.249080
 12
3.300880
 22
3.530120
 13
3.290320
 23
4.249080
  0
POLYLINE
  8
0
  6
CONTINUOUS
 66
     1
 40
0.000000
 41
0.000000
  0
VERTEX
  8
0
  6
CONTINUOUS
 10
2.369400
 20
3.530120
  0
VERTEX
  8
0
  6
CONTINUOUS
 10
2.358400
 20
4.249080
  0
VERTEX
  8
0
  6
CONTINUOUS
 10
3.290320
 20
4.249080
  0
VERTEX
  8
0
  6
CONTINUOUS
 10
3.300880
 20
3.530120
  0
VERTEX
  8
0
  6
CONTINUOUS
 10
2.369400
 20
3.530120
  0
SEQEND
  8
0
  0
SOLID
  8
0
 62
    15
 10
3.458400
 20
3.240160
 11
3.447400
 21
3.959120
 12
3.518240
 22
3.211120
 13
3.507240
 23
3.930080
  0
POLYLINE
  8
0
  6
CONTINUOUS
 66
     1
 40
0.000000
 41
0.000000
  0
VERTEX
  8
0
  6
CONTINUOUS
 10
3.458400
 20
3.240160
  0
VERTEX
  8
0
  6
CONTINUOUS
 10
3.447400
 20
3.959120
  0
VERTEX
  8
0
  6
CONTINUOUS
 10
3.507240
 20
3.930080
  0
VERTEX
  8
0
  6
CONTINUOUS
 10
3.518240
 20
3.211120
  0
VERTEX
  8
0
  6
CONTINUOUS
 10
3.458400
 20
3.240160
  0
SEQEND
  8
0
  0
SOLID
  8
0
 62
    15
 10
3.518240
 20
3.211120
 11
3.507240
 21
3.930080
 12
3.586880
 22
3.193520
 13
3.576320
 23
3.912480
  0
POLYLINE
  8
0
  6
CONTINUOUS
 66
     1
 40
0.000000
 41
0.000000
  0
VERTEX
  8
0
  6
CONTINUOUS
 10
3.518240
 20
3.211120
  0
VERTEX
  8
0
  6
CONTINUOUS
 10
3.507240
 20
3.930080
  0
VERTEX
  8
0
  6
CONTINUOUS
 10
3.576320
 20
3.912480
  0
VERTEX
  8
0
  6
CONTINUOUS
 10
3.586880
 20
3.193520
  0
VERTEX
  8
0
  6
CONTINUOUS
 10
3.518240
 20
3.211120
  0
SEQEND
  8
0
  0
SOLID
  8
0
 62
    15
 10
3.586880
 20
3.193520
 11
3.576320
 21
3.912480
 12
3.665200
 22
3.184720
 13
3.654200
 23
3.903680
  0
POLYLINE
  8
0
  6
CONTINUOUS
 66
     1
 40
0.000000
 41
0.000000
  0
VERTEX
  8
0
  6
CONTINUOUS
 10
3.586880
 20
3.193520
  0
VERTEX
  8
0
  6
CONTINUOUS
 10
3.576320
 20
3.912480
  0
VERTEX
  8
0
  6
CONTINUOUS
 10
3.654200
 20
3.903680
  0
VERTEX
  8
0
  6
CONTINUOUS
 10
3.665200
 20
3.184720
  0
VERTEX
  8
0
  6
CONTINUOUS
 10
3.586880
 20
3.193520
  0
SEQEND
  8
0
  0
SOLID
  8
0
 62
    15
 10
3.665200
 20
3.184720
 11
3.654200
 21
3.903680
 12
3.752760
 22
3.182080
 13
3.741760
 23
3.901040
  0
POLYLINE
  8
0
  6
CONTINUOUS
 66
     1
 40
0.000000
 41
0.000000
  0
VERTEX
  8
0
  6
CONTINUOUS
 10
3.665200
 20
3.184720
  0
VERTEX
  8
0
  6
CONTINUOUS
 10
3.654200
 20
3.903680
  0
VERTEX
  8
0
  6
CONTINUOUS
 10
3.741760
 20
3.901040
  0
VERTEX
  8
0
  6
CONTINUOUS
 10
3.752760
 20
3.182080
  0
VERTEX
  8
0
  6
CONTINUOUS
 10
3.665200
 20
3.184720
  0
SEQEND
  8
0
  0
POLYLINE
  8
0
  6
CONTINUOUS
 66
     1
 40
0.000000
 41
0.000000
  0
VERTEX
  8
0
  6
CONTINUOUS
 10
2.369400
 20
1.801800
  0
VERTEX
  8
0
  6
CONTINUOUS
 10
2.369400
 20
3.530120
  0
VERTEX
  8
0
  6
CONTINUOUS
 10
3.300880
 20
3.530120
  0
VERTEX
  8
0
  6
CONTINUOUS
 10
3.328600
 20
3.425840
  0
VERTEX
  8
0
  6
CONTINUOUS
 10
3.363800
 20
3.344880
  0
VERTEX
  8
0
  6
CONTINUOUS
 10
3.406920
 20
3.283720
  0
VERTEX
  8
0
  6
CONTINUOUS
 10
3.458400
 20
3.240160
  0
VERTEX
  8
0
  6
CONTINUOUS
 10
3.518240
 20
3.211120
  0
VERTEX
  8
0
  6
CONTINUOUS
 10
3.586880
 20
3.193520
  0
VERTEX
  8
0
  6
CONTINUOUS
 10
3.665200
 20
3.184720
  0
VERTEX
  8
0
  6
CONTINUOUS
 10
3.752760
 20
3.182080
  0
VERTEX
  8
0
  6
CONTINUOUS
 10
3.752760
 20
3.014000
  0
VERTEX
  8
0
  6
CONTINUOUS
 10
3.259960
 20
3.014000
  0
VERTEX
  8
0
  6
CONTINUOUS
 10
3.259960
 20
1.801800
  0
VERTEX
  8
0
  6
CONTINUOUS
 10
2.369400
 20
1.801800
  0
SEQEND
  8
0
  0
TEXT
  8
0
 10
2.713920
 20
1.516240
 40
0.138191
  1
BA  1230
 41
1.000000
  7
SN0
 71
     0
 72
     5
 11
3.394678
 21
1.516240
  0
TEXT
  8
0
 10
2.530440
 20
1.324840
 40
0.138191
  1
1-3/8" x 1-3/4"
 41
1.000000
  7
SN0
 71
     0
 72
     5
 11
3.576557
 21
1.324840
  0
SOLID
  8
0
 62
    15
 10
5.870920
 20
2.320560
 11
5.871800
 21
3.073840
 12
5.958040
 22
2.297240
 13
5.958920
 23
3.050960
  0
POLYLINE
  8
0
  6
CONTINUOUS
 66
     1
 40
0.000000
 41
0.000000
  0
VERTEX
  8
0
  6
CONTINUOUS
 10
5.870920
 20
2.320560
  0
VERTEX
  8
0
  6
CONTINUOUS
 10
5.871800
 20
3.073840
  0
VERTEX
  8
0
  6
CONTINUOUS
 10
5.958920
 20
3.050960
  0
VERTEX
  8
0
  6
CONTINUOUS
 10
5.958040
 20
2.297240
  0
VERTEX
  8
0
  6
CONTINUOUS
 10
5.870920
 20
2.320560
  0
SEQEND
  8
0
  0
SOLID
  8
0
 62
    15
 10
4.864640
 20
2.995080
 11
4.865520
 21
3.748800
 12
4.957920
 22
2.992440
 13
4.958800
 23
3.746160
  0
POLYLINE
  8
0
  6
CONTINUOUS
 66
     1
 40
0.000000
 41
0.000000
  0
VERTEX
  8
0
  6
CONTINUOUS
 10
4.864640
 20
2.995080
  0
VERTEX
  8
0
  6
CONTINUOUS
 10
4.865520
 20
3.748800
  0
VERTEX
  8
0
  6
CONTINUOUS
 10
4.958800
 20
3.746160
  0
VERTEX
  8
0
  6
CONTINUOUS
 10
4.957920
 20
2.992440
  0
VERTEX
  8
0
  6
CONTINUOUS
 10
4.864640
 20
2.995080
  0
SEQEND
  8
0
  0
SOLID
  8
0
 62
    15
 10
4.957920
 20
2.992440
 11
4.958800
 21
3.746160
 12
5.041080
 22
2.984520
 13
5.041960
 23
3.738240
  0
POLYLINE
  8
0
  6
CONTINUOUS
 66
     1
 40
0.000000
 41
0.000000
  0
VERTEX
  8
0
  6
CONTINUOUS
 10
4.957920
 20
2.992440
  0
VERTEX
  8
0
  6
CONTINUOUS
 10
4.958800
 20
3.746160
  0
VERTEX
  8
0
  6
CONTINUOUS
 10
5.041960
 20
3.738240
  0
VERTEX
  8
0
  6
CONTINUOUS
 10
5.041080
 20
2.984520
  0
VERTEX
  8
0
  6
CONTINUOUS
 10
4.957920
 20
2.992440
  0
SEQEND
  8
0
  0
SOLID
  8
0
 62
    15
 10
5.041080
 20
2.984520
 11
5.041960
 21
3.738240
 12
5.115000
 22
2.971760
 13
5.115880
 23
3.725480
  0
POLYLINE
  8
0
  6
CONTINUOUS
 66
     1
 40
0.000000
 41
0.000000
  0
VERTEX
  8
0
  6
CONTINUOUS
 10
5.041080
 20
2.984520
  0
VERTEX
  8
0
  6
CONTINUOUS
 10
5.041960
 20
3.738240
  0
VERTEX
  8
0
  6
CONTINUOUS
 10
5.115880
 20
3.725480
  0
VERTEX
  8
0
  6
CONTINUOUS
 10
5.115000
 20
2.971760
  0
VERTEX
  8
0
  6
CONTINUOUS
 10
5.041080
 20
2.984520
  0
SEQEND
  8
0
  0
SOLID
  8
0
 62
    15
 10
5.115000
 20
2.971760
 11
5.115880
 21
3.725480
 12
5.180120
 22
2.955040
 13
5.181440
 23
3.708760
  0
POLYLINE
  8
0
  6
CONTINUOUS
 66
     1
 40
0.000000
 41
0.000000
  0
VERTEX
  8
0
  6
CONTINUOUS
 10
5.115000
 20
2.971760
  0
VERTEX
  8
0
  6
CONTINUOUS
 10
5.115880
 20
3.725480
  0
VERTEX
  8
0
  6
CONTINUOUS
 10
5.181440
 20
3.708760
  0
VERTEX
  8
0
  6
CONTINUOUS
 10
5.180120
 20
2.955040
  0
VERTEX
  8
0
  6
CONTINUOUS
 10
5.115000
 20
2.971760
  0
SEQEND
  8
0
  0
SOLID
  8
0
 62
    15
 10
5.180120
 20
2.955040
 11
5.181440
 21
3.708760
 12
5.237760
 22
2.934800
 13
5.238640
 23
3.688520
  0
POLYLINE
  8
0
  6
CONTINUOUS
 66
     1
 40
0.000000
 41
0.000000
  0
VERTEX
  8
0
  6
CONTINUOUS
 10
5.180120
 20
2.955040
  0
VERTEX
  8
0
  6
CONTINUOUS
 10
5.181440
 20
3.708760
  0
VERTEX
  8
0
  6
CONTINUOUS
 10
5.238640
 20
3.688520
  0
VERTEX
  8
0
  6
CONTINUOUS
 10
5.237760
 20
2.934800
  0
VERTEX
  8
0
  6
CONTINUOUS
 10
5.180120
 20
2.955040
  0
SEQEND
  8
0
  0
SOLID
  8
0
 62
    15
 10
5.237760
 20
2.934800
 11
5.238640
 21
3.688520
 12
5.287920
 22
2.911040
 13
5.288800
 23
3.664760
  0
POLYLINE
  8
0
  6
CONTINUOUS
 66
     1
 40
0.000000
 41
0.000000
  0
VERTEX
  8
0
  6
CONTINUOUS
 10
5.237760
 20
2.934800
  0
VERTEX
  8
0
  6
CONTINUOUS
 10
5.238640
 20
3.688520
  0
VERTEX
  8
0
  6
CONTINUOUS
 10
5.288800
 20
3.664760
  0
VERTEX
  8
0
  6
CONTINUOUS
 10
5.287920
 20
2.911040
  0
VERTEX
  8
0
  6
CONTINUOUS
 10
5.237760
 20
2.934800
  0
SEQEND
  8
0
  0
SOLID
  8
0
 62
    15
 10
5.287920
 20
2.911040
 11
5.288800
 21
3.664760
 12
5.331480
 22
2.885080
 13
5.332800
 23
3.638360
  0
POLYLINE
  8
0
  6
CONTINUOUS
 66
     1
 40
0.000000
 41
0.000000
  0
VERTEX
  8
0
  6
CONTINUOUS
 10
5.287920
 20
2.911040
  0
VERTEX
  8
0
  6
CONTINUOUS
 10
5.288800
 20
3.664760
  0
VERTEX
  8
0
  6
CONTINUOUS
 10
5.332800
 20
3.638360
  0
VERTEX
  8
0
  6
CONTINUOUS
 10
5.331480
 20
2.885080
  0
VERTEX
  8
0
  6
CONTINUOUS
 10
5.287920
 20
2.911040
  0
SEQEND
  8
0
  0
SOLID
  8
0
 62
    15
 10
5.331480
 20
2.885080
 11
5.332800
 21
3.638360
 12
5.369320
 22
2.856480
 13
5.370200
 23
3.610200
  0
POLYLINE
  8
0
  6
CONTINUOUS
 66
     1
 40
0.000000
 41
0.000000
  0
VERTEX
  8
0
  6
CONTINUOUS
 10
5.331480
 20
2.885080
  0
VERTEX
  8
0
  6
CONTINUOUS
 10
5.332800
 20
3.638360
  0
VERTEX
  8
0
  6
CONTINUOUS
 10
5.370200
 20
3.610200
  0
VERTEX
  8
0
  6
CONTINUOUS
 10
5.369320
 20
2.856480
  0
VERTEX
  8
0
  6
CONTINUOUS
 10
5.331480
 20
2.885080
  0
SEQEND
  8
0
  0
SOLID
  8
0
 62
    15
 10
5.369320
 20
2.856480
 11
5.370200
 21
3.610200
 12
5.430480
 22
2.795320
 13
5.431360
 23
3.549040
  0
POLYLINE
  8
0
  6
CONTINUOUS
 66
     1
 40
0.000000
 41
0.000000
  0
VERTEX
  8
0
  6
CONTINUOUS
 10
5.369320
 20
2.856480
  0
VERTEX
  8
0
  6
CONTINUOUS
 10
5.370200
 20
3.610200
  0
VERTEX
  8
0
  6
CONTINUOUS
 10
5.431360
 20
3.549040
  0
VERTEX
  8
0
  6
CONTINUOUS
 10
5.430480
 20
2.795320
  0
VERTEX
  8
0
  6
CONTINUOUS
 10
5.369320
 20
2.856480
  0
SEQEND
  8
0
  0
SOLID
  8
0
 62
    15
 10
5.430480
 20
2.795320
 11
5.431360
 21
3.549040
 12
5.475800
 22
2.731960
 13
5.477120
 23
3.485680
  0
POLYLINE
  8
0
  6
CONTINUOUS
 66
     1
 40
0.000000
 41
0.000000
  0
VERTEX
  8
0
  6
CONTINUOUS
 10
5.430480
 20
2.795320
  0
VERTEX
  8
0
  6
CONTINUOUS
 10
5.431360
 20
3.549040
  0
VERTEX
  8
0
  6
CONTINUOUS
 10
5.477120
 20
3.485680
  0
VERTEX
  8
0
  6
CONTINUOUS
 10
5.475800
 20
2.731960
  0
VERTEX
  8
0
  6
CONTINUOUS
 10
5.430480
 20
2.795320
  0
SEQEND
  8
0
  0
SOLID
  8
0
 62
    15
 10
5.475800
 20
2.731960
 11
5.477120
 21
3.485680
 12
5.511880
 22
2.670360
 13
5.513200
 23
3.423640
  0
POLYLINE
  8
0
  6
CONTINUOUS
 66
     1
 40
0.000000
 41
0.000000
  0
VERTEX
  8
0
  6
CONTINUOUS
 10
5.475800
 20
2.731960
  0
VERTEX
  8
0
  6
CONTINUOUS
 10
5.477120
 20
3.485680
  0
VERTEX
  8
0
  6
CONTINUOUS
 10
5.513200
 20
3.423640
  0
VERTEX
  8
0
  6
CONTINUOUS
 10
5.511880
 20
2.670360
  0
VERTEX
  8
0
  6
CONTINUOUS
 10
5.475800
 20
2.731960
  0
SEQEND
  8
0
  0
SOLID
  8
0
 62
    15
 10
5.511880
 20
2.670360
 11
5.513200
 21
3.423640
 12
5.528160
 22
2.641320
 13
5.529040
 23
3.394600
  0
POLYLINE
  8
0
  6
CONTINUOUS
 66
     1
 40
0.000000
 41
0.000000
  0
VERTEX
  8
0
  6
CONTINUOUS
 10
5.511880
 20
2.670360
  0
VERTEX
  8
0
  6
CONTINUOUS
 10
5.513200
 20
3.423640
  0
VERTEX
  8
0
  6
CONTINUOUS
 10
5.529040
 20
3.394600
  0
VERTEX
  8
0
  6
CONTINUOUS
 10
5.528160
 20
2.641320
  0
VERTEX
  8
0
  6
CONTINUOUS
 10
5.511880
 20
2.670360
  0
SEQEND
  8
0
  0
SOLID
  8
0
 62
    15
 10
5.528160
 20
2.641320
 11
5.529040
 21
3.394600
 12
5.544000
 22
2.614040
 13
5.544880
 23
3.367760
  0
POLYLINE
  8
0
  6
CONTINUOUS
 66
     1
 40
0.000000
 41
0.000000
  0
VERTEX
  8
0
  6
CONTINUOUS
 10
5.528160
 20
2.641320
  0
VERTEX
  8
0
  6
CONTINUOUS
 10
5.529040
 20
3.394600
  0
VERTEX
  8
0
  6
CONTINUOUS
 10
5.544880
 20
3.367760
  0
VERTEX
  8
0
  6
CONTINUOUS
 10
5.544000
 20
2.614040
  0
VERTEX
  8
0
  6
CONTINUOUS
 10
5.528160
 20
2.641320
  0
SEQEND
  8
0
  0
SOLID
  8
0
 62
    15
 10
5.544000
 20
2.614040
 11
5.544880
 21
3.367760
 12
5.578760
 22
2.560800
 13
5.579640
 23
3.314080
  0
POLYLINE
  8
0
  6
CONTINUOUS
 66
     1
 40
0.000000
 41
0.000000
  0
VERTEX
  8
0
  6
CONTINUOUS
 10
5.544000
 20
2.614040
  0
VERTEX
  8
0
  6
CONTINUOUS
 10
5.544880
 20
3.367760
  0
VERTEX
  8
0
  6
CONTINUOUS
 10
5.579640
 20
3.314080
  0
VERTEX
  8
0
  6
CONTINUOUS
 10
5.578760
 20
2.560800
  0
VERTEX
  8
0
  6
CONTINUOUS
 10
5.544000
 20
2.614040
  0
SEQEND
  8
0
  0
SOLID
  8
0
 62
    15
 10
5.578760
 20
2.560800
 11
5.579640
 21
3.314080
 12
5.620560
 22
2.504920
 13
5.621440
 23
3.258640
  0
POLYLINE
  8
0
  6
CONTINUOUS
 66
     1
 40
0.000000
 41
0.000000
  0
VERTEX
  8
0
  6
CONTINUOUS
 10
5.578760
 20
2.560800
  0
VERTEX
  8
0
  6
CONTINUOUS
 10
5.579640
 20
3.314080
  0
VERTEX
  8
0
  6
CONTINUOUS
 10
5.621440
 20
3.258640
  0
VERTEX
  8
0
  6
CONTINUOUS
 10
5.620560
 20
2.504920
  0
VERTEX
  8
0
  6
CONTINUOUS
 10
5.578760
 20
2.560800
  0
SEQEND
  8
0
  0
SOLID
  8
0
 62
    15
 10
5.620560
 20
2.504920
 11
5.621440
 21
3.258640
 12
5.669840
 22
2.450800
 13
5.670720
 23
3.204080
  0
POLYLINE
  8
0
  6
CONTINUOUS
 66
     1
 40
0.000000
 41
0.000000
  0
VERTEX
  8
0
  6
CONTINUOUS
 10
5.620560
 20
2.504920
  0
VERTEX
  8
0
  6
CONTINUOUS
 10
5.621440
 20
3.258640
  0
VERTEX
  8
0
  6
CONTINUOUS
 10
5.670720
 20
3.204080
  0
VERTEX
  8
0
  6
CONTINUOUS
 10
5.669840
 20
2.450800
  0
VERTEX
  8
0
  6
CONTINUOUS
 10
5.620560
 20
2.504920
  0
SEQEND
  8
0
  0
SOLID
  8
0
 62
    15
 10
5.669840
 20
2.450800
 11
5.670720
 21
3.204080
 12
5.727480
 22
2.399760
 13
5.728360
 23
3.153480
  0
POLYLINE
  8
0
  6
CONTINUOUS
 66
     1
 40
0.000000
 41
0.000000
  0
VERTEX
  8
0
  6
CONTINUOUS
 10
5.669840
 20
2.450800
  0
VERTEX
  8
0
  6
CONTINUOUS
 10
5.670720
 20
3.204080
  0
VERTEX
  8
0
  6
CONTINUOUS
 10
5.728360
 20
3.153480
  0
VERTEX
  8
0
  6
CONTINUOUS
 10
5.727480
 20
2.399760
  0
VERTEX
  8
0
  6
CONTINUOUS
 10
5.669840
 20
2.450800
  0
SEQEND
  8
0
  0
SOLID
  8
0
 62
    15
 10
5.727480
 20
2.399760
 11
5.728360
 21
3.153480
 12
5.794360
 22
2.355320
 13
5.795240
 23
3.109040
  0
POLYLINE
  8
0
  6
CONTINUOUS
 66
     1
 40
0.000000
 41
0.000000
  0
VERTEX
  8
0
  6
CONTINUOUS
 10
5.727480
 20
2.399760
  0
VERTEX
  8
0
  6
CONTINUOUS
 10
5.728360
 20
3.153480
  0
VERTEX
  8
0
  6
CONTINUOUS
 10
5.795240
 20
3.109040
  0
VERTEX
  8
0
  6
CONTINUOUS
 10
5.794360
 20
2.355320
  0
VERTEX
  8
0
  6
CONTINUOUS
 10
5.727480
 20
2.399760
  0
SEQEND
  8
0
  0
SOLID
  8
0
 62
    15
 10
5.794360
 20
2.355320
 11
5.795240
 21
3.109040
 12
5.870920
 22
2.320560
 13
5.871800
 23
3.073840
  0
POLYLINE
  8
0
  6
CONTINUOUS
 66
     1
 40
0.000000
 41
0.000000
  0
VERTEX
  8
0
  6
CONTINUOUS
 10
5.794360
 20
2.355320
  0
VERTEX
  8
0
  6
CONTINUOUS
 10
5.795240
 20
3.109040
  0
VERTEX
  8
0
  6
CONTINUOUS
 10
5.871800
 20
3.073840
  0
VERTEX
  8
0
  6
CONTINUOUS
 10
5.870920
 20
2.320560
  0
VERTEX
  8
0
  6
CONTINUOUS
 10
5.794360
 20
2.355320
  0
SEQEND
  8
0
  0
SOLID
  8
0
 62
    15
 10
4.365680
 20
2.995080
 11
4.366560
 21
3.748800
 12
4.864640
 22
2.995080
 13
4.865520
 23
3.748800
  0
POLYLINE
  8
0
  6
CONTINUOUS
 66
     1
 40
0.000000
 41
0.000000
  0
VERTEX
  8
0
  6
CONTINUOUS
 10
4.365680
 20
2.995080
  0
VERTEX
  8
0
  6
CONTINUOUS
 10
4.366560
 20
3.748800
  0
VERTEX
  8
0
  6
CONTINUOUS
 10
4.865520
 20
3.748800
  0
VERTEX
  8
0
  6
CONTINUOUS
 10
4.864640
 20
2.995080
  0
VERTEX
  8
0
  6
CONTINUOUS
 10
4.365680
 20
2.995080
  0
SEQEND
  8
0
  0
SOLID
  8
0
 62
    15
 10
5.958040
 20
2.297240
 11
5.958920
 21
3.050960
 12
6.056600
 22
2.288880
 13
6.057480
 23
3.042600
  0
POLYLINE
  8
0
  6
CONTINUOUS
 66
     1
 40
0.000000
 41
0.000000
  0
VERTEX
  8
0
  6
CONTINUOUS
 10
5.958040
 20
2.297240
  0
VERTEX
  8
0
  6
CONTINUOUS
 10
5.958920
 20
3.050960
  0
VERTEX
  8
0
  6
CONTINUOUS
 10
6.057480
 20
3.042600
  0
VERTEX
  8
0
  6
CONTINUOUS
 10
6.056600
 20
2.288880
  0
VERTEX
  8
0
  6
CONTINUOUS
 10
5.958040
 20
2.297240
  0
SEQEND
  8
0
  0
SOLID
  8
0
 62
    15
 10
6.056600
 20
2.288880
 11
6.057480
 21
3.042600
 12
6.091800
 22
2.366760
 13
6.092680
 23
3.120480
  0
POLYLINE
  8
0
  6
CONTINUOUS
 66
     1
 40
0.000000
 41
0.000000
  0
VERTEX
  8
0
  6
CONTINUOUS
 10
6.056600
 20
2.288880
  0
VERTEX
  8
0
  6
CONTINUOUS
 10
6.057480
 20
3.042600
  0
VERTEX
  8
0
  6
CONTINUOUS
 10
6.092680
 20
3.120480
  0
VERTEX
  8
0
  6
CONTINUOUS
 10
6.091800
 20
2.366760
  0
VERTEX
  8
0
  6
CONTINUOUS
 10
6.056600
 20
2.288880
  0
SEQEND
  8
0
  0
SOLID
  8
0
 62
    15
 10
6.091800
 20
2.366760
 11
6.092680
 21
3.120480
 12
6.134040
 22
2.431880
 13
6.134920
 23
3.185600
  0
POLYLINE
  8
0
  6
CONTINUOUS
 66
     1
 40
0.000000
 41
0.000000
  0
VERTEX
  8
0
  6
CONTINUOUS
 10
6.091800
 20
2.366760
  0
VERTEX
  8
0
  6
CONTINUOUS
 10
6.092680
 20
3.120480
  0
VERTEX
  8
0
  6
CONTINUOUS
 10
6.134920
 20
3.185600
  0
VERTEX
  8
0
  6
CONTINUOUS
 10
6.134040
 20
2.431880
  0
VERTEX
  8
0
  6
CONTINUOUS
 10
6.091800
 20
2.366760
  0
SEQEND
  8
0
  0
SOLID
  8
0
 62
    15
 10
6.134040
 20
2.431880
 11
6.134920
 21
3.185600
 12
6.182000
 22
2.484240
 13
6.182880
 23
3.237960
  0
POLYLINE
  8
0
  6
CONTINUOUS
 66
     1
 40
0.000000
 41
0.000000
  0
VERTEX
  8
0
  6
CONTINUOUS
 10
6.134040
 20
2.431880
  0
VERTEX
  8
0
  6
CONTINUOUS
 10
6.134920
 20
3.185600
  0
VERTEX
  8
0
  6
CONTINUOUS
 10
6.182880
 20
3.237960
  0
VERTEX
  8
0
  6
CONTINUOUS
 10
6.182000
 20
2.484240
  0
VERTEX
  8
0
  6
CONTINUOUS
 10
6.134040
 20
2.431880
  0
SEQEND
  8
0
  0
SOLID
  8
0
 62
    15
 10
6.182000
 20
2.484240
 11
6.182880
 21
3.237960
 12
6.234360
 22
2.524280
 13
6.235240
 23
3.277560
  0
POLYLINE
  8
0
  6
CONTINUOUS
 66
     1
 40
0.000000
 41
0.000000
  0
VERTEX
  8
0
  6
CONTINUOUS
 10
6.182000
 20
2.484240
  0
VERTEX
  8
0
  6
CONTINUOUS
 10
6.182880
 20
3.237960
  0
VERTEX
  8
0
  6
CONTINUOUS
 10
6.235240
 20
3.277560
  0
VERTEX
  8
0
  6
CONTINUOUS
 10
6.234360
 20
2.524280
  0
VERTEX
  8
0
  6
CONTINUOUS
 10
6.182000
 20
2.484240
  0
SEQEND
  8
0
  0
SOLID
  8
0
 62
    15
 10
6.234360
 20
2.524280
 11
6.235240
 21
3.277560
 12
6.289800
 22
2.552000
 13
6.290680
 23
3.305720
  0
POLYLINE
  8
0
  6
CONTINUOUS
 66
     1
 40
0.000000
 41
0.000000
  0
VERTEX
  8
0
  6
CONTINUOUS
 10
6.234360
 20
2.524280
  0
VERTEX
  8
0
  6
CONTINUOUS
 10
6.235240
 20
3.277560
  0
VERTEX
  8
0
  6
CONTINUOUS
 10
6.290680
 20
3.305720
  0
VERTEX
  8
0
  6
CONTINUOUS
 10
6.289800
 20
2.552000
  0
VERTEX
  8
0
  6
CONTINUOUS
 10
6.234360
 20
2.524280
  0
SEQEND
  8
0
  0
SOLID
  8
0
 62
    15
 10
6.289800
 20
2.552000
 11
6.290680
 21
3.305720
 12
6.347000
 22
2.568280
 13
6.348320
 23
3.322000
  0
POLYLINE
  8
0
  6
CONTINUOUS
 66
     1
 40
0.000000
 41
0.000000
  0
VERTEX
  8
0
  6
CONTINUOUS
 10
6.289800
 20
2.552000
  0
VERTEX
  8
0
  6
CONTINUOUS
 10
6.290680
 20
3.305720
  0
VERTEX
  8
0
  6
CONTINUOUS
 10
6.348320
 20
3.322000
  0
VERTEX
  8
0
  6
CONTINUOUS
 10
6.347000
 20
2.568280
  0
VERTEX
  8
0
  6
CONTINUOUS
 10
6.289800
 20
2.552000
  0
SEQEND
  8
0
  0
SOLID
  8
0
 62
    15
 10
6.347000
 20
2.568280
 11
6.348320
 21
3.322000
 12
6.405080
 22
2.573120
 13
6.405960
 23
3.326840
  0
POLYLINE
  8
0
  6
CONTINUOUS
 66
     1
 40
0.000000
 41
0.000000
  0
VERTEX
  8
0
  6
CONTINUOUS
 10
6.347000
 20
2.568280
  0
VERTEX
  8
0
  6
CONTINUOUS
 10
6.348320
 20
3.322000
  0
VERTEX
  8
0
  6
CONTINUOUS
 10
6.405960
 20
3.326840
  0
VERTEX
  8
0
  6
CONTINUOUS
 10
6.405080
 20
2.573120
  0
VERTEX
  8
0
  6
CONTINUOUS
 10
6.347000
 20
2.568280
  0
SEQEND
  8
0
  0
SOLID
  8
0
 62
    15
 10
6.405080
 20
2.573120
 11
6.405960
 21
3.326840
 12
6.462280
 22
2.566960
 13
6.463160
 23
3.320240
  0
POLYLINE
  8
0
  6
CONTINUOUS
 66
     1
 40
0.000000
 41
0.000000
  0
VERTEX
  8
0
  6
CONTINUOUS
 10
6.405080
 20
2.573120
  0
VERTEX
  8
0
  6
CONTINUOUS
 10
6.405960
 20
3.326840
  0
VERTEX
  8
0
  6
CONTINUOUS
 10
6.463160
 20
3.320240
  0
VERTEX
  8
0
  6
CONTINUOUS
 10
6.462280
 20
2.566960
  0
VERTEX
  8
0
  6
CONTINUOUS
 10
6.405080
 20
2.573120
  0
SEQEND
  8
0
  0
SOLID
  8
0
 62
    15
 10
6.462280
 20
2.566960
 11
6.463160
 21
3.320240
 12
6.517720
 22
2.549800
 13
6.518600
 23
3.303520
  0
POLYLINE
  8
0
  6
CONTINUOUS
 66
     1
 40
0.000000
 41
0.000000
  0
VERTEX
  8
0
  6
CONTINUOUS
 10
6.462280
 20
2.566960
  0
VERTEX
  8
0
  6
CONTINUOUS
 10
6.463160
 20
3.320240
  0
VERTEX
  8
0
  6
CONTINUOUS
 10
6.518600
 20
3.303520
  0
VERTEX
  8
0
  6
CONTINUOUS
 10
6.517720
 20
2.549800
  0
VERTEX
  8
0
  6
CONTINUOUS
 10
6.462280
 20
2.566960
  0
SEQEND
  8
0
  0
SOLID
  8
0
 62
    15
 10
6.517720
 20
2.549800
 11
6.518600
 21
3.303520
 12
6.569640
 22
2.522520
 13
6.570520
 23
3.275800
  0
POLYLINE
  8
0
  6
CONTINUOUS
 66
     1
 40
0.000000
 41
0.000000
  0
VERTEX
  8
0
  6
CONTINUOUS
 10
6.517720
 20
2.549800
  0
VERTEX
  8
0
  6
CONTINUOUS
 10
6.518600
 20
3.303520
  0
VERTEX
  8
0
  6
CONTINUOUS
 10
6.570520
 20
3.275800
  0
VERTEX
  8
0
  6
CONTINUOUS
 10
6.569640
 20
2.522520
  0
VERTEX
  8
0
  6
CONTINUOUS
 10
6.517720
 20
2.549800
  0
SEQEND
  8
0
  0
SOLID
  8
0
 62
    15
 10
6.569640
 20
2.522520
 11
6.570520
 21
3.275800
 12
6.617160
 22
2.484680
 13
6.618040
 23
3.238400
  0
POLYLINE
  8
0
  6
CONTINUOUS
 66
     1
 40
0.000000
 41
0.000000
  0
VERTEX
  8
0
  6
CONTINUOUS
 10
6.569640
 20
2.522520
  0
VERTEX
  8
0
  6
CONTINUOUS
 10
6.570520
 20
3.275800
  0
VERTEX
  8
0
  6
CONTINUOUS
 10
6.618040
 20
3.238400
  0
VERTEX
  8
0
  6
CONTINUOUS
 10
6.617160
 20
2.484680
  0
VERTEX
  8
0
  6
CONTINUOUS
 10
6.569640
 20
2.522520
  0
SEQEND
  8
0
  0
SOLID
  8
0
 62
    15
 10
6.617160
 20
2.484680
 11
6.618040
 21
3.238400
 12
6.658960
 22
2.437600
 13
6.659840
 23
3.190880
  0
POLYLINE
  8
0
  6
CONTINUOUS
 66
     1
 40
0.000000
 41
0.000000
  0
VERTEX
  8
0
  6
CONTINUOUS
 10
6.617160
 20
2.484680
  0
VERTEX
  8
0
  6
CONTINUOUS
 10
6.618040
 20
3.238400
  0
VERTEX
  8
0
  6
CONTINUOUS
 10
6.659840
 20
3.190880
  0
VERTEX
  8
0
  6
CONTINUOUS
 10
6.658960
 20
2.437600
  0
VERTEX
  8
0
  6
CONTINUOUS
 10
6.617160
 20
2.484680
  0
SEQEND
  8
0
  0
SOLID
  8
0
 62
    15
 10
6.658960
 20
2.437600
 11
6.659840
 21
3.190880
 12
6.693720
 22
2.380840
 13
6.694600
 23
3.134120
  0
POLYLINE
  8
0
  6
CONTINUOUS
 66
     1
 40
0.000000
 41
0.000000
  0
VERTEX
  8
0
  6
CONTINUOUS
 10
6.658960
 20
2.437600
  0
VERTEX
  8
0
  6
CONTINUOUS
 10
6.659840
 20
3.190880
  0
VERTEX
  8
0
  6
CONTINUOUS
 10
6.694600
 20
3.134120
  0
VERTEX
  8
0
  6
CONTINUOUS
 10
6.693720
 20
2.380840
  0
VERTEX
  8
0
  6
CONTINUOUS
 10
6.658960
 20
2.437600
  0
SEQEND
  8
0
  0
SOLID
  8
0
 62
    15
 10
6.693720
 20
2.380840
 11
6.694600
 21
3.134120
 12
6.719680
 22
2.314840
 13
6.721000
 23
3.068120
  0
POLYLINE
  8
0
  6
CONTINUOUS
 66
     1
 40
0.000000
 41
0.000000
  0
VERTEX
  8
0
  6
CONTINUOUS
 10
6.693720
 20
2.380840
  0
VERTEX
  8
0
  6
CONTINUOUS
 10
6.694600
 20
3.134120
  0
VERTEX
  8
0
  6
CONTINUOUS
 10
6.721000
 20
3.068120
  0
VERTEX
  8
0
  6
CONTINUOUS
 10
6.719680
 20
2.314840
  0
VERTEX
  8
0
  6
CONTINUOUS
 10
6.693720
 20
2.380840
  0
SEQEND
  8
0
  0
SOLID
  8
0
 62
    15
 10
6.736400
 20
2.240040
 11
6.737720
 21
2.993320
 12
6.742560
 22
2.156440
 13
6.743440
 23
2.910160
  0
POLYLINE
  8
0
  6
CONTINUOUS
 66
     1
 40
0.000000
 41
0.000000
  0
VERTEX
  8
0
  6
CONTINUOUS
 10
6.736400
 20
2.240040
  0
VERTEX
  8
0
  6
CONTINUOUS
 10
6.737720
 20
2.993320
  0
VERTEX
  8
0
  6
CONTINUOUS
 10
6.743440
 20
2.910160
  0
VERTEX
  8
0
  6
CONTINUOUS
 10
6.742560
 20
2.156440
  0
VERTEX
  8
0
  6
CONTINUOUS
 10
6.736400
 20
2.240040
  0
SEQEND
  8
0
  0
SOLID
  8
0
 62
    15
 10
6.719680
 20
2.314840
 11
6.721000
 21
3.068120
 12
6.736400
 22
2.240040
 13
6.737720
 23
2.993320
  0
POLYLINE
  8
0
  6
CONTINUOUS
 66
     1
 40
0.000000
 41
0.000000
  0
VERTEX
  8
0
  6
CONTINUOUS
 10
6.719680
 20
2.314840
  0
VERTEX
  8
0
  6
CONTINUOUS
 10
6.721000
 20
3.068120
  0
VERTEX
  8
0
  6
CONTINUOUS
 10
6.737720
 20
2.993320
  0
VERTEX
  8
0
  6
CONTINUOUS
 10
6.736400
 20
2.240040
  0
VERTEX
  8
0
  6
CONTINUOUS
 10
6.719680
 20
2.314840
  0
SEQEND
  8
0
  0
SOLID
  8
0
 62
    15
 10
6.937040
 20
2.088680
 11
6.937920
 21
2.842400
 12
6.937040
 22
1.783320
 13
6.937920
 23
2.537040
  0
POLYLINE
  8
0
  6
CONTINUOUS
 66
     1
 40
0.000000
 41
0.000000
  0
VERTEX
  8
0
  6
CONTINUOUS
 10
6.937040
 20
2.088680
  0
VERTEX
  8
0
  6
CONTINUOUS
 10
6.937920
 20
2.842400
  0
VERTEX
  8
0
  6
CONTINUOUS
 10
6.937920
 20
2.537040
  0
VERTEX
  8
0
  6
CONTINUOUS
 10
6.937040
 20
1.783320
  0
VERTEX
  8
0
  6
CONTINUOUS
 10
6.937040
 20
2.088680
  0
SEQEND
  8
0
  0
SOLID
  8
0
 62
    15
 10
6.746960
 20
2.088680
 11
6.748280
 21
2.842400
 12
6.937040
 22
2.088680
 13
6.937920
 23
2.842400
  0
POLYLINE
  8
0
  6
CONTINUOUS
 66
     1
 40
0.000000
 41
0.000000
  0
VERTEX
  8
0
  6
CONTINUOUS
 10
6.746960
 20
2.088680
  0
VERTEX
  8
0
  6
CONTINUOUS
 10
6.748280
 20
2.842400
  0
VERTEX
  8
0
  6
CONTINUOUS
 10
6.937920
 20
2.842400
  0
VERTEX
  8
0
  6
CONTINUOUS
 10
6.937040
 20
2.088680
  0
VERTEX
  8
0
  6
CONTINUOUS
 10
6.746960
 20
2.088680
  0
SEQEND
  8
0
  0
SOLID
  8
0
 62
    15
 10
6.742560
 20
2.156440
 11
6.743440
 21
2.910160
 12
6.746960
 22
2.088680
 13
6.748280
 23
2.842400
  0
POLYLINE
  8
0
  6
CONTINUOUS
 66
     1
 40
0.000000
 41
0.000000
  0
VERTEX
  8
0
  6
CONTINUOUS
 10
6.742560
 20
2.156440
  0
VERTEX
  8
0
  6
CONTINUOUS
 10
6.743440
 20
2.910160
  0
VERTEX
  8
0
  6
CONTINUOUS
 10
6.748280
 20
2.842400
  0
VERTEX
  8
0
  6
CONTINUOUS
 10
6.746960
 20
2.088680
  0
VERTEX
  8
0
  6
CONTINUOUS
 10
6.742560
 20
2.156440
  0
SEQEND
  8
0
  0
POLYLINE
  8
0
  6
CONTINUOUS
 66
     1
 40
0.000000
 41
0.000000
  0
VERTEX
  8
0
  6
CONTINUOUS
 10
4.365680
 20
1.855040
  0
VERTEX
  8
0
  6
CONTINUOUS
 10
4.365680
 20
2.995080
  0
VERTEX
  8
0
  6
CONTINUOUS
 10
4.864640
 20
2.995080
  0
VERTEX
  8
0
  6
CONTINUOUS
 10
4.957920
 20
2.992440
  0
VERTEX
  8
0
  6
CONTINUOUS
 10
5.041080
 20
2.984520
  0
VERTEX
  8
0
  6
CONTINUOUS
 10
5.115000
 20
2.971760
  0
VERTEX
  8
0
  6
CONTINUOUS
 10
5.180120
 20
2.955040
  0
VERTEX
  8
0
  6
CONTINUOUS
 10
5.237760
 20
2.934800
  0
VERTEX
  8
0
  6
CONTINUOUS
 10
5.287920
 20
2.911040
  0
VERTEX
  8
0
  6
CONTINUOUS
 10
5.331480
 20
2.885080
  0
VERTEX
  8
0
  6
CONTINUOUS
 10
5.369320
 20
2.856480
  0
VERTEX
  8
0
  6
CONTINUOUS
 10
5.430480
 20
2.795320
  0
VERTEX
  8
0
  6
CONTINUOUS
 10
5.475800
 20
2.731960
  0
VERTEX
  8
0
  6
CONTINUOUS
 10
5.511880
 20
2.670360
  0
VERTEX
  8
0
  6
CONTINUOUS
 10
5.528160
 20
2.641320
  0
VERTEX
  8
0
  6
CONTINUOUS
 10
5.544000
 20
2.614040
  0
VERTEX
  8
0
  6
CONTINUOUS
 10
5.578760
 20
2.560800
  0
VERTEX
  8
0
  6
CONTINUOUS
 10
5.620560
 20
2.504920
  0
VERTEX
  8
0
  6
CONTINUOUS
 10
5.669840
 20
2.450800
  0
VERTEX
  8
0
  6
CONTINUOUS
 10
5.727480
 20
2.399760
  0
VERTEX
  8
0
  6
CONTINUOUS
 10
5.794360
 20
2.355320
  0
VERTEX
  8
0
  6
CONTINUOUS
 10
5.870920
 20
2.320560
  0
VERTEX
  8
0
  6
CONTINUOUS
 10
5.958040
 20
2.297240
  0
VERTEX
  8
0
  6
CONTINUOUS
 10
6.056600
 20
2.288880
  0
VERTEX
  8
0
  6
CONTINUOUS
 10
6.091800
 20
2.366760
  0
VERTEX
  8
0
  6
CONTINUOUS
 10
6.134040
 20
2.431880
  0
VERTEX
  8
0
  6
CONTINUOUS
 10
6.182000
 20
2.484240
  0
VERTEX
  8
0
  6
CONTINUOUS
 10
6.234360
 20
2.524280
  0
VERTEX
  8
0
  6
CONTINUOUS
 10
6.289800
 20
2.552000
  0
VERTEX
  8
0
  6
CONTINUOUS
 10
6.347000
 20
2.568280
  0
VERTEX
  8
0
  6
CONTINUOUS
 10
6.405080
 20
2.573120
  0
VERTEX
  8
0
  6
CONTINUOUS
 10
6.462280
 20
2.566960
  0
VERTEX
  8
0
  6
CONTINUOUS
 10
6.517720
 20
2.549800
  0
VERTEX
  8
0
  6
CONTINUOUS
 10
6.569640
 20
2.522520
  0
VERTEX
  8
0
  6
CONTINUOUS
 10
6.617160
 20
2.484680
  0
VERTEX
  8
0
  6
CONTINUOUS
 10
6.658960
 20
2.437600
  0
VERTEX
  8
0
  6
CONTINUOUS
 10
6.693720
 20
2.380840
  0
VERTEX
  8
0
  6
CONTINUOUS
 10
6.719680
 20
2.314840
  0
VERTEX
  8
0
  6
CONTINUOUS
 10
6.736400
 20
2.240040
  0
VERTEX
  8
0
  6
CONTINUOUS
 10
6.742560
 20
2.156440
  0
VERTEX
  8
0
  6
CONTINUOUS
 10
6.746960
 20
2.088680
  0
VERTEX
  8
0
  6
CONTINUOUS
 10
6.937040
 20
2.088680
  0
VERTEX
  8
0
  6
CONTINUOUS
 10
6.937040
 20
1.783320
  0
VERTEX
  8
0
  6
CONTINUOUS
 10
4.365680
 20
1.783320
  0
VERTEX
  8
0
  6
CONTINUOUS
 10
4.365680
 20
1.855040
  0
SEQEND
  8
0
  0
TEXT
  8
0
 10
5.310360
 20
1.460800
 40
0.138191
  1
BA  1231
 41
1.000000
  7
SN0
 71
     0
 72
     5
 11
5.991118
 21
1.460800
  0
TEXT
  8
0
 10
5.034480
 20
1.269400
 40
0.138191
  1
1-3/16" x 2-9/16"
 41
1.000000
  7
SN0
 71
     0
 72
     5
 11
6.264797
 21
1.269400
  0
ENDSEC
  0
EOF
