  0
SECTION
  2
HEADER
  9
$ACADVER
  1
AC1006
  9
$EXTMIN
 10
2.327160
 20
2.211440
  9
$EXTMAX
 10
6.629920
 20
8.927160
  9
$LTSCALE
 40
0.044000
  9
$PDMODE
 70
    35
  9
$PDSIZE
 40
0.035200
  0
ENDSEC
  0
SECTION
  2
TABLES
  0
TABLE
  2
LTYPE
 70
     9
  0
LTYPE
  2
CONTINUOUS
 70
    64
  3
Solid line
 72
    65
 73
     0
 40
0.000000
  0
LTYPE
  2
DASHED
 70
    64
  3
__ __ __ __ __ __ __ __ __ __ __ __ __ __ __
 72
    65
 73
     2
 40
0.000330
 49
0.000220
 49
-0.000110
  0
LTYPE
  2
HIDDEN
 70
    64
  3
 _ _ _ _ _ _ _ _ _ _ _ _ _ _ _ _ _ _ _ _ _ _
 72
    65
 73
     2
 40
0.000165
 49
0.000110
 49
-0.000055
  0
LTYPE
  2
CENTER
 70
    64
  3
____ _ ____ _ ____ _ ____ _ ____ _ ____ _ ____
 72
    65
 73
     4
 40
0.000880
 49
0.000550
 49
-0.000110
 49
0.000110
 49
-0.000110
  0
LTYPE
  2
PHANTOM
 70
    64
  3
_____ _ _ _____ _ _ _____ _ _ _____ _ _ ____
 72
    65
 73
     6
 40
0.001100
 49
0.000550
 49
-0.000110
 49
0.000110
 49
-0.000110
 49
0.000110
 49
-0.000110
  0
LTYPE
  2
DOT
 70
    64
  3
...............................................
 72
    65
 73
     2
 40
0.000110
 49
0.000000
 49
-0.000110
  0
LTYPE
  2
DASHDOT
 70
    64
  3
__ . __ . __ . __ . __ . __ . __ . __ . __ . __
 72
    65
 73
     4
 40
0.000440
 49
0.000220
 49
-0.000110
 49
0.000000
 49
-0.000110
  0
LTYPE
  2
BORDER
 70
    64
  3
__ __ . __ __ . __ __ . __ __ . __ __ . __ __
 72
    65
 73
     6
 40
0.000770
 49
0.000220
 49
-0.000110
 49
0.000220
 49
-0.000110
 49
0.000000
 49
-0.000110
  0
LTYPE
  2
DIVIDE
 70
    64
  3
__ . . __ . . __ . . __ . . __ . . __ . . __
 72
    65
 73
     6
 40
0.000550
 49
0.000220
 49
-0.000110
 49
0.000000
 49
-0.000110
 49
0.000000
 49
-0.000110
  0
LTYPE
  2
DOTDOT
 70
    64
  3
 . .  . .  . .  . .  . .  . . 
 72
    65
 73
     5
 40
0.000242
 49
-0.000110
 49
0.000000
 49
-0.000110
 49
0.000000
 49
-0.000110
  0
ENDTAB
  0
TABLE
  2
STYLE
 70
     2
  0
STYLE
 70
     0
  2
SN0
 40
0.000000
 41
0.000440
 50
0.000000
 71
     0
 42
0.000000
  3
ROMAND
  0
STYLE
 70
    68
  2
SV0
 40
0.000000
 41
0.000440
 50
0.000000
 71
     0
 42
0.000000
  3
ROMAND
  0
ENDTAB
  0
TABLE
  2
LAYER
 70
     3
  0
LAYER
  2
FOREGROUND
 70
    64
 62
     7
  6
CONTINUOUS
  0
LAYER
  2
BACKGROUND
 70
    65
 62
    -7
  6
CONTINUOUS
  0
LAYER
  2
0
 70
    64
 62
     7
  6
CONTINUOUS
  0
ENDTAB
  0
ENDSEC
  0
SECTION
  2
ENTITIES
  0
POLYLINE
  8
FOREGROUND
  6
CONTINUOUS
 66
     1
 40
0.000000
 41
0.000000
  0
VERTEX
  8
FOREGROUND
  6
CONTINUOUS
 10
0.000000
 20
11.138600
  0
VERTEX
  8
FOREGROUND
  6
CONTINUOUS
 10
8.499920
 20
11.138600
  0
VERTEX
  8
FOREGROUND
  6
CONTINUOUS
 10
8.499920
 20
0.138600
  0
VERTEX
  8
FOREGROUND
  6
CONTINUOUS
 10
0.000000
 20
0.138600
  0
VERTEX
  8
FOREGROUND
  6
CONTINUOUS
 10
0.000000
 20
11.138600
  0
SEQEND
  8
0
  0
POLYLINE
  8
FOREGROUND
  6
CONTINUOUS
 66
     1
 40
0.000000
 41
0.000000
  0
VERTEX
  8
FOREGROUND
  6
CONTINUOUS
 10
0.000000
 20
11.138600
  0
VERTEX
  8
FOREGROUND
  6
CONTINUOUS
 10
8.499920
 20
11.138600
  0
VERTEX
  8
FOREGROUND
  6
CONTINUOUS
 10
8.499920
 20
0.138600
  0
VERTEX
  8
FOREGROUND
  6
CONTINUOUS
 10
0.000000
 20
0.138600
  0
VERTEX
  8
FOREGROUND
  6
CONTINUOUS
 10
0.000000
 20
11.138600
  0
SEQEND
  8
0
  0
POLYLINE
  8
0
  6
CONTINUOUS
 66
     1
 40
0.014080
 41
0.014080
  0
VERTEX
  8
0
  6
CONTINUOUS
 10
3.375680
 20
8.417200
  0
VERTEX
  8
0
  6
CONTINUOUS
 10
3.375680
 20
8.919680
  0
VERTEX
  8
0
  6
CONTINUOUS
 10
6.305640
 20
8.919680
  0
VERTEX
  8
0
  6
CONTINUOUS
 10
6.344800
 20
8.824200
  0
VERTEX
  8
0
  6
CONTINUOUS
 10
6.367680
 20
8.823760
  0
VERTEX
  8
0
  6
CONTINUOUS
 10
6.389240
 20
8.822880
  0
VERTEX
  8
0
  6
CONTINUOUS
 10
6.409480
 20
8.821560
  0
VERTEX
  8
0
  6
CONTINUOUS
 10
6.428400
 20
8.819360
  0
VERTEX
  8
0
  6
CONTINUOUS
 10
6.446440
 20
8.816720
  0
VERTEX
  8
0
  6
CONTINUOUS
 10
6.463160
 20
8.813200
  0
VERTEX
  8
0
  6
CONTINUOUS
 10
6.479000
 20
8.808800
  0
VERTEX
  8
0
  6
CONTINUOUS
 10
6.493520
 20
8.803960
  0
VERTEX
  8
0
  6
CONTINUOUS
 10
6.507160
 20
8.798240
  0
VERTEX
  8
0
  6
CONTINUOUS
 10
6.519920
 20
8.792080
  0
VERTEX
  8
0
  6
CONTINUOUS
 10
6.531800
 20
8.784600
  0
VERTEX
  8
0
  6
CONTINUOUS
 10
6.542800
 20
8.776680
  0
VERTEX
  8
0
  6
CONTINUOUS
 10
6.552480
 20
8.767880
  0
VERTEX
  8
0
  6
CONTINUOUS
 10
6.561720
 20
8.758200
  0
VERTEX
  8
0
  6
CONTINUOUS
 10
6.570080
 20
8.747640
  0
VERTEX
  8
0
  6
CONTINUOUS
 10
6.577560
 20
8.736200
  0
VERTEX
  8
0
  6
CONTINUOUS
 10
6.584160
 20
8.723880
  0
VERTEX
  8
0
  6
CONTINUOUS
 10
6.590320
 20
8.710680
  0
VERTEX
  8
0
  6
CONTINUOUS
 10
6.596040
 20
8.696600
  0
VERTEX
  8
0
  6
CONTINUOUS
 10
6.600880
 20
8.681200
  0
VERTEX
  8
0
  6
CONTINUOUS
 10
6.604840
 20
8.665360
  0
VERTEX
  8
0
  6
CONTINUOUS
 10
6.608800
 20
8.648200
  0
VERTEX
  8
0
  6
CONTINUOUS
 10
6.611880
 20
8.630160
  0
VERTEX
  8
0
  6
CONTINUOUS
 10
6.614520
 20
8.610800
  0
VERTEX
  8
0
  6
CONTINUOUS
 10
6.616720
 20
8.590560
  0
VERTEX
  8
0
  6
CONTINUOUS
 10
6.618480
 20
8.569000
  0
VERTEX
  8
0
  6
CONTINUOUS
 10
6.620240
 20
8.546560
  0
VERTEX
  8
0
  6
CONTINUOUS
 10
6.621120
 20
8.522800
  0
VERTEX
  8
0
  6
CONTINUOUS
 10
6.622000
 20
8.498160
  0
VERTEX
  8
0
  6
CONTINUOUS
 10
6.622440
 20
8.472200
  0
VERTEX
  8
0
  6
CONTINUOUS
 10
6.622880
 20
8.444920
  0
VERTEX
  8
0
  6
CONTINUOUS
 10
6.622880
 20
8.416760
  0
VERTEX
  8
0
  6
CONTINUOUS
 10
3.480840
 20
8.416760
  0
VERTEX
  8
0
  6
CONTINUOUS
 10
3.375680
 20
8.416760
  0
VERTEX
  8
0
  6
CONTINUOUS
 10
3.375680
 20
8.417200
  0
SEQEND
  8
0
  0
POLYLINE
  8
0
  6
CONTINUOUS
 66
     1
 40
0.000000
 41
0.000000
  0
VERTEX
  8
0
  6
CONTINUOUS
 10
2.702480
 20
5.387800
  0
VERTEX
  8
0
  6
CONTINUOUS
 10
2.702480
 20
5.889840
  0
VERTEX
  8
0
  6
CONTINUOUS
 10
5.632440
 20
5.889840
  0
VERTEX
  8
0
  6
CONTINUOUS
 10
5.671600
 20
5.794360
  0
VERTEX
  8
0
  6
CONTINUOUS
 10
5.694480
 20
5.793920
  0
VERTEX
  8
0
  6
CONTINUOUS
 10
5.716040
 20
5.793040
  0
VERTEX
  8
0
  6
CONTINUOUS
 10
5.736280
 20
5.791720
  0
VERTEX
  8
0
  6
CONTINUOUS
 10
5.755200
 20
5.789520
  0
VERTEX
  8
0
  6
CONTINUOUS
 10
5.773240
 20
5.786880
  0
VERTEX
  8
0
  6
CONTINUOUS
 10
5.789960
 20
5.783360
  0
VERTEX
  8
0
  6
CONTINUOUS
 10
5.805800
 20
5.778960
  0
VERTEX
  8
0
  6
CONTINUOUS
 10
5.820320
 20
5.774120
  0
VERTEX
  8
0
  6
CONTINUOUS
 10
5.833960
 20
5.768400
  0
VERTEX
  8
0
  6
CONTINUOUS
 10
5.846720
 20
5.762240
  0
VERTEX
  8
0
  6
CONTINUOUS
 10
5.858600
 20
5.755200
  0
VERTEX
  8
0
  6
CONTINUOUS
 10
5.869600
 20
5.746840
  0
VERTEX
  8
0
  6
CONTINUOUS
 10
5.879280
 20
5.738040
  0
VERTEX
  8
0
  6
CONTINUOUS
 10
5.888520
 20
5.728800
  0
VERTEX
  8
0
  6
CONTINUOUS
 10
5.896880
 20
5.718240
  0
VERTEX
  8
0
  6
CONTINUOUS
 10
5.904360
 20
5.706800
  0
VERTEX
  8
0
  6
CONTINUOUS
 10
5.910960
 20
5.694480
  0
VERTEX
  8
0
  6
CONTINUOUS
 10
5.917120
 20
5.681280
  0
VERTEX
  8
0
  6
CONTINUOUS
 10
5.922840
 20
5.667200
  0
VERTEX
  8
0
  6
CONTINUOUS
 10
5.927680
 20
5.651800
  0
VERTEX
  8
0
  6
CONTINUOUS
 10
5.931640
 20
5.635960
  0
VERTEX
  8
0
  6
CONTINUOUS
 10
5.935600
 20
5.618800
  0
VERTEX
  8
0
  6
CONTINUOUS
 10
5.938680
 20
5.600320
  0
VERTEX
  8
0
  6
CONTINUOUS
 10
5.941320
 20
5.581400
  0
VERTEX
  8
0
  6
CONTINUOUS
 10
5.943520
 20
5.561160
  0
VERTEX
  8
0
  6
CONTINUOUS
 10
5.945280
 20
5.539600
  0
VERTEX
  8
0
  6
CONTINUOUS
 10
5.947040
 20
5.517160
  0
VERTEX
  8
0
  6
CONTINUOUS
 10
5.947920
 20
5.493400
  0
VERTEX
  8
0
  6
CONTINUOUS
 10
5.948800
 20
5.468760
  0
VERTEX
  8
0
  6
CONTINUOUS
 10
5.949240
 20
5.442800
  0
VERTEX
  8
0
  6
CONTINUOUS
 10
5.949680
 20
5.415520
  0
VERTEX
  8
0
  6
CONTINUOUS
 10
5.949680
 20
5.387360
  0
VERTEX
  8
0
  6
CONTINUOUS
 10
2.808080
 20
5.387360
  0
VERTEX
  8
0
  6
CONTINUOUS
 10
2.702480
 20
5.387360
  0
VERTEX
  8
0
  6
CONTINUOUS
 10
2.702480
 20
5.387800
  0
SEQEND
  8
0
  0
POLYLINE
  8
0
  6
CONTINUOUS
 66
     1
 40
0.000000
 41
0.000000
  0
VERTEX
  8
0
  6
CONTINUOUS
 10
5.949680
 20
2.212320
  0
VERTEX
  8
0
  6
CONTINUOUS
 10
5.949680
 20
2.714360
  0
VERTEX
  8
0
  6
CONTINUOUS
 10
3.019720
 20
2.714360
  0
VERTEX
  8
0
  6
CONTINUOUS
 10
2.980560
 20
2.618880
  0
VERTEX
  8
0
  6
CONTINUOUS
 10
2.957680
 20
2.618440
  0
VERTEX
  8
0
  6
CONTINUOUS
 10
2.936120
 20
2.617560
  0
VERTEX
  8
0
  6
CONTINUOUS
 10
2.915880
 20
2.616240
  0
VERTEX
  8
0
  6
CONTINUOUS
 10
2.896960
 20
2.614040
  0
VERTEX
  8
0
  6
CONTINUOUS
 10
2.878920
 20
2.611400
  0
VERTEX
  8
0
  6
CONTINUOUS
 10
2.862200
 20
2.607880
  0
VERTEX
  8
0
  6
CONTINUOUS
 10
2.846360
 20
2.603480
  0
VERTEX
  8
0
  6
CONTINUOUS
 10
2.831840
 20
2.598640
  0
VERTEX
  8
0
  6
CONTINUOUS
 10
2.818200
 20
2.592920
  0
VERTEX
  8
0
  6
CONTINUOUS
 10
2.805440
 20
2.586760
  0
VERTEX
  8
0
  6
CONTINUOUS
 10
2.793560
 20
2.579720
  0
VERTEX
  8
0
  6
CONTINUOUS
 10
2.782560
 20
2.571360
  0
VERTEX
  8
0
  6
CONTINUOUS
 10
2.772880
 20
2.562560
  0
VERTEX
  8
0
  6
CONTINUOUS
 10
2.763640
 20
2.553320
  0
VERTEX
  8
0
  6
CONTINUOUS
 10
2.755280
 20
2.542760
  0
VERTEX
  8
0
  6
CONTINUOUS
 10
2.747800
 20
2.531320
  0
VERTEX
  8
0
  6
CONTINUOUS
 10
2.741200
 20
2.519000
  0
VERTEX
  8
0
  6
CONTINUOUS
 10
2.735040
 20
2.505800
  0
VERTEX
  8
0
  6
CONTINUOUS
 10
2.729320
 20
2.491720
  0
VERTEX
  8
0
  6
CONTINUOUS
 10
2.724480
 20
2.476320
  0
VERTEX
  8
0
  6
CONTINUOUS
 10
2.720520
 20
2.460480
  0
VERTEX
  8
0
  6
CONTINUOUS
 10
2.716560
 20
2.443320
  0
VERTEX
  8
0
  6
CONTINUOUS
 10
2.713480
 20
2.424840
  0
VERTEX
  8
0
  6
CONTINUOUS
 10
2.710840
 20
2.405920
  0
VERTEX
  8
0
  6
CONTINUOUS
 10
2.708640
 20
2.385680
  0
VERTEX
  8
0
  6
CONTINUOUS
 10
2.706880
 20
2.364120
  0
VERTEX
  8
0
  6
CONTINUOUS
 10
2.705120
 20
2.341680
  0
VERTEX
  8
0
  6
CONTINUOUS
 10
2.704240
 20
2.317920
  0
VERTEX
  8
0
  6
CONTINUOUS
 10
2.703360
 20
2.293280
  0
VERTEX
  8
0
  6
CONTINUOUS
 10
2.702920
 20
2.267320
  0
VERTEX
  8
0
  6
CONTINUOUS
 10
2.702480
 20
2.240040
  0
VERTEX
  8
0
  6
CONTINUOUS
 10
2.702480
 20
2.211880
  0
VERTEX
  8
0
  6
CONTINUOUS
 10
5.844080
 20
2.211880
  0
VERTEX
  8
0
  6
CONTINUOUS
 10
5.949680
 20
2.211880
  0
VERTEX
  8
0
  6
CONTINUOUS
 10
5.949680
 20
2.212320
  0
SEQEND
  8
0
  0
POLYLINE
  8
0
  6
CONTINUOUS
 66
     1
 40
0.000000
 41
0.000000
  0
VERTEX
  8
0
  6
CONTINUOUS
 10
5.949680
 20
3.270520
  0
VERTEX
  8
0
  6
CONTINUOUS
 10
5.949680
 20
3.773000
  0
VERTEX
  8
0
  6
CONTINUOUS
 10
3.019720
 20
3.773000
  0
VERTEX
  8
0
  6
CONTINUOUS
 10
2.980560
 20
3.677520
  0
VERTEX
  8
0
  6
CONTINUOUS
 10
2.957680
 20
3.677080
  0
VERTEX
  8
0
  6
CONTINUOUS
 10
2.936120
 20
3.676200
  0
VERTEX
  8
0
  6
CONTINUOUS
 10
2.915880
 20
3.674880
  0
VERTEX
  8
0
  6
CONTINUOUS
 10
2.896960
 20
3.672680
  0
VERTEX
  8
0
  6
CONTINUOUS
 10
2.878920
 20
3.670040
  0
VERTEX
  8
0
  6
CONTINUOUS
 10
2.862200
 20
3.666520
  0
VERTEX
  8
0
  6
CONTINUOUS
 10
2.846360
 20
3.662120
  0
VERTEX
  8
0
  6
CONTINUOUS
 10
2.831840
 20
3.657280
  0
VERTEX
  8
0
  6
CONTINUOUS
 10
2.818200
 20
3.651560
  0
VERTEX
  8
0
  6
CONTINUOUS
 10
2.805440
 20
3.645400
  0
VERTEX
  8
0
  6
CONTINUOUS
 10
2.793560
 20
3.637920
  0
VERTEX
  8
0
  6
CONTINUOUS
 10
2.782560
 20
3.630000
  0
VERTEX
  8
0
  6
CONTINUOUS
 10
2.772880
 20
3.621200
  0
VERTEX
  8
0
  6
CONTINUOUS
 10
2.763640
 20
3.611520
  0
VERTEX
  8
0
  6
CONTINUOUS
 10
2.755280
 20
3.600960
  0
VERTEX
  8
0
  6
CONTINUOUS
 10
2.747800
 20
3.589520
  0
VERTEX
  8
0
  6
CONTINUOUS
 10
2.741200
 20
3.577200
  0
VERTEX
  8
0
  6
CONTINUOUS
 10
2.735040
 20
3.564000
  0
VERTEX
  8
0
  6
CONTINUOUS
 10
2.729320
 20
3.549920
  0
VERTEX
  8
0
  6
CONTINUOUS
 10
2.724480
 20
3.534520
  0
VERTEX
  8
0
  6
CONTINUOUS
 10
2.720520
 20
3.518680
  0
VERTEX
  8
0
  6
CONTINUOUS
 10
2.716560
 20
3.501520
  0
VERTEX
  8
0
  6
CONTINUOUS
 10
2.713480
 20
3.483480
  0
VERTEX
  8
0
  6
CONTINUOUS
 10
2.710840
 20
3.464120
  0
VERTEX
  8
0
  6
CONTINUOUS
 10
2.708640
 20
3.443880
  0
VERTEX
  8
0
  6
CONTINUOUS
 10
2.706880
 20
3.422320
  0
VERTEX
  8
0
  6
CONTINUOUS
 10
2.705120
 20
3.399880
  0
VERTEX
  8
0
  6
CONTINUOUS
 10
2.704240
 20
3.376120
  0
VERTEX
  8
0
  6
CONTINUOUS
 10
2.703360
 20
3.351480
  0
VERTEX
  8
0
  6
CONTINUOUS
 10
2.702920
 20
3.325520
  0
VERTEX
  8
0
  6
CONTINUOUS
 10
2.702480
 20
3.298240
  0
VERTEX
  8
0
  6
CONTINUOUS
 10
2.702480
 20
3.270080
  0
VERTEX
  8
0
  6
CONTINUOUS
 10
5.844080
 20
3.270080
  0
VERTEX
  8
0
  6
CONTINUOUS
 10
5.949680
 20
3.270080
  0
VERTEX
  8
0
  6
CONTINUOUS
 10
5.949680
 20
3.270520
  0
SEQEND
  8
0
  0
POLYLINE
  8
0
  6
CONTINUOUS
 66
     1
 40
0.000000
 41
0.000000
  0
VERTEX
  8
0
  6
CONTINUOUS
 10
2.702480
 20
4.329160
  0
VERTEX
  8
0
  6
CONTINUOUS
 10
2.702480
 20
4.831200
  0
VERTEX
  8
0
  6
CONTINUOUS
 10
5.632440
 20
4.831200
  0
VERTEX
  8
0
  6
CONTINUOUS
 10
5.671600
 20
4.735720
  0
VERTEX
  8
0
  6
CONTINUOUS
 10
5.694480
 20
4.735280
  0
VERTEX
  8
0
  6
CONTINUOUS
 10
5.716040
 20
4.734400
  0
VERTEX
  8
0
  6
CONTINUOUS
 10
5.736280
 20
4.733080
  0
VERTEX
  8
0
  6
CONTINUOUS
 10
5.755200
 20
4.730880
  0
VERTEX
  8
0
  6
CONTINUOUS
 10
5.773240
 20
4.728240
  0
VERTEX
  8
0
  6
CONTINUOUS
 10
5.789960
 20
4.724720
  0
VERTEX
  8
0
  6
CONTINUOUS
 10
5.805800
 20
4.720320
  0
VERTEX
  8
0
  6
CONTINUOUS
 10
5.820320
 20
4.715480
  0
VERTEX
  8
0
  6
CONTINUOUS
 10
5.833960
 20
4.709760
  0
VERTEX
  8
0
  6
CONTINUOUS
 10
5.846720
 20
4.703600
  0
VERTEX
  8
0
  6
CONTINUOUS
 10
5.858600
 20
4.696560
  0
VERTEX
  8
0
  6
CONTINUOUS
 10
5.869600
 20
4.688200
  0
VERTEX
  8
0
  6
CONTINUOUS
 10
5.879280
 20
4.679400
  0
VERTEX
  8
0
  6
CONTINUOUS
 10
5.888520
 20
4.670160
  0
VERTEX
  8
0
  6
CONTINUOUS
 10
5.896880
 20
4.659600
  0
VERTEX
  8
0
  6
CONTINUOUS
 10
5.904360
 20
4.648160
  0
VERTEX
  8
0
  6
CONTINUOUS
 10
5.910960
 20
4.635840
  0
VERTEX
  8
0
  6
CONTINUOUS
 10
5.917120
 20
4.622640
  0
VERTEX
  8
0
  6
CONTINUOUS
 10
5.922840
 20
4.608560
  0
VERTEX
  8
0
  6
CONTINUOUS
 10
5.927680
 20
4.593160
  0
VERTEX
  8
0
  6
CONTINUOUS
 10
5.931640
 20
4.577320
  0
VERTEX
  8
0
  6
CONTINUOUS
 10
5.935600
 20
4.560160
  0
VERTEX
  8
0
  6
CONTINUOUS
 10
5.938680
 20
4.541680
  0
VERTEX
  8
0
  6
CONTINUOUS
 10
5.941320
 20
4.522760
  0
VERTEX
  8
0
  6
CONTINUOUS
 10
5.943520
 20
4.502520
  0
VERTEX
  8
0
  6
CONTINUOUS
 10
5.945280
 20
4.480960
  0
VERTEX
  8
0
  6
CONTINUOUS
 10
5.947040
 20
4.458520
  0
VERTEX
  8
0
  6
CONTINUOUS
 10
5.947920
 20
4.434760
  0
VERTEX
  8
0
  6
CONTINUOUS
 10
5.948800
 20
4.410120
  0
VERTEX
  8
0
  6
CONTINUOUS
 10
5.949240
 20
4.384160
  0
VERTEX
  8
0
  6
CONTINUOUS
 10
5.949680
 20
4.356880
  0
VERTEX
  8
0
  6
CONTINUOUS
 10
5.949680
 20
4.328720
  0
VERTEX
  8
0
  6
CONTINUOUS
 10
2.808080
 20
4.328720
  0
VERTEX
  8
0
  6
CONTINUOUS
 10
2.702480
 20
4.328720
  0
VERTEX
  8
0
  6
CONTINUOUS
 10
2.702480
 20
4.329160
  0
SEQEND
  8
0
  0
SOLID
  8
0
 62
    15
 10
5.513640
 20
7.329960
 11
6.152080
 21
7.701760
 12
5.529480
 22
7.307960
 13
6.167920
 23
7.679760
  0
POLYLINE
  8
0
  6
CONTINUOUS
 66
     1
 40
0.000000
 41
0.000000
  0
VERTEX
  8
0
  6
CONTINUOUS
 10
5.513640
 20
7.329960
  0
VERTEX
  8
0
  6
CONTINUOUS
 10
6.152080
 20
7.701760
  0
VERTEX
  8
0
  6
CONTINUOUS
 10
6.167920
 20
7.679760
  0
VERTEX
  8
0
  6
CONTINUOUS
 10
5.529480
 20
7.307960
  0
VERTEX
  8
0
  6
CONTINUOUS
 10
5.513640
 20
7.329960
  0
SEQEND
  8
0
  0
SOLID
  8
0
 62
    15
 10
5.257560
 20
7.491000
 11
5.896000
 21
7.862800
 12
5.297160
 22
7.395520
 13
5.935600
 23
7.767320
  0
POLYLINE
  8
0
  6
CONTINUOUS
 66
     1
 40
0.000000
 41
0.000000
  0
VERTEX
  8
0
  6
CONTINUOUS
 10
5.257560
 20
7.491000
  0
VERTEX
  8
0
  6
CONTINUOUS
 10
5.896000
 20
7.862800
  0
VERTEX
  8
0
  6
CONTINUOUS
 10
5.935600
 20
7.767320
  0
VERTEX
  8
0
  6
CONTINUOUS
 10
5.297160
 20
7.395520
  0
VERTEX
  8
0
  6
CONTINUOUS
 10
5.257560
 20
7.491000
  0
SEQEND
  8
0
  0
SOLID
  8
0
 62
    15
 10
5.297160
 20
7.395520
 11
5.935600
 21
7.767320
 12
5.341160
 22
7.394640
 13
5.979600
 23
7.766440
  0
POLYLINE
  8
0
  6
CONTINUOUS
 66
     1
 40
0.000000
 41
0.000000
  0
VERTEX
  8
0
  6
CONTINUOUS
 10
5.297160
 20
7.395520
  0
VERTEX
  8
0
  6
CONTINUOUS
 10
5.935600
 20
7.767320
  0
VERTEX
  8
0
  6
CONTINUOUS
 10
5.979600
 20
7.766440
  0
VERTEX
  8
0
  6
CONTINUOUS
 10
5.341160
 20
7.394640
  0
VERTEX
  8
0
  6
CONTINUOUS
 10
5.297160
 20
7.395520
  0
SEQEND
  8
0
  0
SOLID
  8
0
 62
    15
 10
5.341160
 20
7.394640
 11
5.979600
 21
7.766440
 12
5.380760
 22
7.390680
 13
6.019200
 23
7.762920
  0
POLYLINE
  8
0
  6
CONTINUOUS
 66
     1
 40
0.000000
 41
0.000000
  0
VERTEX
  8
0
  6
CONTINUOUS
 10
5.341160
 20
7.394640
  0
VERTEX
  8
0
  6
CONTINUOUS
 10
5.979600
 20
7.766440
  0
VERTEX
  8
0
  6
CONTINUOUS
 10
6.019200
 20
7.762920
  0
VERTEX
  8
0
  6
CONTINUOUS
 10
5.380760
 20
7.390680
  0
VERTEX
  8
0
  6
CONTINUOUS
 10
5.341160
 20
7.394640
  0
SEQEND
  8
0
  0
SOLID
  8
0
 62
    15
 10
5.380760
 20
7.390680
 11
6.019200
 21
7.762920
 12
5.415520
 22
7.384520
 13
6.053960
 23
7.756320
  0
POLYLINE
  8
0
  6
CONTINUOUS
 66
     1
 40
0.000000
 41
0.000000
  0
VERTEX
  8
0
  6
CONTINUOUS
 10
5.380760
 20
7.390680
  0
VERTEX
  8
0
  6
CONTINUOUS
 10
6.019200
 20
7.762920
  0
VERTEX
  8
0
  6
CONTINUOUS
 10
6.053960
 20
7.756320
  0
VERTEX
  8
0
  6
CONTINUOUS
 10
5.415520
 20
7.384520
  0
VERTEX
  8
0
  6
CONTINUOUS
 10
5.380760
 20
7.390680
  0
SEQEND
  8
0
  0
SOLID
  8
0
 62
    15
 10
5.415520
 20
7.384520
 11
6.053960
 21
7.756320
 12
5.445880
 22
7.375280
 13
6.084320
 23
7.747520
  0
POLYLINE
  8
0
  6
CONTINUOUS
 66
     1
 40
0.000000
 41
0.000000
  0
VERTEX
  8
0
  6
CONTINUOUS
 10
5.415520
 20
7.384520
  0
VERTEX
  8
0
  6
CONTINUOUS
 10
6.053960
 20
7.756320
  0
VERTEX
  8
0
  6
CONTINUOUS
 10
6.084320
 20
7.747520
  0
VERTEX
  8
0
  6
CONTINUOUS
 10
5.445880
 20
7.375280
  0
VERTEX
  8
0
  6
CONTINUOUS
 10
5.415520
 20
7.384520
  0
SEQEND
  8
0
  0
SOLID
  8
0
 62
    15
 10
5.445880
 20
7.375280
 11
6.084320
 21
7.747520
 12
5.472280
 22
7.363400
 13
6.110720
 23
7.735200
  0
POLYLINE
  8
0
  6
CONTINUOUS
 66
     1
 40
0.000000
 41
0.000000
  0
VERTEX
  8
0
  6
CONTINUOUS
 10
5.445880
 20
7.375280
  0
VERTEX
  8
0
  6
CONTINUOUS
 10
6.084320
 20
7.747520
  0
VERTEX
  8
0
  6
CONTINUOUS
 10
6.110720
 20
7.735200
  0
VERTEX
  8
0
  6
CONTINUOUS
 10
5.472280
 20
7.363400
  0
VERTEX
  8
0
  6
CONTINUOUS
 10
5.445880
 20
7.375280
  0
SEQEND
  8
0
  0
SOLID
  8
0
 62
    15
 10
5.472280
 20
7.363400
 11
6.110720
 21
7.735200
 12
5.494720
 22
7.348440
 13
6.133160
 23
7.720240
  0
POLYLINE
  8
0
  6
CONTINUOUS
 66
     1
 40
0.000000
 41
0.000000
  0
VERTEX
  8
0
  6
CONTINUOUS
 10
5.472280
 20
7.363400
  0
VERTEX
  8
0
  6
CONTINUOUS
 10
6.110720
 20
7.735200
  0
VERTEX
  8
0
  6
CONTINUOUS
 10
6.133160
 20
7.720240
  0
VERTEX
  8
0
  6
CONTINUOUS
 10
5.494720
 20
7.348440
  0
VERTEX
  8
0
  6
CONTINUOUS
 10
5.472280
 20
7.363400
  0
SEQEND
  8
0
  0
SOLID
  8
0
 62
    15
 10
5.494720
 20
7.348440
 11
6.133160
 21
7.720240
 12
5.513640
 22
7.329960
 13
6.152080
 23
7.701760
  0
POLYLINE
  8
0
  6
CONTINUOUS
 66
     1
 40
0.000000
 41
0.000000
  0
VERTEX
  8
0
  6
CONTINUOUS
 10
5.494720
 20
7.348440
  0
VERTEX
  8
0
  6
CONTINUOUS
 10
6.133160
 20
7.720240
  0
VERTEX
  8
0
  6
CONTINUOUS
 10
6.152080
 20
7.701760
  0
VERTEX
  8
0
  6
CONTINUOUS
 10
5.513640
 20
7.329960
  0
VERTEX
  8
0
  6
CONTINUOUS
 10
5.494720
 20
7.348440
  0
SEQEND
  8
0
  0
SOLID
  8
0
 62
    15
 10
2.327600
 20
7.491000
 11
2.966040
 21
7.862800
 12
5.257560
 22
7.491000
 13
5.896000
 23
7.862800
  0
POLYLINE
  8
0
  6
CONTINUOUS
 66
     1
 40
0.000000
 41
0.000000
  0
VERTEX
  8
0
  6
CONTINUOUS
 10
2.327600
 20
7.491000
  0
VERTEX
  8
0
  6
CONTINUOUS
 10
2.966040
 20
7.862800
  0
VERTEX
  8
0
  6
CONTINUOUS
 10
5.896000
 20
7.862800
  0
VERTEX
  8
0
  6
CONTINUOUS
 10
5.257560
 20
7.491000
  0
VERTEX
  8
0
  6
CONTINUOUS
 10
2.327600
 20
7.491000
  0
SEQEND
  8
0
  0
SOLID
  8
0
 62
    15
 10
5.529480
 20
7.307960
 11
6.167920
 21
7.679760
 12
5.542680
 22
7.282440
 13
6.181120
 23
7.654240
  0
POLYLINE
  8
0
  6
CONTINUOUS
 66
     1
 40
0.000000
 41
0.000000
  0
VERTEX
  8
0
  6
CONTINUOUS
 10
5.529480
 20
7.307960
  0
VERTEX
  8
0
  6
CONTINUOUS
 10
6.167920
 20
7.679760
  0
VERTEX
  8
0
  6
CONTINUOUS
 10
6.181120
 20
7.654240
  0
VERTEX
  8
0
  6
CONTINUOUS
 10
5.542680
 20
7.282440
  0
VERTEX
  8
0
  6
CONTINUOUS
 10
5.529480
 20
7.307960
  0
SEQEND
  8
0
  0
SOLID
  8
0
 62
    15
 10
5.542680
 20
7.282440
 11
6.181120
 21
7.654240
 12
5.552800
 22
7.252960
 13
6.191240
 23
7.625200
  0
POLYLINE
  8
0
  6
CONTINUOUS
 66
     1
 40
0.000000
 41
0.000000
  0
VERTEX
  8
0
  6
CONTINUOUS
 10
5.542680
 20
7.282440
  0
VERTEX
  8
0
  6
CONTINUOUS
 10
6.181120
 20
7.654240
  0
VERTEX
  8
0
  6
CONTINUOUS
 10
6.191240
 20
7.625200
  0
VERTEX
  8
0
  6
CONTINUOUS
 10
5.552800
 20
7.252960
  0
VERTEX
  8
0
  6
CONTINUOUS
 10
5.542680
 20
7.282440
  0
SEQEND
  8
0
  0
SOLID
  8
0
 62
    15
 10
5.552800
 20
7.252960
 11
6.191240
 21
7.625200
 12
5.560720
 22
7.219960
 13
6.199160
 23
7.591760
  0
POLYLINE
  8
0
  6
CONTINUOUS
 66
     1
 40
0.000000
 41
0.000000
  0
VERTEX
  8
0
  6
CONTINUOUS
 10
5.552800
 20
7.252960
  0
VERTEX
  8
0
  6
CONTINUOUS
 10
6.191240
 20
7.625200
  0
VERTEX
  8
0
  6
CONTINUOUS
 10
6.199160
 20
7.591760
  0
VERTEX
  8
0
  6
CONTINUOUS
 10
5.560720
 20
7.219960
  0
VERTEX
  8
0
  6
CONTINUOUS
 10
5.552800
 20
7.252960
  0
SEQEND
  8
0
  0
SOLID
  8
0
 62
    15
 10
5.560720
 20
7.219960
 11
6.199160
 21
7.591760
 12
5.566440
 22
7.182560
 13
6.204880
 23
7.554360
  0
POLYLINE
  8
0
  6
CONTINUOUS
 66
     1
 40
0.000000
 41
0.000000
  0
VERTEX
  8
0
  6
CONTINUOUS
 10
5.560720
 20
7.219960
  0
VERTEX
  8
0
  6
CONTINUOUS
 10
6.199160
 20
7.591760
  0
VERTEX
  8
0
  6
CONTINUOUS
 10
6.204880
 20
7.554360
  0
VERTEX
  8
0
  6
CONTINUOUS
 10
5.566440
 20
7.182560
  0
VERTEX
  8
0
  6
CONTINUOUS
 10
5.560720
 20
7.219960
  0
SEQEND
  8
0
  0
SOLID
  8
0
 62
    15
 10
5.566440
 20
7.182560
 11
6.204880
 21
7.554360
 12
5.570840
 22
7.140760
 13
6.208840
 23
7.513000
  0
POLYLINE
  8
0
  6
CONTINUOUS
 66
     1
 40
0.000000
 41
0.000000
  0
VERTEX
  8
0
  6
CONTINUOUS
 10
5.566440
 20
7.182560
  0
VERTEX
  8
0
  6
CONTINUOUS
 10
6.204880
 20
7.554360
  0
VERTEX
  8
0
  6
CONTINUOUS
 10
6.208840
 20
7.513000
  0
VERTEX
  8
0
  6
CONTINUOUS
 10
5.570840
 20
7.140760
  0
VERTEX
  8
0
  6
CONTINUOUS
 10
5.566440
 20
7.182560
  0
SEQEND
  8
0
  0
SOLID
  8
0
 62
    15
 10
5.570840
 20
7.140760
 11
6.208840
 21
7.513000
 12
5.573040
 22
7.094560
 13
6.211480
 23
7.466800
  0
POLYLINE
  8
0
  6
CONTINUOUS
 66
     1
 40
0.000000
 41
0.000000
  0
VERTEX
  8
0
  6
CONTINUOUS
 10
5.570840
 20
7.140760
  0
VERTEX
  8
0
  6
CONTINUOUS
 10
6.208840
 20
7.513000
  0
VERTEX
  8
0
  6
CONTINUOUS
 10
6.211480
 20
7.466800
  0
VERTEX
  8
0
  6
CONTINUOUS
 10
5.573040
 20
7.094560
  0
VERTEX
  8
0
  6
CONTINUOUS
 10
5.570840
 20
7.140760
  0
SEQEND
  8
0
  0
SOLID
  8
0
 62
    15
 10
5.573040
 20
7.094560
 11
6.211480
 21
7.466800
 12
5.574360
 22
7.043960
 13
6.212800
 23
7.416200
  0
POLYLINE
  8
0
  6
CONTINUOUS
 66
     1
 40
0.000000
 41
0.000000
  0
VERTEX
  8
0
  6
CONTINUOUS
 10
5.573040
 20
7.094560
  0
VERTEX
  8
0
  6
CONTINUOUS
 10
6.211480
 20
7.466800
  0
VERTEX
  8
0
  6
CONTINUOUS
 10
6.212800
 20
7.416200
  0
VERTEX
  8
0
  6
CONTINUOUS
 10
5.574360
 20
7.043960
  0
VERTEX
  8
0
  6
CONTINUOUS
 10
5.573040
 20
7.094560
  0
SEQEND
  8
0
  0
SOLID
  8
0
 62
    15
 10
5.574360
 20
7.043960
 11
6.212800
 21
7.416200
 12
5.574800
 22
6.988520
 13
6.213240
 23
7.360320
  0
POLYLINE
  8
0
  6
CONTINUOUS
 66
     1
 40
0.000000
 41
0.000000
  0
VERTEX
  8
0
  6
CONTINUOUS
 10
5.574360
 20
7.043960
  0
VERTEX
  8
0
  6
CONTINUOUS
 10
6.212800
 20
7.416200
  0
VERTEX
  8
0
  6
CONTINUOUS
 10
6.213240
 20
7.360320
  0
VERTEX
  8
0
  6
CONTINUOUS
 10
5.574800
 20
6.988520
  0
VERTEX
  8
0
  6
CONTINUOUS
 10
5.574360
 20
7.043960
  0
SEQEND
  8
0
  0
POLYLINE
  8
0
  6
CONTINUOUS
 66
     1
 40
0.000000
 41
0.000000
  0
VERTEX
  8
0
  6
CONTINUOUS
 10
2.327600
 20
6.988960
  0
VERTEX
  8
0
  6
CONTINUOUS
 10
2.327600
 20
7.491000
  0
VERTEX
  8
0
  6
CONTINUOUS
 10
5.257560
 20
7.491000
  0
VERTEX
  8
0
  6
CONTINUOUS
 10
5.297160
 20
7.395520
  0
VERTEX
  8
0
  6
CONTINUOUS
 10
5.341160
 20
7.394640
  0
VERTEX
  8
0
  6
CONTINUOUS
 10
5.380760
 20
7.390680
  0
VERTEX
  8
0
  6
CONTINUOUS
 10
5.415520
 20
7.384520
  0
VERTEX
  8
0
  6
CONTINUOUS
 10
5.445880
 20
7.375280
  0
VERTEX
  8
0
  6
CONTINUOUS
 10
5.472280
 20
7.363400
  0
VERTEX
  8
0
  6
CONTINUOUS
 10
5.494720
 20
7.348440
  0
VERTEX
  8
0
  6
CONTINUOUS
 10
5.513640
 20
7.329960
  0
VERTEX
  8
0
  6
CONTINUOUS
 10
5.529480
 20
7.307960
  0
VERTEX
  8
0
  6
CONTINUOUS
 10
5.542680
 20
7.282440
  0
VERTEX
  8
0
  6
CONTINUOUS
 10
5.552800
 20
7.252960
  0
VERTEX
  8
0
  6
CONTINUOUS
 10
5.560720
 20
7.219960
  0
VERTEX
  8
0
  6
CONTINUOUS
 10
5.566440
 20
7.182560
  0
VERTEX
  8
0
  6
CONTINUOUS
 10
5.570840
 20
7.140760
  0
VERTEX
  8
0
  6
CONTINUOUS
 10
5.573040
 20
7.094560
  0
VERTEX
  8
0
  6
CONTINUOUS
 10
5.574360
 20
7.043960
  0
VERTEX
  8
0
  6
CONTINUOUS
 10
5.574800
 20
6.988520
  0
VERTEX
  8
0
  6
CONTINUOUS
 10
2.327600
 20
6.988520
  0
VERTEX
  8
0
  6
CONTINUOUS
 10
2.327600
 20
6.988960
  0
SEQEND
  8
0
  0
TEXT
  8
0
 10
3.928760
 20
6.722760
 40
0.138209
  1
BA  1229
 41
1.000000
  7
SN0
 71
     0
 72
     5
 11
4.612085
 21
6.722760
  0
TEXT
  8
0
 10
3.819200
 20
6.530920
 40
0.138209
  1
1/2" x 3-1/4"
 41
1.000000
  7
SN0
 71
     0
 72
     5
 11
4.720785
 21
6.530920
  0
TEXT
  8
0
 10
4.563240
 20
8.724760
 40
0.138209
  1
BA  1229
 41
1.000000
  7
SN0
 71
     0
 72
     5
 11
5.246565
 21
8.724760
  0
TEXT
  8
0
 10
4.453680
 20
8.533360
 40
0.138209
  1
1/2" x 3-1/4"
 41
1.000000
  7
SN0
 71
     0
 72
     5
 11
5.355265
 21
8.533360
  0
ENDSEC
  0
EOF
