  0
SECTION
  2
HEADER
  9
$ACADVER
  1
AC1006
  9
$EXTMIN
 10
1.417240
 20
2.887280
  9
$EXTMAX
 10
7.045720
 20
9.275200
  9
$LTSCALE
 40
0.044000
  9
$PDMODE
 70
    35
  9
$PDSIZE
 40
0.035200
  0
ENDSEC
  0
SECTION
  2
TABLES
  0
TABLE
  2
LTYPE
 70
     9
  0
LTYPE
  2
CONTINUOUS
 70
    64
  3
Solid line
 72
    65
 73
     0
 40
0.000000
  0
LTYPE
  2
DASHED
 70
    64
  3
__ __ __ __ __ __ __ __ __ __ __ __ __ __ __
 72
    65
 73
     2
 40
0.000330
 49
0.000220
 49
-0.000110
  0
LTYPE
  2
HIDDEN
 70
    64
  3
 _ _ _ _ _ _ _ _ _ _ _ _ _ _ _ _ _ _ _ _ _ _
 72
    65
 73
     2
 40
0.000165
 49
0.000110
 49
-0.000055
  0
LTYPE
  2
CENTER
 70
    64
  3
____ _ ____ _ ____ _ ____ _ ____ _ ____ _ ____
 72
    65
 73
     4
 40
0.000880
 49
0.000550
 49
-0.000110
 49
0.000110
 49
-0.000110
  0
LTYPE
  2
PHANTOM
 70
    64
  3
_____ _ _ _____ _ _ _____ _ _ _____ _ _ ____
 72
    65
 73
     6
 40
0.001100
 49
0.000550
 49
-0.000110
 49
0.000110
 49
-0.000110
 49
0.000110
 49
-0.000110
  0
LTYPE
  2
DOT
 70
    64
  3
...............................................
 72
    65
 73
     2
 40
0.000110
 49
0.000000
 49
-0.000110
  0
LTYPE
  2
DASHDOT
 70
    64
  3
__ . __ . __ . __ . __ . __ . __ . __ . __ . __
 72
    65
 73
     4
 40
0.000440
 49
0.000220
 49
-0.000110
 49
0.000000
 49
-0.000110
  0
LTYPE
  2
BORDER
 70
    64
  3
__ __ . __ __ . __ __ . __ __ . __ __ . __ __
 72
    65
 73
     6
 40
0.000770
 49
0.000220
 49
-0.000110
 49
0.000220
 49
-0.000110
 49
0.000000
 49
-0.000110
  0
LTYPE
  2
DIVIDE
 70
    64
  3
__ . . __ . . __ . . __ . . __ . . __ . . __
 72
    65
 73
     6
 40
0.000550
 49
0.000220
 49
-0.000110
 49
0.000000
 49
-0.000110
 49
0.000000
 49
-0.000110
  0
LTYPE
  2
DOTDOT
 70
    64
  3
 . .  . .  . .  . .  . .  . . 
 72
    65
 73
     5
 40
0.000242
 49
-0.000110
 49
0.000000
 49
-0.000110
 49
0.000000
 49
-0.000110
  0
ENDTAB
  0
TABLE
  2
STYLE
 70
     2
  0
STYLE
 70
     0
  2
SN0
 40
0.000000
 41
0.000440
 50
0.000000
 71
     0
 42
0.000000
  3
ROMAND
  0
STYLE
 70
    68
  2
SV0
 40
0.000000
 41
0.000440
 50
0.000000
 71
     0
 42
0.000000
  3
ROMAND
  0
ENDTAB
  0
TABLE
  2
LAYER
 70
     3
  0
LAYER
  2
FOREGROUND
 70
    64
 62
     7
  6
CONTINUOUS
  0
LAYER
  2
BACKGROUND
 70
    65
 62
    -7
  6
CONTINUOUS
  0
LAYER
  2
0
 70
    64
 62
     7
  6
CONTINUOUS
  0
ENDTAB
  0
ENDSEC
  0
SECTION
  2
ENTITIES
  0
POLYLINE
  8
FOREGROUND
  6
CONTINUOUS
 66
     1
 40
0.000000
 41
0.000000
  0
VERTEX
  8
FOREGROUND
  6
CONTINUOUS
 10
0.000000
 20
12.162480
  0
VERTEX
  8
FOREGROUND
  6
CONTINUOUS
 10
8.499920
 20
12.162480
  0
VERTEX
  8
FOREGROUND
  6
CONTINUOUS
 10
8.499920
 20
1.162480
  0
VERTEX
  8
FOREGROUND
  6
CONTINUOUS
 10
0.000000
 20
1.162480
  0
VERTEX
  8
FOREGROUND
  6
CONTINUOUS
 10
0.000000
 20
12.162480
  0
SEQEND
  8
0
  0
POLYLINE
  8
FOREGROUND
  6
CONTINUOUS
 66
     1
 40
0.000000
 41
0.000000
  0
VERTEX
  8
FOREGROUND
  6
CONTINUOUS
 10
0.000000
 20
12.162480
  0
VERTEX
  8
FOREGROUND
  6
CONTINUOUS
 10
8.499920
 20
12.162480
  0
VERTEX
  8
FOREGROUND
  6
CONTINUOUS
 10
8.499920
 20
1.162480
  0
VERTEX
  8
FOREGROUND
  6
CONTINUOUS
 10
0.000000
 20
1.162480
  0
VERTEX
  8
FOREGROUND
  6
CONTINUOUS
 10
0.000000
 20
12.162480
  0
SEQEND
  8
0
  0
POLYLINE
  8
0
  6
CONTINUOUS
 66
     1
 40
0.014080
 41
0.014080
  0
VERTEX
  8
0
  6
CONTINUOUS
 10
7.038240
 20
8.526320
  0
VERTEX
  8
0
  6
CONTINUOUS
 10
7.038240
 20
8.519280
  0
VERTEX
  8
0
  6
CONTINUOUS
 10
1.491600
 20
8.519280
  0
VERTEX
  8
0
  6
CONTINUOUS
 10
1.491600
 20
9.267720
  0
VERTEX
  8
0
  6
CONTINUOUS
 10
6.455680
 20
9.267720
  0
VERTEX
  8
0
  6
CONTINUOUS
 10
6.455680
 20
9.104040
  0
VERTEX
  8
0
  6
CONTINUOUS
 10
6.492640
 20
9.102720
  0
VERTEX
  8
0
  6
CONTINUOUS
 10
6.526960
 20
9.098320
  0
VERTEX
  8
0
  6
CONTINUOUS
 10
6.572280
 20
9.087760
  0
VERTEX
  8
0
  6
CONTINUOUS
 10
6.611880
 20
9.073240
  0
VERTEX
  8
0
  6
CONTINUOUS
 10
6.655440
 20
9.049040
  0
VERTEX
  8
0
  6
CONTINUOUS
 10
6.689320
 20
9.022640
  0
VERTEX
  8
0
  6
CONTINUOUS
 10
6.714840
 20
8.996240
  0
VERTEX
  8
0
  6
CONTINUOUS
 10
6.741680
 20
8.959280
  0
VERTEX
  8
0
  6
CONTINUOUS
 10
6.755760
 20
8.937720
  0
VERTEX
  8
0
  6
CONTINUOUS
 10
6.783920
 20
8.910000
  0
VERTEX
  8
0
  6
CONTINUOUS
 10
6.812080
 20
8.888440
  0
VERTEX
  8
0
  6
CONTINUOUS
 10
6.848600
 20
8.866880
  0
VERTEX
  8
0
  6
CONTINUOUS
 10
6.892600
 20
8.847520
  0
VERTEX
  8
0
  6
CONTINUOUS
 10
6.930880
 20
8.835640
  0
VERTEX
  8
0
  6
CONTINUOUS
 10
6.974000
 20
8.826840
  0
VERTEX
  8
0
  6
CONTINUOUS
 10
7.021520
 20
8.822880
  0
VERTEX
  8
0
  6
CONTINUOUS
 10
7.038240
 20
8.822440
  0
VERTEX
  8
0
  6
CONTINUOUS
 10
7.038240
 20
8.526320
  0
SEQEND
  8
0
  0
SOLID
  8
0
 62
    15
 10
6.724080
 20
6.732440
 11
6.726280
 21
7.472080
 12
6.732000
 22
6.719240
 13
6.734640
 23
7.458440
  0
POLYLINE
  8
0
  6
CONTINUOUS
 66
     1
 40
0.000000
 41
0.000000
  0
VERTEX
  8
0
  6
CONTINUOUS
 10
6.724080
 20
6.732440
  0
VERTEX
  8
0
  6
CONTINUOUS
 10
6.726280
 20
7.472080
  0
VERTEX
  8
0
  6
CONTINUOUS
 10
6.734640
 20
7.458440
  0
VERTEX
  8
0
  6
CONTINUOUS
 10
6.732000
 20
6.719240
  0
VERTEX
  8
0
  6
CONTINUOUS
 10
6.724080
 20
6.732440
  0
SEQEND
  8
0
  0
SOLID
  8
0
 62
    15
 10
6.440720
 20
6.873240
 11
6.442920
 21
7.612440
 12
6.477680
 22
6.871480
 13
6.480320
 23
7.611120
  0
POLYLINE
  8
0
  6
CONTINUOUS
 66
     1
 40
0.000000
 41
0.000000
  0
VERTEX
  8
0
  6
CONTINUOUS
 10
6.440720
 20
6.873240
  0
VERTEX
  8
0
  6
CONTINUOUS
 10
6.442920
 20
7.612440
  0
VERTEX
  8
0
  6
CONTINUOUS
 10
6.480320
 20
7.611120
  0
VERTEX
  8
0
  6
CONTINUOUS
 10
6.477680
 20
6.871480
  0
VERTEX
  8
0
  6
CONTINUOUS
 10
6.440720
 20
6.873240
  0
SEQEND
  8
0
  0
SOLID
  8
0
 62
    15
 10
6.440720
 20
7.036480
 11
6.442920
 21
7.776120
 12
6.440720
 22
6.873240
 13
6.442920
 23
7.612440
  0
POLYLINE
  8
0
  6
CONTINUOUS
 66
     1
 40
0.000000
 41
0.000000
  0
VERTEX
  8
0
  6
CONTINUOUS
 10
6.440720
 20
7.036480
  0
VERTEX
  8
0
  6
CONTINUOUS
 10
6.442920
 20
7.776120
  0
VERTEX
  8
0
  6
CONTINUOUS
 10
6.442920
 20
7.612440
  0
VERTEX
  8
0
  6
CONTINUOUS
 10
6.440720
 20
6.873240
  0
VERTEX
  8
0
  6
CONTINUOUS
 10
6.440720
 20
7.036480
  0
SEQEND
  8
0
  0
SOLID
  8
0
 62
    15
 10
1.476640
 20
7.036480
 11
1.478840
 21
7.776120
 12
6.440720
 22
7.036480
 13
6.442920
 23
7.776120
  0
POLYLINE
  8
0
  6
CONTINUOUS
 66
     1
 40
0.000000
 41
0.000000
  0
VERTEX
  8
0
  6
CONTINUOUS
 10
1.476640
 20
7.036480
  0
VERTEX
  8
0
  6
CONTINUOUS
 10
1.478840
 20
7.776120
  0
VERTEX
  8
0
  6
CONTINUOUS
 10
6.442920
 20
7.776120
  0
VERTEX
  8
0
  6
CONTINUOUS
 10
6.440720
 20
7.036480
  0
VERTEX
  8
0
  6
CONTINUOUS
 10
1.476640
 20
7.036480
  0
SEQEND
  8
0
  0
SOLID
  8
0
 62
    15
 10
6.477680
 20
6.871480
 11
6.480320
 21
7.611120
 12
6.512000
 22
6.867520
 13
6.514200
 23
7.606720
  0
POLYLINE
  8
0
  6
CONTINUOUS
 66
     1
 40
0.000000
 41
0.000000
  0
VERTEX
  8
0
  6
CONTINUOUS
 10
6.477680
 20
6.871480
  0
VERTEX
  8
0
  6
CONTINUOUS
 10
6.480320
 20
7.611120
  0
VERTEX
  8
0
  6
CONTINUOUS
 10
6.514200
 20
7.606720
  0
VERTEX
  8
0
  6
CONTINUOUS
 10
6.512000
 20
6.867520
  0
VERTEX
  8
0
  6
CONTINUOUS
 10
6.477680
 20
6.871480
  0
SEQEND
  8
0
  0
SOLID
  8
0
 62
    15
 10
6.512000
 20
6.867520
 11
6.514200
 21
7.606720
 12
6.571400
 22
6.852560
 13
6.573600
 23
7.591760
  0
POLYLINE
  8
0
  6
CONTINUOUS
 66
     1
 40
0.000000
 41
0.000000
  0
VERTEX
  8
0
  6
CONTINUOUS
 10
6.512000
 20
6.867520
  0
VERTEX
  8
0
  6
CONTINUOUS
 10
6.514200
 20
7.606720
  0
VERTEX
  8
0
  6
CONTINUOUS
 10
6.573600
 20
7.591760
  0
VERTEX
  8
0
  6
CONTINUOUS
 10
6.571400
 20
6.852560
  0
VERTEX
  8
0
  6
CONTINUOUS
 10
6.512000
 20
6.867520
  0
SEQEND
  8
0
  0
SOLID
  8
0
 62
    15
 10
6.571400
 20
6.852560
 11
6.573600
 21
7.591760
 12
6.619800
 22
6.830560
 13
6.622000
 23
7.570200
  0
POLYLINE
  8
0
  6
CONTINUOUS
 66
     1
 40
0.000000
 41
0.000000
  0
VERTEX
  8
0
  6
CONTINUOUS
 10
6.571400
 20
6.852560
  0
VERTEX
  8
0
  6
CONTINUOUS
 10
6.573600
 20
7.591760
  0
VERTEX
  8
0
  6
CONTINUOUS
 10
6.622000
 20
7.570200
  0
VERTEX
  8
0
  6
CONTINUOUS
 10
6.619800
 20
6.830560
  0
VERTEX
  8
0
  6
CONTINUOUS
 10
6.571400
 20
6.852560
  0
SEQEND
  8
0
  0
SOLID
  8
0
 62
    15
 10
6.619800
 20
6.830560
 11
6.622000
 21
7.570200
 12
6.658520
 22
6.805040
 13
6.660720
 23
7.544240
  0
POLYLINE
  8
0
  6
CONTINUOUS
 66
     1
 40
0.000000
 41
0.000000
  0
VERTEX
  8
0
  6
CONTINUOUS
 10
6.619800
 20
6.830560
  0
VERTEX
  8
0
  6
CONTINUOUS
 10
6.622000
 20
7.570200
  0
VERTEX
  8
0
  6
CONTINUOUS
 10
6.660720
 20
7.544240
  0
VERTEX
  8
0
  6
CONTINUOUS
 10
6.658520
 20
6.805040
  0
VERTEX
  8
0
  6
CONTINUOUS
 10
6.619800
 20
6.830560
  0
SEQEND
  8
0
  0
SOLID
  8
0
 62
    15
 10
6.658520
 20
6.805040
 11
6.660720
 21
7.544240
 12
6.688000
 22
6.778200
 13
6.690640
 23
7.517840
  0
POLYLINE
  8
0
  6
CONTINUOUS
 66
     1
 40
0.000000
 41
0.000000
  0
VERTEX
  8
0
  6
CONTINUOUS
 10
6.658520
 20
6.805040
  0
VERTEX
  8
0
  6
CONTINUOUS
 10
6.660720
 20
7.544240
  0
VERTEX
  8
0
  6
CONTINUOUS
 10
6.690640
 20
7.517840
  0
VERTEX
  8
0
  6
CONTINUOUS
 10
6.688000
 20
6.778200
  0
VERTEX
  8
0
  6
CONTINUOUS
 10
6.658520
 20
6.805040
  0
SEQEND
  8
0
  0
SOLID
  8
0
 62
    15
 10
6.688000
 20
6.778200
 11
6.690640
 21
7.517840
 12
6.709560
 22
6.753120
 13
6.712200
 23
7.492760
  0
POLYLINE
  8
0
  6
CONTINUOUS
 66
     1
 40
0.000000
 41
0.000000
  0
VERTEX
  8
0
  6
CONTINUOUS
 10
6.688000
 20
6.778200
  0
VERTEX
  8
0
  6
CONTINUOUS
 10
6.690640
 20
7.517840
  0
VERTEX
  8
0
  6
CONTINUOUS
 10
6.712200
 20
7.492760
  0
VERTEX
  8
0
  6
CONTINUOUS
 10
6.709560
 20
6.753120
  0
VERTEX
  8
0
  6
CONTINUOUS
 10
6.688000
 20
6.778200
  0
SEQEND
  8
0
  0
SOLID
  8
0
 62
    15
 10
6.709560
 20
6.753120
 11
6.712200
 21
7.492760
 12
6.724080
 22
6.732440
 13
6.726280
 23
7.472080
  0
POLYLINE
  8
0
  6
CONTINUOUS
 66
     1
 40
0.000000
 41
0.000000
  0
VERTEX
  8
0
  6
CONTINUOUS
 10
6.709560
 20
6.753120
  0
VERTEX
  8
0
  6
CONTINUOUS
 10
6.712200
 20
7.492760
  0
VERTEX
  8
0
  6
CONTINUOUS
 10
6.726280
 20
7.472080
  0
VERTEX
  8
0
  6
CONTINUOUS
 10
6.724080
 20
6.732440
  0
VERTEX
  8
0
  6
CONTINUOUS
 10
6.709560
 20
6.753120
  0
SEQEND
  8
0
  0
SOLID
  8
0
 62
    15
 10
7.023720
 20
6.295080
 11
7.025920
 21
7.034720
 12
7.023720
 22
6.288480
 13
7.025920
 23
7.027680
  0
POLYLINE
  8
0
  6
CONTINUOUS
 66
     1
 40
0.000000
 41
0.000000
  0
VERTEX
  8
0
  6
CONTINUOUS
 10
7.023720
 20
6.295080
  0
VERTEX
  8
0
  6
CONTINUOUS
 10
7.025920
 20
7.034720
  0
VERTEX
  8
0
  6
CONTINUOUS
 10
7.025920
 20
7.027680
  0
VERTEX
  8
0
  6
CONTINUOUS
 10
7.023720
 20
6.288480
  0
VERTEX
  8
0
  6
CONTINUOUS
 10
7.023720
 20
6.295080
  0
SEQEND
  8
0
  0
SOLID
  8
0
 62
    15
 10
6.732000
 20
6.719240
 11
6.734640
 21
7.458440
 12
6.741240
 22
6.706920
 13
6.743440
 23
7.446120
  0
POLYLINE
  8
0
  6
CONTINUOUS
 66
     1
 40
0.000000
 41
0.000000
  0
VERTEX
  8
0
  6
CONTINUOUS
 10
6.732000
 20
6.719240
  0
VERTEX
  8
0
  6
CONTINUOUS
 10
6.734640
 20
7.458440
  0
VERTEX
  8
0
  6
CONTINUOUS
 10
6.743440
 20
7.446120
  0
VERTEX
  8
0
  6
CONTINUOUS
 10
6.741240
 20
6.706920
  0
VERTEX
  8
0
  6
CONTINUOUS
 10
6.732000
 20
6.719240
  0
SEQEND
  8
0
  0
SOLID
  8
0
 62
    15
 10
6.741240
 20
6.706920
 11
6.743440
 21
7.446120
 12
6.757520
 22
6.689320
 13
6.760160
 23
7.428520
  0
POLYLINE
  8
0
  6
CONTINUOUS
 66
     1
 40
0.000000
 41
0.000000
  0
VERTEX
  8
0
  6
CONTINUOUS
 10
6.741240
 20
6.706920
  0
VERTEX
  8
0
  6
CONTINUOUS
 10
6.743440
 20
7.446120
  0
VERTEX
  8
0
  6
CONTINUOUS
 10
6.760160
 20
7.428520
  0
VERTEX
  8
0
  6
CONTINUOUS
 10
6.757520
 20
6.689320
  0
VERTEX
  8
0
  6
CONTINUOUS
 10
6.741240
 20
6.706920
  0
SEQEND
  8
0
  0
SOLID
  8
0
 62
    15
 10
6.757520
 20
6.689320
 11
6.760160
 21
7.428520
 12
6.782160
 22
6.668200
 13
6.784360
 23
7.407840
  0
POLYLINE
  8
0
  6
CONTINUOUS
 66
     1
 40
0.000000
 41
0.000000
  0
VERTEX
  8
0
  6
CONTINUOUS
 10
6.757520
 20
6.689320
  0
VERTEX
  8
0
  6
CONTINUOUS
 10
6.760160
 20
7.428520
  0
VERTEX
  8
0
  6
CONTINUOUS
 10
6.784360
 20
7.407840
  0
VERTEX
  8
0
  6
CONTINUOUS
 10
6.782160
 20
6.668200
  0
VERTEX
  8
0
  6
CONTINUOUS
 10
6.757520
 20
6.689320
  0
SEQEND
  8
0
  0
SOLID
  8
0
 62
    15
 10
6.782160
 20
6.668200
 11
6.784360
 21
7.407840
 12
6.814720
 22
6.646200
 13
6.816920
 23
7.385840
  0
POLYLINE
  8
0
  6
CONTINUOUS
 66
     1
 40
0.000000
 41
0.000000
  0
VERTEX
  8
0
  6
CONTINUOUS
 10
6.782160
 20
6.668200
  0
VERTEX
  8
0
  6
CONTINUOUS
 10
6.784360
 20
7.407840
  0
VERTEX
  8
0
  6
CONTINUOUS
 10
6.816920
 20
7.385840
  0
VERTEX
  8
0
  6
CONTINUOUS
 10
6.814720
 20
6.646200
  0
VERTEX
  8
0
  6
CONTINUOUS
 10
6.782160
 20
6.668200
  0
SEQEND
  8
0
  0
SOLID
  8
0
 62
    15
 10
6.814720
 20
6.646200
 11
6.816920
 21
7.385840
 12
6.854760
 22
6.625520
 13
6.856960
 23
7.364720
  0
POLYLINE
  8
0
  6
CONTINUOUS
 66
     1
 40
0.000000
 41
0.000000
  0
VERTEX
  8
0
  6
CONTINUOUS
 10
6.814720
 20
6.646200
  0
VERTEX
  8
0
  6
CONTINUOUS
 10
6.816920
 20
7.385840
  0
VERTEX
  8
0
  6
CONTINUOUS
 10
6.856960
 20
7.364720
  0
VERTEX
  8
0
  6
CONTINUOUS
 10
6.854760
 20
6.625520
  0
VERTEX
  8
0
  6
CONTINUOUS
 10
6.814720
 20
6.646200
  0
SEQEND
  8
0
  0
SOLID
  8
0
 62
    15
 10
6.854760
 20
6.625520
 11
6.856960
 21
7.364720
 12
6.903160
 22
6.607920
 13
6.905360
 23
7.347120
  0
POLYLINE
  8
0
  6
CONTINUOUS
 66
     1
 40
0.000000
 41
0.000000
  0
VERTEX
  8
0
  6
CONTINUOUS
 10
6.854760
 20
6.625520
  0
VERTEX
  8
0
  6
CONTINUOUS
 10
6.856960
 20
7.364720
  0
VERTEX
  8
0
  6
CONTINUOUS
 10
6.905360
 20
7.347120
  0
VERTEX
  8
0
  6
CONTINUOUS
 10
6.903160
 20
6.607920
  0
VERTEX
  8
0
  6
CONTINUOUS
 10
6.854760
 20
6.625520
  0
SEQEND
  8
0
  0
SOLID
  8
0
 62
    15
 10
6.903160
 20
6.607920
 11
6.905360
 21
7.347120
 12
6.959040
 22
6.595600
 13
6.961680
 23
7.335240
  0
POLYLINE
  8
0
  6
CONTINUOUS
 66
     1
 40
0.000000
 41
0.000000
  0
VERTEX
  8
0
  6
CONTINUOUS
 10
6.903160
 20
6.607920
  0
VERTEX
  8
0
  6
CONTINUOUS
 10
6.905360
 20
7.347120
  0
VERTEX
  8
0
  6
CONTINUOUS
 10
6.961680
 20
7.335240
  0
VERTEX
  8
0
  6
CONTINUOUS
 10
6.959040
 20
6.595600
  0
VERTEX
  8
0
  6
CONTINUOUS
 10
6.903160
 20
6.607920
  0
SEQEND
  8
0
  0
SOLID
  8
0
 62
    15
 10
7.023720
 20
6.591200
 11
7.025920
 21
7.330840
 12
7.023720
 22
6.295080
 13
7.025920
 23
7.034720
  0
POLYLINE
  8
0
  6
CONTINUOUS
 66
     1
 40
0.000000
 41
0.000000
  0
VERTEX
  8
0
  6
CONTINUOUS
 10
7.023720
 20
6.591200
  0
VERTEX
  8
0
  6
CONTINUOUS
 10
7.025920
 20
7.330840
  0
VERTEX
  8
0
  6
CONTINUOUS
 10
7.025920
 20
7.034720
  0
VERTEX
  8
0
  6
CONTINUOUS
 10
7.023720
 20
6.295080
  0
VERTEX
  8
0
  6
CONTINUOUS
 10
7.023720
 20
6.591200
  0
SEQEND
  8
0
  0
SOLID
  8
0
 62
    15
 10
6.959040
 20
6.595600
 11
6.961680
 21
7.335240
 12
7.023720
 22
6.591200
 13
7.025920
 23
7.330840
  0
POLYLINE
  8
0
  6
CONTINUOUS
 66
     1
 40
0.000000
 41
0.000000
  0
VERTEX
  8
0
  6
CONTINUOUS
 10
6.959040
 20
6.595600
  0
VERTEX
  8
0
  6
CONTINUOUS
 10
6.961680
 20
7.335240
  0
VERTEX
  8
0
  6
CONTINUOUS
 10
7.025920
 20
7.330840
  0
VERTEX
  8
0
  6
CONTINUOUS
 10
7.023720
 20
6.591200
  0
VERTEX
  8
0
  6
CONTINUOUS
 10
6.959040
 20
6.595600
  0
SEQEND
  8
0
  0
POLYLINE
  8
0
  6
CONTINUOUS
 66
     1
 40
0.000000
 41
0.000000
  0
VERTEX
  8
0
  6
CONTINUOUS
 10
7.023720
 20
6.295080
  0
VERTEX
  8
0
  6
CONTINUOUS
 10
7.025920
 20
7.034720
  0
VERTEX
  8
0
  6
CONTINUOUS
 10
7.023720
 20
6.295080
  0
SEQEND
  8
0
  0
POLYLINE
  8
0
  6
CONTINUOUS
 66
     1
 40
0.000000
 41
0.000000
  0
VERTEX
  8
0
  6
CONTINUOUS
 10
7.023720
 20
6.295080
  0
VERTEX
  8
0
  6
CONTINUOUS
 10
7.023720
 20
6.288480
  0
VERTEX
  8
0
  6
CONTINUOUS
 10
1.476640
 20
6.288480
  0
VERTEX
  8
0
  6
CONTINUOUS
 10
1.476640
 20
7.036480
  0
VERTEX
  8
0
  6
CONTINUOUS
 10
6.440720
 20
7.036480
  0
VERTEX
  8
0
  6
CONTINUOUS
 10
6.440720
 20
6.873240
  0
VERTEX
  8
0
  6
CONTINUOUS
 10
6.477680
 20
6.871480
  0
VERTEX
  8
0
  6
CONTINUOUS
 10
6.512000
 20
6.867520
  0
VERTEX
  8
0
  6
CONTINUOUS
 10
6.571400
 20
6.852560
  0
VERTEX
  8
0
  6
CONTINUOUS
 10
6.619800
 20
6.830560
  0
VERTEX
  8
0
  6
CONTINUOUS
 10
6.658520
 20
6.805040
  0
VERTEX
  8
0
  6
CONTINUOUS
 10
6.688000
 20
6.778200
  0
VERTEX
  8
0
  6
CONTINUOUS
 10
6.709560
 20
6.753120
  0
VERTEX
  8
0
  6
CONTINUOUS
 10
6.724080
 20
6.732440
  0
VERTEX
  8
0
  6
CONTINUOUS
 10
6.732000
 20
6.719240
  0
VERTEX
  8
0
  6
CONTINUOUS
 10
6.741240
 20
6.706920
  0
VERTEX
  8
0
  6
CONTINUOUS
 10
6.757520
 20
6.689320
  0
VERTEX
  8
0
  6
CONTINUOUS
 10
6.782160
 20
6.668200
  0
VERTEX
  8
0
  6
CONTINUOUS
 10
6.814720
 20
6.646200
  0
VERTEX
  8
0
  6
CONTINUOUS
 10
6.854760
 20
6.625520
  0
VERTEX
  8
0
  6
CONTINUOUS
 10
6.903160
 20
6.607920
  0
VERTEX
  8
0
  6
CONTINUOUS
 10
6.959040
 20
6.595600
  0
VERTEX
  8
0
  6
CONTINUOUS
 10
7.023720
 20
6.591200
  0
VERTEX
  8
0
  6
CONTINUOUS
 10
7.023720
 20
6.295080
  0
SEQEND
  8
0
  0
TEXT
  8
0
 10
3.909400
 20
6.058360
 40
0.138197
  1
BA  1228
 41
1.000000
  7
SN0
 71
     0
 72
     5
 11
4.592588
 21
6.058360
  0
TEXT
  8
0
 10
3.799840
 20
5.866520
 40
0.138197
  1
3/4" x 5-1/2"
 41
1.000000
  7
SN0
 71
     0
 72
     5
 11
4.701176
 21
5.866520
  0
TEXT
  8
0
 10
3.779600
 20
8.877440
 40
0.138197
  1
BA  1228
 41
1.000000
  7
SN0
 71
     0
 72
     5
 11
4.462788
 21
8.877440
  0
TEXT
  8
0
 10
3.670040
 20
8.685600
 40
0.138197
  1
3/4" x 5-1/2"
 41
1.000000
  7
SN0
 71
     0
 72
     5
 11
4.571376
 21
8.685600
  0
SOLID
  8
0
 62
    15
 10
6.670400
 20
3.807760
 11
6.672600
 21
4.546960
 12
6.678320
 22
3.794120
 13
6.680520
 23
4.533760
  0
POLYLINE
  8
0
  6
CONTINUOUS
 66
     1
 40
0.000000
 41
0.000000
  0
VERTEX
  8
0
  6
CONTINUOUS
 10
6.670400
 20
3.807760
  0
VERTEX
  8
0
  6
CONTINUOUS
 10
6.672600
 20
4.546960
  0
VERTEX
  8
0
  6
CONTINUOUS
 10
6.680520
 20
4.533760
  0
VERTEX
  8
0
  6
CONTINUOUS
 10
6.678320
 20
3.794120
  0
VERTEX
  8
0
  6
CONTINUOUS
 10
6.670400
 20
3.807760
  0
SEQEND
  8
0
  0
SOLID
  8
0
 62
    15
 10
6.387040
 20
3.948120
 11
6.389240
 21
4.687320
 12
6.424000
 22
3.946800
 13
6.426200
 23
4.686000
  0
POLYLINE
  8
0
  6
CONTINUOUS
 66
     1
 40
0.000000
 41
0.000000
  0
VERTEX
  8
0
  6
CONTINUOUS
 10
6.387040
 20
3.948120
  0
VERTEX
  8
0
  6
CONTINUOUS
 10
6.389240
 20
4.687320
  0
VERTEX
  8
0
  6
CONTINUOUS
 10
6.426200
 20
4.686000
  0
VERTEX
  8
0
  6
CONTINUOUS
 10
6.424000
 20
3.946800
  0
VERTEX
  8
0
  6
CONTINUOUS
 10
6.387040
 20
3.948120
  0
SEQEND
  8
0
  0
SOLID
  8
0
 62
    15
 10
6.387040
 20
4.111360
 11
6.389240
 21
4.851000
 12
6.387040
 22
3.948120
 13
6.389240
 23
4.687320
  0
POLYLINE
  8
0
  6
CONTINUOUS
 66
     1
 40
0.000000
 41
0.000000
  0
VERTEX
  8
0
  6
CONTINUOUS
 10
6.387040
 20
4.111360
  0
VERTEX
  8
0
  6
CONTINUOUS
 10
6.389240
 20
4.851000
  0
VERTEX
  8
0
  6
CONTINUOUS
 10
6.389240
 20
4.687320
  0
VERTEX
  8
0
  6
CONTINUOUS
 10
6.387040
 20
3.948120
  0
VERTEX
  8
0
  6
CONTINUOUS
 10
6.387040
 20
4.111360
  0
SEQEND
  8
0
  0
SOLID
  8
0
 62
    15
 10
1.422960
 20
4.111360
 11
1.425160
 21
4.851000
 12
6.387040
 22
4.111360
 13
6.389240
 23
4.851000
  0
POLYLINE
  8
0
  6
CONTINUOUS
 66
     1
 40
0.000000
 41
0.000000
  0
VERTEX
  8
0
  6
CONTINUOUS
 10
1.422960
 20
4.111360
  0
VERTEX
  8
0
  6
CONTINUOUS
 10
1.425160
 20
4.851000
  0
VERTEX
  8
0
  6
CONTINUOUS
 10
6.389240
 20
4.851000
  0
VERTEX
  8
0
  6
CONTINUOUS
 10
6.387040
 20
4.111360
  0
VERTEX
  8
0
  6
CONTINUOUS
 10
1.422960
 20
4.111360
  0
SEQEND
  8
0
  0
SOLID
  8
0
 62
    15
 10
6.424000
 20
3.946800
 11
6.426200
 21
4.686000
 12
6.457880
 22
3.942400
 13
6.460520
 23
4.682040
  0
POLYLINE
  8
0
  6
CONTINUOUS
 66
     1
 40
0.000000
 41
0.000000
  0
VERTEX
  8
0
  6
CONTINUOUS
 10
6.424000
 20
3.946800
  0
VERTEX
  8
0
  6
CONTINUOUS
 10
6.426200
 20
4.686000
  0
VERTEX
  8
0
  6
CONTINUOUS
 10
6.460520
 20
4.682040
  0
VERTEX
  8
0
  6
CONTINUOUS
 10
6.457880
 20
3.942400
  0
VERTEX
  8
0
  6
CONTINUOUS
 10
6.424000
 20
3.946800
  0
SEQEND
  8
0
  0
SOLID
  8
0
 62
    15
 10
6.457880
 20
3.942400
 11
6.460520
 21
4.682040
 12
6.517280
 22
3.927440
 13
6.519920
 23
4.666640
  0
POLYLINE
  8
0
  6
CONTINUOUS
 66
     1
 40
0.000000
 41
0.000000
  0
VERTEX
  8
0
  6
CONTINUOUS
 10
6.457880
 20
3.942400
  0
VERTEX
  8
0
  6
CONTINUOUS
 10
6.460520
 20
4.682040
  0
VERTEX
  8
0
  6
CONTINUOUS
 10
6.519920
 20
4.666640
  0
VERTEX
  8
0
  6
CONTINUOUS
 10
6.517280
 20
3.927440
  0
VERTEX
  8
0
  6
CONTINUOUS
 10
6.457880
 20
3.942400
  0
SEQEND
  8
0
  0
SOLID
  8
0
 62
    15
 10
6.517280
 20
3.927440
 11
6.519920
 21
4.666640
 12
6.566120
 22
3.905880
 13
6.568320
 23
4.645080
  0
POLYLINE
  8
0
  6
CONTINUOUS
 66
     1
 40
0.000000
 41
0.000000
  0
VERTEX
  8
0
  6
CONTINUOUS
 10
6.517280
 20
3.927440
  0
VERTEX
  8
0
  6
CONTINUOUS
 10
6.519920
 20
4.666640
  0
VERTEX
  8
0
  6
CONTINUOUS
 10
6.568320
 20
4.645080
  0
VERTEX
  8
0
  6
CONTINUOUS
 10
6.566120
 20
3.905880
  0
VERTEX
  8
0
  6
CONTINUOUS
 10
6.517280
 20
3.927440
  0
SEQEND
  8
0
  0
SOLID
  8
0
 62
    15
 10
6.566120
 20
3.905880
 11
6.568320
 21
4.645080
 12
6.604840
 22
3.879920
 13
6.607040
 23
4.619560
  0
POLYLINE
  8
0
  6
CONTINUOUS
 66
     1
 40
0.000000
 41
0.000000
  0
VERTEX
  8
0
  6
CONTINUOUS
 10
6.566120
 20
3.905880
  0
VERTEX
  8
0
  6
CONTINUOUS
 10
6.568320
 20
4.645080
  0
VERTEX
  8
0
  6
CONTINUOUS
 10
6.607040
 20
4.619560
  0
VERTEX
  8
0
  6
CONTINUOUS
 10
6.604840
 20
3.879920
  0
VERTEX
  8
0
  6
CONTINUOUS
 10
6.566120
 20
3.905880
  0
SEQEND
  8
0
  0
SOLID
  8
0
 62
    15
 10
6.604840
 20
3.879920
 11
6.607040
 21
4.619560
 12
6.634320
 22
3.853520
 13
6.636520
 23
4.592720
  0
POLYLINE
  8
0
  6
CONTINUOUS
 66
     1
 40
0.000000
 41
0.000000
  0
VERTEX
  8
0
  6
CONTINUOUS
 10
6.604840
 20
3.879920
  0
VERTEX
  8
0
  6
CONTINUOUS
 10
6.607040
 20
4.619560
  0
VERTEX
  8
0
  6
CONTINUOUS
 10
6.636520
 20
4.592720
  0
VERTEX
  8
0
  6
CONTINUOUS
 10
6.634320
 20
3.853520
  0
VERTEX
  8
0
  6
CONTINUOUS
 10
6.604840
 20
3.879920
  0
SEQEND
  8
0
  0
SOLID
  8
0
 62
    15
 10
6.634320
 20
3.853520
 11
6.636520
 21
4.592720
 12
6.655880
 22
3.828440
 13
6.658080
 23
4.567640
  0
POLYLINE
  8
0
  6
CONTINUOUS
 66
     1
 40
0.000000
 41
0.000000
  0
VERTEX
  8
0
  6
CONTINUOUS
 10
6.634320
 20
3.853520
  0
VERTEX
  8
0
  6
CONTINUOUS
 10
6.636520
 20
4.592720
  0
VERTEX
  8
0
  6
CONTINUOUS
 10
6.658080
 20
4.567640
  0
VERTEX
  8
0
  6
CONTINUOUS
 10
6.655880
 20
3.828440
  0
VERTEX
  8
0
  6
CONTINUOUS
 10
6.634320
 20
3.853520
  0
SEQEND
  8
0
  0
SOLID
  8
0
 62
    15
 10
6.655880
 20
3.828440
 11
6.658080
 21
4.567640
 12
6.670400
 22
3.807760
 13
6.672600
 23
4.546960
  0
POLYLINE
  8
0
  6
CONTINUOUS
 66
     1
 40
0.000000
 41
0.000000
  0
VERTEX
  8
0
  6
CONTINUOUS
 10
6.655880
 20
3.828440
  0
VERTEX
  8
0
  6
CONTINUOUS
 10
6.658080
 20
4.567640
  0
VERTEX
  8
0
  6
CONTINUOUS
 10
6.672600
 20
4.546960
  0
VERTEX
  8
0
  6
CONTINUOUS
 10
6.670400
 20
3.807760
  0
VERTEX
  8
0
  6
CONTINUOUS
 10
6.655880
 20
3.828440
  0
SEQEND
  8
0
  0
SOLID
  8
0
 62
    15
 10
6.969600
 20
3.369960
 11
6.972240
 21
4.109600
 12
6.969600
 22
3.363360
 13
6.972240
 23
4.102560
  0
POLYLINE
  8
0
  6
CONTINUOUS
 66
     1
 40
0.000000
 41
0.000000
  0
VERTEX
  8
0
  6
CONTINUOUS
 10
6.969600
 20
3.369960
  0
VERTEX
  8
0
  6
CONTINUOUS
 10
6.972240
 20
4.109600
  0
VERTEX
  8
0
  6
CONTINUOUS
 10
6.972240
 20
4.102560
  0
VERTEX
  8
0
  6
CONTINUOUS
 10
6.969600
 20
3.363360
  0
VERTEX
  8
0
  6
CONTINUOUS
 10
6.969600
 20
3.369960
  0
SEQEND
  8
0
  0
SOLID
  8
0
 62
    15
 10
6.678320
 20
3.794120
 11
6.680520
 21
4.533760
 12
6.687120
 22
3.781800
 13
6.689320
 23
4.521440
  0
POLYLINE
  8
0
  6
CONTINUOUS
 66
     1
 40
0.000000
 41
0.000000
  0
VERTEX
  8
0
  6
CONTINUOUS
 10
6.678320
 20
3.794120
  0
VERTEX
  8
0
  6
CONTINUOUS
 10
6.680520
 20
4.533760
  0
VERTEX
  8
0
  6
CONTINUOUS
 10
6.689320
 20
4.521440
  0
VERTEX
  8
0
  6
CONTINUOUS
 10
6.687120
 20
3.781800
  0
VERTEX
  8
0
  6
CONTINUOUS
 10
6.678320
 20
3.794120
  0
SEQEND
  8
0
  0
SOLID
  8
0
 62
    15
 10
6.687120
 20
3.781800
 11
6.689320
 21
4.521440
 12
6.703840
 22
3.764200
 13
6.706040
 23
4.503840
  0
POLYLINE
  8
0
  6
CONTINUOUS
 66
     1
 40
0.000000
 41
0.000000
  0
VERTEX
  8
0
  6
CONTINUOUS
 10
6.687120
 20
3.781800
  0
VERTEX
  8
0
  6
CONTINUOUS
 10
6.689320
 20
4.521440
  0
VERTEX
  8
0
  6
CONTINUOUS
 10
6.706040
 20
4.503840
  0
VERTEX
  8
0
  6
CONTINUOUS
 10
6.703840
 20
3.764200
  0
VERTEX
  8
0
  6
CONTINUOUS
 10
6.687120
 20
3.781800
  0
SEQEND
  8
0
  0
SOLID
  8
0
 62
    15
 10
6.703840
 20
3.764200
 11
6.706040
 21
4.503840
 12
6.728480
 22
3.743520
 13
6.730680
 23
4.482720
  0
POLYLINE
  8
0
  6
CONTINUOUS
 66
     1
 40
0.000000
 41
0.000000
  0
VERTEX
  8
0
  6
CONTINUOUS
 10
6.703840
 20
3.764200
  0
VERTEX
  8
0
  6
CONTINUOUS
 10
6.706040
 20
4.503840
  0
VERTEX
  8
0
  6
CONTINUOUS
 10
6.730680
 20
4.482720
  0
VERTEX
  8
0
  6
CONTINUOUS
 10
6.728480
 20
3.743520
  0
VERTEX
  8
0
  6
CONTINUOUS
 10
6.703840
 20
3.764200
  0
SEQEND
  8
0
  0
SOLID
  8
0
 62
    15
 10
6.728480
 20
3.743520
 11
6.730680
 21
4.482720
 12
6.760600
 22
3.721520
 13
6.763240
 23
4.460720
  0
POLYLINE
  8
0
  6
CONTINUOUS
 66
     1
 40
0.000000
 41
0.000000
  0
VERTEX
  8
0
  6
CONTINUOUS
 10
6.728480
 20
3.743520
  0
VERTEX
  8
0
  6
CONTINUOUS
 10
6.730680
 20
4.482720
  0
VERTEX
  8
0
  6
CONTINUOUS
 10
6.763240
 20
4.460720
  0
VERTEX
  8
0
  6
CONTINUOUS
 10
6.760600
 20
3.721520
  0
VERTEX
  8
0
  6
CONTINUOUS
 10
6.728480
 20
3.743520
  0
SEQEND
  8
0
  0
SOLID
  8
0
 62
    15
 10
6.760600
 20
3.721520
 11
6.763240
 21
4.460720
 12
6.801080
 22
3.700400
 13
6.803280
 23
4.440040
  0
POLYLINE
  8
0
  6
CONTINUOUS
 66
     1
 40
0.000000
 41
0.000000
  0
VERTEX
  8
0
  6
CONTINUOUS
 10
6.760600
 20
3.721520
  0
VERTEX
  8
0
  6
CONTINUOUS
 10
6.763240
 20
4.460720
  0
VERTEX
  8
0
  6
CONTINUOUS
 10
6.803280
 20
4.440040
  0
VERTEX
  8
0
  6
CONTINUOUS
 10
6.801080
 20
3.700400
  0
VERTEX
  8
0
  6
CONTINUOUS
 10
6.760600
 20
3.721520
  0
SEQEND
  8
0
  0
SOLID
  8
0
 62
    15
 10
6.801080
 20
3.700400
 11
6.803280
 21
4.440040
 12
6.849040
 22
3.682800
 13
6.851240
 23
4.422440
  0
POLYLINE
  8
0
  6
CONTINUOUS
 66
     1
 40
0.000000
 41
0.000000
  0
VERTEX
  8
0
  6
CONTINUOUS
 10
6.801080
 20
3.700400
  0
VERTEX
  8
0
  6
CONTINUOUS
 10
6.803280
 20
4.440040
  0
VERTEX
  8
0
  6
CONTINUOUS
 10
6.851240
 20
4.422440
  0
VERTEX
  8
0
  6
CONTINUOUS
 10
6.849040
 20
3.682800
  0
VERTEX
  8
0
  6
CONTINUOUS
 10
6.801080
 20
3.700400
  0
SEQEND
  8
0
  0
SOLID
  8
0
 62
    15
 10
6.849040
 20
3.682800
 11
6.851240
 21
4.422440
 12
6.905360
 22
3.670920
 13
6.907560
 23
4.410120
  0
POLYLINE
  8
0
  6
CONTINUOUS
 66
     1
 40
0.000000
 41
0.000000
  0
VERTEX
  8
0
  6
CONTINUOUS
 10
6.849040
 20
3.682800
  0
VERTEX
  8
0
  6
CONTINUOUS
 10
6.851240
 20
4.422440
  0
VERTEX
  8
0
  6
CONTINUOUS
 10
6.907560
 20
4.410120
  0
VERTEX
  8
0
  6
CONTINUOUS
 10
6.905360
 20
3.670920
  0
VERTEX
  8
0
  6
CONTINUOUS
 10
6.849040
 20
3.682800
  0
SEQEND
  8
0
  0
SOLID
  8
0
 62
    15
 10
6.969600
 20
3.666080
 11
6.971800
 21
4.405720
 12
6.969600
 22
3.369960
 13
6.971800
 23
4.109600
  0
POLYLINE
  8
0
  6
CONTINUOUS
 66
     1
 40
0.000000
 41
0.000000
  0
VERTEX
  8
0
  6
CONTINUOUS
 10
6.969600
 20
3.666080
  0
VERTEX
  8
0
  6
CONTINUOUS
 10
6.971800
 20
4.405720
  0
VERTEX
  8
0
  6
CONTINUOUS
 10
6.971800
 20
4.109600
  0
VERTEX
  8
0
  6
CONTINUOUS
 10
6.969600
 20
3.369960
  0
VERTEX
  8
0
  6
CONTINUOUS
 10
6.969600
 20
3.666080
  0
SEQEND
  8
0
  0
SOLID
  8
0
 62
    15
 10
6.905360
 20
3.670920
 11
6.907560
 21
4.410120
 12
6.969600
 22
3.666080
 13
6.971800
 23
4.405720
  0
POLYLINE
  8
0
  6
CONTINUOUS
 66
     1
 40
0.000000
 41
0.000000
  0
VERTEX
  8
0
  6
CONTINUOUS
 10
6.905360
 20
3.670920
  0
VERTEX
  8
0
  6
CONTINUOUS
 10
6.907560
 20
4.410120
  0
VERTEX
  8
0
  6
CONTINUOUS
 10
6.971800
 20
4.405720
  0
VERTEX
  8
0
  6
CONTINUOUS
 10
6.969600
 20
3.666080
  0
VERTEX
  8
0
  6
CONTINUOUS
 10
6.905360
 20
3.670920
  0
SEQEND
  8
0
  0
SOLID
  8
0
 62
    15
 10
6.969600
 20
3.369960
 11
6.971800
 21
4.109600
 12
6.969600
 22
3.369960
 13
6.972240
 23
4.109600
  0
POLYLINE
  8
0
  6
CONTINUOUS
 66
     1
 40
0.000000
 41
0.000000
  0
VERTEX
  8
0
  6
CONTINUOUS
 10
6.969600
 20
3.369960
  0
VERTEX
  8
0
  6
CONTINUOUS
 10
6.971800
 20
4.109600
  0
VERTEX
  8
0
  6
CONTINUOUS
 10
6.972240
 20
4.109600
  0
VERTEX
  8
0
  6
CONTINUOUS
 10
6.969600
 20
3.369960
  0
SEQEND
  8
0
  0
POLYLINE
  8
0
  6
CONTINUOUS
 66
     1
 40
0.000000
 41
0.000000
  0
VERTEX
  8
0
  6
CONTINUOUS
 10
6.969600
 20
3.369960
  0
VERTEX
  8
0
  6
CONTINUOUS
 10
6.969600
 20
3.363360
  0
VERTEX
  8
0
  6
CONTINUOUS
 10
1.422960
 20
3.363360
  0
VERTEX
  8
0
  6
CONTINUOUS
 10
1.422960
 20
4.111360
  0
VERTEX
  8
0
  6
CONTINUOUS
 10
6.387040
 20
4.111360
  0
VERTEX
  8
0
  6
CONTINUOUS
 10
6.387040
 20
3.948120
  0
VERTEX
  8
0
  6
CONTINUOUS
 10
6.424000
 20
3.946800
  0
VERTEX
  8
0
  6
CONTINUOUS
 10
6.457880
 20
3.942400
  0
VERTEX
  8
0
  6
CONTINUOUS
 10
6.517280
 20
3.927440
  0
VERTEX
  8
0
  6
CONTINUOUS
 10
6.566120
 20
3.905880
  0
VERTEX
  8
0
  6
CONTINUOUS
 10
6.604840
 20
3.879920
  0
VERTEX
  8
0
  6
CONTINUOUS
 10
6.634320
 20
3.853520
  0
VERTEX
  8
0
  6
CONTINUOUS
 10
6.655880
 20
3.828440
  0
VERTEX
  8
0
  6
CONTINUOUS
 10
6.670400
 20
3.807760
  0
VERTEX
  8
0
  6
CONTINUOUS
 10
6.678320
 20
3.794120
  0
VERTEX
  8
0
  6
CONTINUOUS
 10
6.687120
 20
3.781800
  0
VERTEX
  8
0
  6
CONTINUOUS
 10
6.703840
 20
3.764200
  0
VERTEX
  8
0
  6
CONTINUOUS
 10
6.728480
 20
3.743520
  0
VERTEX
  8
0
  6
CONTINUOUS
 10
6.760600
 20
3.721520
  0
VERTEX
  8
0
  6
CONTINUOUS
 10
6.801080
 20
3.700400
  0
VERTEX
  8
0
  6
CONTINUOUS
 10
6.849040
 20
3.682800
  0
VERTEX
  8
0
  6
CONTINUOUS
 10
6.905360
 20
3.670920
  0
VERTEX
  8
0
  6
CONTINUOUS
 10
6.969600
 20
3.666080
  0
VERTEX
  8
0
  6
CONTINUOUS
 10
6.969600
 20
3.369960
  0
SEQEND
  8
0
  0
SOLID
  8
0
 62
    15
 10
2.621960
 20
4.455440
 11
2.617120
 21
5.198600
 12
2.689280
 22
4.450600
 13
2.684440
 23
5.194200
  0
POLYLINE
  8
0
  6
CONTINUOUS
 66
     1
 40
0.000000
 41
0.000000
  0
VERTEX
  8
0
  6
CONTINUOUS
 10
2.621960
 20
4.455440
  0
VERTEX
  8
0
  6
CONTINUOUS
 10
2.617120
 20
5.198600
  0
VERTEX
  8
0
  6
CONTINUOUS
 10
2.684440
 20
5.194200
  0
VERTEX
  8
0
  6
CONTINUOUS
 10
2.689280
 20
4.450600
  0
VERTEX
  8
0
  6
CONTINUOUS
 10
2.621960
 20
4.455440
  0
SEQEND
  8
0
  0
SOLID
  8
0
 62
    15
 10
1.422960
 20
4.111360
 11
1.418120
 21
4.854960
 12
1.422960
 22
4.860680
 13
1.418120
 23
5.604280
  0
POLYLINE
  8
0
  6
CONTINUOUS
 66
     1
 40
0.000000
 41
0.000000
  0
VERTEX
  8
0
  6
CONTINUOUS
 10
1.422960
 20
4.111360
  0
VERTEX
  8
0
  6
CONTINUOUS
 10
1.418120
 20
4.854960
  0
VERTEX
  8
0
  6
CONTINUOUS
 10
1.418120
 20
5.604280
  0
VERTEX
  8
0
  6
CONTINUOUS
 10
1.422960
 20
4.860680
  0
VERTEX
  8
0
  6
CONTINUOUS
 10
1.422960
 20
4.111360
  0
SEQEND
  8
0
  0
SOLID
  8
0
 62
    15
 10
1.891120
 20
4.859800
 11
1.886280
 21
5.603400
 12
1.917080
 22
4.784120
 13
1.912240
 23
5.527720
  0
POLYLINE
  8
0
  6
CONTINUOUS
 66
     1
 40
0.000000
 41
0.000000
  0
VERTEX
  8
0
  6
CONTINUOUS
 10
1.891120
 20
4.859800
  0
VERTEX
  8
0
  6
CONTINUOUS
 10
1.886280
 20
5.603400
  0
VERTEX
  8
0
  6
CONTINUOUS
 10
1.912240
 20
5.527720
  0
VERTEX
  8
0
  6
CONTINUOUS
 10
1.917080
 20
4.784120
  0
VERTEX
  8
0
  6
CONTINUOUS
 10
1.891120
 20
4.859800
  0
SEQEND
  8
0
  0
SOLID
  8
0
 62
    15
 10
1.917080
 20
4.784120
 11
1.912240
 21
5.527720
 12
1.994520
 22
4.784560
 13
1.989680
 23
5.527720
  0
POLYLINE
  8
0
  6
CONTINUOUS
 66
     1
 40
0.000000
 41
0.000000
  0
VERTEX
  8
0
  6
CONTINUOUS
 10
1.917080
 20
4.784120
  0
VERTEX
  8
0
  6
CONTINUOUS
 10
1.912240
 20
5.527720
  0
VERTEX
  8
0
  6
CONTINUOUS
 10
1.989680
 20
5.527720
  0
VERTEX
  8
0
  6
CONTINUOUS
 10
1.994520
 20
4.784560
  0
VERTEX
  8
0
  6
CONTINUOUS
 10
1.917080
 20
4.784120
  0
SEQEND
  8
0
  0
SOLID
  8
0
 62
    15
 10
1.994520
 20
4.784560
 11
1.989680
 21
5.527720
 12
2.065360
 22
4.775760
 13
2.060520
 23
5.519360
  0
POLYLINE
  8
0
  6
CONTINUOUS
 66
     1
 40
0.000000
 41
0.000000
  0
VERTEX
  8
0
  6
CONTINUOUS
 10
1.994520
 20
4.784560
  0
VERTEX
  8
0
  6
CONTINUOUS
 10
1.989680
 20
5.527720
  0
VERTEX
  8
0
  6
CONTINUOUS
 10
2.060520
 20
5.519360
  0
VERTEX
  8
0
  6
CONTINUOUS
 10
2.065360
 20
4.775760
  0
VERTEX
  8
0
  6
CONTINUOUS
 10
1.994520
 20
4.784560
  0
SEQEND
  8
0
  0
SOLID
  8
0
 62
    15
 10
2.065360
 20
4.775760
 11
2.060520
 21
5.519360
 12
2.129160
 22
4.759920
 13
2.124320
 23
5.503080
  0
POLYLINE
  8
0
  6
CONTINUOUS
 66
     1
 40
0.000000
 41
0.000000
  0
VERTEX
  8
0
  6
CONTINUOUS
 10
2.065360
 20
4.775760
  0
VERTEX
  8
0
  6
CONTINUOUS
 10
2.060520
 20
5.519360
  0
VERTEX
  8
0
  6
CONTINUOUS
 10
2.124320
 20
5.503080
  0
VERTEX
  8
0
  6
CONTINUOUS
 10
2.129160
 20
4.759920
  0
VERTEX
  8
0
  6
CONTINUOUS
 10
2.065360
 20
4.775760
  0
SEQEND
  8
0
  0
SOLID
  8
0
 62
    15
 10
2.129160
 20
4.759920
 11
2.124320
 21
5.503080
 12
2.186800
 22
4.738360
 13
2.181960
 23
5.481520
  0
POLYLINE
  8
0
  6
CONTINUOUS
 66
     1
 40
0.000000
 41
0.000000
  0
VERTEX
  8
0
  6
CONTINUOUS
 10
2.129160
 20
4.759920
  0
VERTEX
  8
0
  6
CONTINUOUS
 10
2.124320
 20
5.503080
  0
VERTEX
  8
0
  6
CONTINUOUS
 10
2.181960
 20
5.481520
  0
VERTEX
  8
0
  6
CONTINUOUS
 10
2.186800
 20
4.738360
  0
VERTEX
  8
0
  6
CONTINUOUS
 10
2.129160
 20
4.759920
  0
SEQEND
  8
0
  0
SOLID
  8
0
 62
    15
 10
2.186800
 20
4.738360
 11
2.181960
 21
5.481520
 12
2.237400
 22
4.712400
 13
2.232560
 23
5.456000
  0
POLYLINE
  8
0
  6
CONTINUOUS
 66
     1
 40
0.000000
 41
0.000000
  0
VERTEX
  8
0
  6
CONTINUOUS
 10
2.186800
 20
4.738360
  0
VERTEX
  8
0
  6
CONTINUOUS
 10
2.181960
 20
5.481520
  0
VERTEX
  8
0
  6
CONTINUOUS
 10
2.232560
 20
5.456000
  0
VERTEX
  8
0
  6
CONTINUOUS
 10
2.237400
 20
4.712400
  0
VERTEX
  8
0
  6
CONTINUOUS
 10
2.186800
 20
4.738360
  0
SEQEND
  8
0
  0
SOLID
  8
0
 62
    15
 10
2.237400
 20
4.712400
 11
2.232560
 21
5.456000
 12
2.281400
 22
4.684240
 13
2.276560
 23
5.427840
  0
POLYLINE
  8
0
  6
CONTINUOUS
 66
     1
 40
0.000000
 41
0.000000
  0
VERTEX
  8
0
  6
CONTINUOUS
 10
2.237400
 20
4.712400
  0
VERTEX
  8
0
  6
CONTINUOUS
 10
2.232560
 20
5.456000
  0
VERTEX
  8
0
  6
CONTINUOUS
 10
2.276560
 20
5.427840
  0
VERTEX
  8
0
  6
CONTINUOUS
 10
2.281400
 20
4.684240
  0
VERTEX
  8
0
  6
CONTINUOUS
 10
2.237400
 20
4.712400
  0
SEQEND
  8
0
  0
SOLID
  8
0
 62
    15
 10
2.281400
 20
4.684240
 11
2.276560
 21
5.427840
 12
2.318800
 22
4.655640
 13
2.313960
 23
5.398800
  0
POLYLINE
  8
0
  6
CONTINUOUS
 66
     1
 40
0.000000
 41
0.000000
  0
VERTEX
  8
0
  6
CONTINUOUS
 10
2.281400
 20
4.684240
  0
VERTEX
  8
0
  6
CONTINUOUS
 10
2.276560
 20
5.427840
  0
VERTEX
  8
0
  6
CONTINUOUS
 10
2.313960
 20
5.398800
  0
VERTEX
  8
0
  6
CONTINUOUS
 10
2.318800
 20
4.655640
  0
VERTEX
  8
0
  6
CONTINUOUS
 10
2.281400
 20
4.684240
  0
SEQEND
  8
0
  0
SOLID
  8
0
 62
    15
 10
2.318800
 20
4.655640
 11
2.313960
 21
5.398800
 12
2.349160
 22
4.627480
 13
2.344320
 23
5.370640
  0
POLYLINE
  8
0
  6
CONTINUOUS
 66
     1
 40
0.000000
 41
0.000000
  0
VERTEX
  8
0
  6
CONTINUOUS
 10
2.318800
 20
4.655640
  0
VERTEX
  8
0
  6
CONTINUOUS
 10
2.313960
 20
5.398800
  0
VERTEX
  8
0
  6
CONTINUOUS
 10
2.344320
 20
5.370640
  0
VERTEX
  8
0
  6
CONTINUOUS
 10
2.349160
 20
4.627480
  0
VERTEX
  8
0
  6
CONTINUOUS
 10
2.318800
 20
4.655640
  0
SEQEND
  8
0
  0
SOLID
  8
0
 62
    15
 10
2.349160
 20
4.627480
 11
2.344320
 21
5.370640
 12
2.362800
 22
4.613400
 13
2.357960
 23
5.357000
  0
POLYLINE
  8
0
  6
CONTINUOUS
 66
     1
 40
0.000000
 41
0.000000
  0
VERTEX
  8
0
  6
CONTINUOUS
 10
2.349160
 20
4.627480
  0
VERTEX
  8
0
  6
CONTINUOUS
 10
2.344320
 20
5.370640
  0
VERTEX
  8
0
  6
CONTINUOUS
 10
2.357960
 20
5.357000
  0
VERTEX
  8
0
  6
CONTINUOUS
 10
2.362800
 20
4.613400
  0
VERTEX
  8
0
  6
CONTINUOUS
 10
2.349160
 20
4.627480
  0
SEQEND
  8
0
  0
SOLID
  8
0
 62
    15
 10
2.362800
 20
4.613400
 11
2.357960
 21
5.357000
 12
2.376440
 22
4.598880
 13
2.371600
 23
5.342480
  0
POLYLINE
  8
0
  6
CONTINUOUS
 66
     1
 40
0.000000
 41
0.000000
  0
VERTEX
  8
0
  6
CONTINUOUS
 10
2.362800
 20
4.613400
  0
VERTEX
  8
0
  6
CONTINUOUS
 10
2.357960
 20
5.357000
  0
VERTEX
  8
0
  6
CONTINUOUS
 10
2.371600
 20
5.342480
  0
VERTEX
  8
0
  6
CONTINUOUS
 10
2.376440
 20
4.598880
  0
VERTEX
  8
0
  6
CONTINUOUS
 10
2.362800
 20
4.613400
  0
SEQEND
  8
0
  0
SOLID
  8
0
 62
    15
 10
2.376440
 20
4.598880
 11
2.371600
 21
5.342480
 12
2.405480
 22
4.568960
 13
2.400640
 23
5.312560
  0
POLYLINE
  8
0
  6
CONTINUOUS
 66
     1
 40
0.000000
 41
0.000000
  0
VERTEX
  8
0
  6
CONTINUOUS
 10
2.376440
 20
4.598880
  0
VERTEX
  8
0
  6
CONTINUOUS
 10
2.371600
 20
5.342480
  0
VERTEX
  8
0
  6
CONTINUOUS
 10
2.400640
 20
5.312560
  0
VERTEX
  8
0
  6
CONTINUOUS
 10
2.405480
 20
4.568960
  0
VERTEX
  8
0
  6
CONTINUOUS
 10
2.376440
 20
4.598880
  0
SEQEND
  8
0
  0
SOLID
  8
0
 62
    15
 10
2.405480
 20
4.568960
 11
2.400640
 21
5.312560
 12
2.437160
 22
4.539480
 13
2.432320
 23
5.283080
  0
POLYLINE
  8
0
  6
CONTINUOUS
 66
     1
 40
0.000000
 41
0.000000
  0
VERTEX
  8
0
  6
CONTINUOUS
 10
2.405480
 20
4.568960
  0
VERTEX
  8
0
  6
CONTINUOUS
 10
2.400640
 20
5.312560
  0
VERTEX
  8
0
  6
CONTINUOUS
 10
2.432320
 20
5.283080
  0
VERTEX
  8
0
  6
CONTINUOUS
 10
2.437160
 20
4.539480
  0
VERTEX
  8
0
  6
CONTINUOUS
 10
2.405480
 20
4.568960
  0
SEQEND
  8
0
  0
SOLID
  8
0
 62
    15
 10
2.437160
 20
4.539480
 11
2.432320
 21
5.283080
 12
2.473240
 22
4.511760
 13
2.468400
 23
5.255360
  0
POLYLINE
  8
0
  6
CONTINUOUS
 66
     1
 40
0.000000
 41
0.000000
  0
VERTEX
  8
0
  6
CONTINUOUS
 10
2.437160
 20
4.539480
  0
VERTEX
  8
0
  6
CONTINUOUS
 10
2.432320
 20
5.283080
  0
VERTEX
  8
0
  6
CONTINUOUS
 10
2.468400
 20
5.255360
  0
VERTEX
  8
0
  6
CONTINUOUS
 10
2.473240
 20
4.511760
  0
VERTEX
  8
0
  6
CONTINUOUS
 10
2.437160
 20
4.539480
  0
SEQEND
  8
0
  0
SOLID
  8
0
 62
    15
 10
2.473240
 20
4.511760
 11
2.468400
 21
5.255360
 12
2.515040
 22
4.487560
 13
2.510200
 23
5.231160
  0
POLYLINE
  8
0
  6
CONTINUOUS
 66
     1
 40
0.000000
 41
0.000000
  0
VERTEX
  8
0
  6
CONTINUOUS
 10
2.473240
 20
4.511760
  0
VERTEX
  8
0
  6
CONTINUOUS
 10
2.468400
 20
5.255360
  0
VERTEX
  8
0
  6
CONTINUOUS
 10
2.510200
 20
5.231160
  0
VERTEX
  8
0
  6
CONTINUOUS
 10
2.515040
 20
4.487560
  0
VERTEX
  8
0
  6
CONTINUOUS
 10
2.473240
 20
4.511760
  0
SEQEND
  8
0
  0
SOLID
  8
0
 62
    15
 10
2.515040
 20
4.487560
 11
2.510200
 21
5.231160
 12
2.564320
 22
4.468200
 13
2.559480
 23
5.211360
  0
POLYLINE
  8
0
  6
CONTINUOUS
 66
     1
 40
0.000000
 41
0.000000
  0
VERTEX
  8
0
  6
CONTINUOUS
 10
2.515040
 20
4.487560
  0
VERTEX
  8
0
  6
CONTINUOUS
 10
2.510200
 20
5.231160
  0
VERTEX
  8
0
  6
CONTINUOUS
 10
2.559480
 20
5.211360
  0
VERTEX
  8
0
  6
CONTINUOUS
 10
2.564320
 20
4.468200
  0
VERTEX
  8
0
  6
CONTINUOUS
 10
2.515040
 20
4.487560
  0
SEQEND
  8
0
  0
SOLID
  8
0
 62
    15
 10
2.564320
 20
4.468200
 11
2.559480
 21
5.211360
 12
2.621960
 22
4.455440
 13
2.617120
 23
5.198600
  0
POLYLINE
  8
0
  6
CONTINUOUS
 66
     1
 40
0.000000
 41
0.000000
  0
VERTEX
  8
0
  6
CONTINUOUS
 10
2.564320
 20
4.468200
  0
VERTEX
  8
0
  6
CONTINUOUS
 10
2.559480
 20
5.211360
  0
VERTEX
  8
0
  6
CONTINUOUS
 10
2.617120
 20
5.198600
  0
VERTEX
  8
0
  6
CONTINUOUS
 10
2.621960
 20
4.455440
  0
VERTEX
  8
0
  6
CONTINUOUS
 10
2.564320
 20
4.468200
  0
SEQEND
  8
0
  0
SOLID
  8
0
 62
    15
 10
1.422960
 20
4.860680
 11
1.418120
 21
5.604280
 12
1.891120
 22
4.859800
 13
1.886280
 23
5.603400
  0
POLYLINE
  8
0
  6
CONTINUOUS
 66
     1
 40
0.000000
 41
0.000000
  0
VERTEX
  8
0
  6
CONTINUOUS
 10
1.422960
 20
4.860680
  0
VERTEX
  8
0
  6
CONTINUOUS
 10
1.418120
 20
5.604280
  0
VERTEX
  8
0
  6
CONTINUOUS
 10
1.886280
 20
5.603400
  0
VERTEX
  8
0
  6
CONTINUOUS
 10
1.891120
 20
4.859800
  0
VERTEX
  8
0
  6
CONTINUOUS
 10
1.422960
 20
4.860680
  0
SEQEND
  8
0
  0
SOLID
  8
0
 62
    15
 10
2.689280
 20
4.450600
 11
2.684440
 21
5.194200
 12
2.732400
 22
4.447080
 13
2.727560
 23
5.190680
  0
POLYLINE
  8
0
  6
CONTINUOUS
 66
     1
 40
0.000000
 41
0.000000
  0
VERTEX
  8
0
  6
CONTINUOUS
 10
2.689280
 20
4.450600
  0
VERTEX
  8
0
  6
CONTINUOUS
 10
2.684440
 20
5.194200
  0
VERTEX
  8
0
  6
CONTINUOUS
 10
2.727560
 20
5.190680
  0
VERTEX
  8
0
  6
CONTINUOUS
 10
2.732400
 20
4.447080
  0
VERTEX
  8
0
  6
CONTINUOUS
 10
2.689280
 20
4.450600
  0
SEQEND
  8
0
  0
SOLID
  8
0
 62
    15
 10
2.732400
 20
4.447080
 11
2.727560
 21
5.190680
 12
2.750440
 22
4.442240
 13
2.745600
 23
5.185400
  0
POLYLINE
  8
0
  6
CONTINUOUS
 66
     1
 40
0.000000
 41
0.000000
  0
VERTEX
  8
0
  6
CONTINUOUS
 10
2.732400
 20
4.447080
  0
VERTEX
  8
0
  6
CONTINUOUS
 10
2.727560
 20
5.190680
  0
VERTEX
  8
0
  6
CONTINUOUS
 10
2.745600
 20
5.185400
  0
VERTEX
  8
0
  6
CONTINUOUS
 10
2.750440
 20
4.442240
  0
VERTEX
  8
0
  6
CONTINUOUS
 10
2.732400
 20
4.447080
  0
SEQEND
  8
0
  0
SOLID
  8
0
 62
    15
 10
2.750440
 20
4.442240
 11
2.745600
 21
5.185400
 12
2.765400
 22
4.433880
 13
2.760560
 23
5.177480
  0
POLYLINE
  8
0
  6
CONTINUOUS
 66
     1
 40
0.000000
 41
0.000000
  0
VERTEX
  8
0
  6
CONTINUOUS
 10
2.750440
 20
4.442240
  0
VERTEX
  8
0
  6
CONTINUOUS
 10
2.745600
 20
5.185400
  0
VERTEX
  8
0
  6
CONTINUOUS
 10
2.760560
 20
5.177480
  0
VERTEX
  8
0
  6
CONTINUOUS
 10
2.765400
 20
4.433880
  0
VERTEX
  8
0
  6
CONTINUOUS
 10
2.750440
 20
4.442240
  0
SEQEND
  8
0
  0
SOLID
  8
0
 62
    15
 10
2.765400
 20
4.433880
 11
2.760560
 21
5.177480
 12
2.777280
 22
4.422000
 13
2.772440
 23
5.165600
  0
POLYLINE
  8
0
  6
CONTINUOUS
 66
     1
 40
0.000000
 41
0.000000
  0
VERTEX
  8
0
  6
CONTINUOUS
 10
2.765400
 20
4.433880
  0
VERTEX
  8
0
  6
CONTINUOUS
 10
2.760560
 20
5.177480
  0
VERTEX
  8
0
  6
CONTINUOUS
 10
2.772440
 20
5.165600
  0
VERTEX
  8
0
  6
CONTINUOUS
 10
2.777280
 20
4.422000
  0
VERTEX
  8
0
  6
CONTINUOUS
 10
2.765400
 20
4.433880
  0
SEQEND
  8
0
  0
SOLID
  8
0
 62
    15
 10
2.777280
 20
4.422000
 11
2.772440
 21
5.165600
 12
2.785640
 22
4.406160
 13
2.780800
 23
5.149760
  0
POLYLINE
  8
0
  6
CONTINUOUS
 66
     1
 40
0.000000
 41
0.000000
  0
VERTEX
  8
0
  6
CONTINUOUS
 10
2.777280
 20
4.422000
  0
VERTEX
  8
0
  6
CONTINUOUS
 10
2.772440
 20
5.165600
  0
VERTEX
  8
0
  6
CONTINUOUS
 10
2.780800
 20
5.149760
  0
VERTEX
  8
0
  6
CONTINUOUS
 10
2.785640
 20
4.406160
  0
VERTEX
  8
0
  6
CONTINUOUS
 10
2.777280
 20
4.422000
  0
SEQEND
  8
0
  0
SOLID
  8
0
 62
    15
 10
2.790480
 20
4.385920
 11
2.785640
 21
5.129080
 12
2.791800
 22
4.359960
 13
2.786960
 23
5.103560
  0
POLYLINE
  8
0
  6
CONTINUOUS
 66
     1
 40
0.000000
 41
0.000000
  0
VERTEX
  8
0
  6
CONTINUOUS
 10
2.790480
 20
4.385920
  0
VERTEX
  8
0
  6
CONTINUOUS
 10
2.785640
 20
5.129080
  0
VERTEX
  8
0
  6
CONTINUOUS
 10
2.786960
 20
5.103560
  0
VERTEX
  8
0
  6
CONTINUOUS
 10
2.791800
 20
4.359960
  0
VERTEX
  8
0
  6
CONTINUOUS
 10
2.790480
 20
4.385920
  0
SEQEND
  8
0
  0
SOLID
  8
0
 62
    15
 10
2.785640
 20
4.406160
 11
2.780800
 21
5.149760
 12
2.790480
 22
4.385920
 13
2.785640
 23
5.129080
  0
POLYLINE
  8
0
  6
CONTINUOUS
 66
     1
 40
0.000000
 41
0.000000
  0
VERTEX
  8
0
  6
CONTINUOUS
 10
2.785640
 20
4.406160
  0
VERTEX
  8
0
  6
CONTINUOUS
 10
2.780800
 20
5.149760
  0
VERTEX
  8
0
  6
CONTINUOUS
 10
2.785640
 20
5.129080
  0
VERTEX
  8
0
  6
CONTINUOUS
 10
2.790480
 20
4.385920
  0
VERTEX
  8
0
  6
CONTINUOUS
 10
2.785640
 20
4.406160
  0
SEQEND
  8
0
  0
SOLID
  8
0
 62
    15
 10
2.792240
 20
4.327400
 11
2.787400
 21
5.071000
 12
2.799720
 22
4.303640
 13
2.794880
 23
5.047240
  0
POLYLINE
  8
0
  6
CONTINUOUS
 66
     1
 40
0.000000
 41
0.000000
  0
VERTEX
  8
0
  6
CONTINUOUS
 10
2.792240
 20
4.327400
  0
VERTEX
  8
0
  6
CONTINUOUS
 10
2.787400
 20
5.071000
  0
VERTEX
  8
0
  6
CONTINUOUS
 10
2.794880
 20
5.047240
  0
VERTEX
  8
0
  6
CONTINUOUS
 10
2.799720
 20
4.303640
  0
VERTEX
  8
0
  6
CONTINUOUS
 10
2.792240
 20
4.327400
  0
SEQEND
  8
0
  0
SOLID
  8
0
 62
    15
 10
2.791800
 20
4.342800
 11
2.786960
 21
5.086400
 12
2.792240
 22
4.327400
 13
2.787400
 23
5.071000
  0
POLYLINE
  8
0
  6
CONTINUOUS
 66
     1
 40
0.000000
 41
0.000000
  0
VERTEX
  8
0
  6
CONTINUOUS
 10
2.791800
 20
4.342800
  0
VERTEX
  8
0
  6
CONTINUOUS
 10
2.786960
 20
5.086400
  0
VERTEX
  8
0
  6
CONTINUOUS
 10
2.787400
 20
5.071000
  0
VERTEX
  8
0
  6
CONTINUOUS
 10
2.792240
 20
4.327400
  0
VERTEX
  8
0
  6
CONTINUOUS
 10
2.791800
 20
4.342800
  0
SEQEND
  8
0
  0
SOLID
  8
0
 62
    15
 10
2.799720
 20
4.303640
 11
2.794880
 21
5.047240
 12
2.808080
 22
4.295280
 13
2.803240
 23
5.038880
  0
POLYLINE
  8
0
  6
CONTINUOUS
 66
     1
 40
0.000000
 41
0.000000
  0
VERTEX
  8
0
  6
CONTINUOUS
 10
2.799720
 20
4.303640
  0
VERTEX
  8
0
  6
CONTINUOUS
 10
2.794880
 20
5.047240
  0
VERTEX
  8
0
  6
CONTINUOUS
 10
2.803240
 20
5.038880
  0
VERTEX
  8
0
  6
CONTINUOUS
 10
2.808080
 20
4.295280
  0
VERTEX
  8
0
  6
CONTINUOUS
 10
2.799720
 20
4.303640
  0
SEQEND
  8
0
  0
SOLID
  8
0
 62
    15
 10
2.808080
 20
4.295280
 11
2.803240
 21
5.038880
 12
2.820840
 22
4.289120
 13
2.816000
 23
5.032280
  0
POLYLINE
  8
0
  6
CONTINUOUS
 66
     1
 40
0.000000
 41
0.000000
  0
VERTEX
  8
0
  6
CONTINUOUS
 10
2.808080
 20
4.295280
  0
VERTEX
  8
0
  6
CONTINUOUS
 10
2.803240
 20
5.038880
  0
VERTEX
  8
0
  6
CONTINUOUS
 10
2.816000
 20
5.032280
  0
VERTEX
  8
0
  6
CONTINUOUS
 10
2.820840
 20
4.289120
  0
VERTEX
  8
0
  6
CONTINUOUS
 10
2.808080
 20
4.295280
  0
SEQEND
  8
0
  0
SOLID
  8
0
 62
    15
 10
2.820840
 20
4.289120
 11
2.816000
 21
5.032280
 12
2.838880
 22
4.285160
 13
2.834040
 23
5.028760
  0
POLYLINE
  8
0
  6
CONTINUOUS
 66
     1
 40
0.000000
 41
0.000000
  0
VERTEX
  8
0
  6
CONTINUOUS
 10
2.820840
 20
4.289120
  0
VERTEX
  8
0
  6
CONTINUOUS
 10
2.816000
 20
5.032280
  0
VERTEX
  8
0
  6
CONTINUOUS
 10
2.834040
 20
5.028760
  0
VERTEX
  8
0
  6
CONTINUOUS
 10
2.838880
 20
4.285160
  0
VERTEX
  8
0
  6
CONTINUOUS
 10
2.820840
 20
4.289120
  0
SEQEND
  8
0
  0
SOLID
  8
0
 62
    15
 10
2.838880
 20
4.285160
 11
2.834040
 21
5.028760
 12
2.863520
 22
4.283840
 13
2.858680
 23
5.027440
  0
POLYLINE
  8
0
  6
CONTINUOUS
 66
     1
 40
0.000000
 41
0.000000
  0
VERTEX
  8
0
  6
CONTINUOUS
 10
2.838880
 20
4.285160
  0
VERTEX
  8
0
  6
CONTINUOUS
 10
2.834040
 20
5.028760
  0
VERTEX
  8
0
  6
CONTINUOUS
 10
2.858680
 20
5.027440
  0
VERTEX
  8
0
  6
CONTINUOUS
 10
2.863520
 20
4.283840
  0
VERTEX
  8
0
  6
CONTINUOUS
 10
2.838880
 20
4.285160
  0
SEQEND
  8
0
  0
SOLID
  8
0
 62
    15
 10
2.863520
 20
4.283840
 11
2.858680
 21
5.027440
 12
2.887720
 22
4.278560
 13
2.882880
 23
5.022160
  0
POLYLINE
  8
0
  6
CONTINUOUS
 66
     1
 40
0.000000
 41
0.000000
  0
VERTEX
  8
0
  6
CONTINUOUS
 10
2.863520
 20
4.283840
  0
VERTEX
  8
0
  6
CONTINUOUS
 10
2.858680
 20
5.027440
  0
VERTEX
  8
0
  6
CONTINUOUS
 10
2.882880
 20
5.022160
  0
VERTEX
  8
0
  6
CONTINUOUS
 10
2.887720
 20
4.278560
  0
VERTEX
  8
0
  6
CONTINUOUS
 10
2.863520
 20
4.283840
  0
SEQEND
  8
0
  0
SOLID
  8
0
 62
    15
 10
2.887720
 20
4.278560
 11
2.882880
 21
5.022160
 12
2.905320
 22
4.264040
 13
2.900480
 23
5.007640
  0
POLYLINE
  8
0
  6
CONTINUOUS
 66
     1
 40
0.000000
 41
0.000000
  0
VERTEX
  8
0
  6
CONTINUOUS
 10
2.887720
 20
4.278560
  0
VERTEX
  8
0
  6
CONTINUOUS
 10
2.882880
 20
5.022160
  0
VERTEX
  8
0
  6
CONTINUOUS
 10
2.900480
 20
5.007640
  0
VERTEX
  8
0
  6
CONTINUOUS
 10
2.905320
 20
4.264040
  0
VERTEX
  8
0
  6
CONTINUOUS
 10
2.887720
 20
4.278560
  0
SEQEND
  8
0
  0
SOLID
  8
0
 62
    15
 10
2.905320
 20
4.264040
 11
2.900480
 21
5.007640
 12
2.917200
 22
4.243800
 13
2.912360
 23
4.987400
  0
POLYLINE
  8
0
  6
CONTINUOUS
 66
     1
 40
0.000000
 41
0.000000
  0
VERTEX
  8
0
  6
CONTINUOUS
 10
2.905320
 20
4.264040
  0
VERTEX
  8
0
  6
CONTINUOUS
 10
2.900480
 20
5.007640
  0
VERTEX
  8
0
  6
CONTINUOUS
 10
2.912360
 20
4.987400
  0
VERTEX
  8
0
  6
CONTINUOUS
 10
2.917200
 20
4.243800
  0
VERTEX
  8
0
  6
CONTINUOUS
 10
2.905320
 20
4.264040
  0
SEQEND
  8
0
  0
SOLID
  8
0
 62
    15
 10
2.917200
 20
4.243800
 11
2.912360
 21
4.987400
 12
2.924240
 22
4.220920
 13
2.919400
 23
4.964080
  0
POLYLINE
  8
0
  6
CONTINUOUS
 66
     1
 40
0.000000
 41
0.000000
  0
VERTEX
  8
0
  6
CONTINUOUS
 10
2.917200
 20
4.243800
  0
VERTEX
  8
0
  6
CONTINUOUS
 10
2.912360
 20
4.987400
  0
VERTEX
  8
0
  6
CONTINUOUS
 10
2.919400
 20
4.964080
  0
VERTEX
  8
0
  6
CONTINUOUS
 10
2.924240
 20
4.220920
  0
VERTEX
  8
0
  6
CONTINUOUS
 10
2.917200
 20
4.243800
  0
SEQEND
  8
0
  0
SOLID
  8
0
 62
    15
 10
2.924240
 20
4.220920
 11
2.919400
 21
4.964080
 12
2.928200
 22
4.197600
 13
2.923360
 23
4.941200
  0
POLYLINE
  8
0
  6
CONTINUOUS
 66
     1
 40
0.000000
 41
0.000000
  0
VERTEX
  8
0
  6
CONTINUOUS
 10
2.924240
 20
4.220920
  0
VERTEX
  8
0
  6
CONTINUOUS
 10
2.919400
 20
4.964080
  0
VERTEX
  8
0
  6
CONTINUOUS
 10
2.923360
 20
4.941200
  0
VERTEX
  8
0
  6
CONTINUOUS
 10
2.928200
 20
4.197600
  0
VERTEX
  8
0
  6
CONTINUOUS
 10
2.924240
 20
4.220920
  0
SEQEND
  8
0
  0
SOLID
  8
0
 62
    15
 10
2.928200
 20
4.197600
 11
2.923360
 21
4.941200
 12
2.929520
 22
4.177360
 13
2.924680
 23
4.920960
  0
POLYLINE
  8
0
  6
CONTINUOUS
 66
     1
 40
0.000000
 41
0.000000
  0
VERTEX
  8
0
  6
CONTINUOUS
 10
2.928200
 20
4.197600
  0
VERTEX
  8
0
  6
CONTINUOUS
 10
2.923360
 20
4.941200
  0
VERTEX
  8
0
  6
CONTINUOUS
 10
2.924680
 20
4.920960
  0
VERTEX
  8
0
  6
CONTINUOUS
 10
2.929520
 20
4.177360
  0
VERTEX
  8
0
  6
CONTINUOUS
 10
2.928200
 20
4.197600
  0
SEQEND
  8
0
  0
POLYLINE
  8
0
  6
CONTINUOUS
 66
     1
 40
0.000000
 41
0.000000
  0
VERTEX
  8
0
  6
CONTINUOUS
 10
2.929520
 20
4.111360
  0
VERTEX
  8
0
  6
CONTINUOUS
 10
1.422960
 20
4.111360
  0
VERTEX
  8
0
  6
CONTINUOUS
 10
1.422960
 20
4.860680
  0
VERTEX
  8
0
  6
CONTINUOUS
 10
1.891120
 20
4.859800
  0
VERTEX
  8
0
  6
CONTINUOUS
 10
1.917080
 20
4.784120
  0
VERTEX
  8
0
  6
CONTINUOUS
 10
1.994520
 20
4.784560
  0
VERTEX
  8
0
  6
CONTINUOUS
 10
2.065360
 20
4.775760
  0
VERTEX
  8
0
  6
CONTINUOUS
 10
2.129160
 20
4.759920
  0
VERTEX
  8
0
  6
CONTINUOUS
 10
2.186800
 20
4.738360
  0
VERTEX
  8
0
  6
CONTINUOUS
 10
2.237400
 20
4.712400
  0
VERTEX
  8
0
  6
CONTINUOUS
 10
2.281400
 20
4.684240
  0
VERTEX
  8
0
  6
CONTINUOUS
 10
2.318800
 20
4.655640
  0
VERTEX
  8
0
  6
CONTINUOUS
 10
2.349160
 20
4.627480
  0
VERTEX
  8
0
  6
CONTINUOUS
 10
2.362800
 20
4.613400
  0
VERTEX
  8
0
  6
CONTINUOUS
 10
2.376440
 20
4.598880
  0
VERTEX
  8
0
  6
CONTINUOUS
 10
2.405480
 20
4.568960
  0
VERTEX
  8
0
  6
CONTINUOUS
 10
2.437160
 20
4.539480
  0
VERTEX
  8
0
  6
CONTINUOUS
 10
2.473240
 20
4.511760
  0
VERTEX
  8
0
  6
CONTINUOUS
 10
2.515040
 20
4.487560
  0
VERTEX
  8
0
  6
CONTINUOUS
 10
2.564320
 20
4.468200
  0
VERTEX
  8
0
  6
CONTINUOUS
 10
2.621960
 20
4.455440
  0
VERTEX
  8
0
  6
CONTINUOUS
 10
2.689280
 20
4.450600
  0
VERTEX
  8
0
  6
CONTINUOUS
 10
2.732400
 20
4.447080
  0
VERTEX
  8
0
  6
CONTINUOUS
 10
2.750440
 20
4.442240
  0
VERTEX
  8
0
  6
CONTINUOUS
 10
2.765400
 20
4.433880
  0
VERTEX
  8
0
  6
CONTINUOUS
 10
2.777280
 20
4.422000
  0
VERTEX
  8
0
  6
CONTINUOUS
 10
2.785640
 20
4.406160
  0
VERTEX
  8
0
  6
CONTINUOUS
 10
2.790480
 20
4.385920
  0
VERTEX
  8
0
  6
CONTINUOUS
 10
2.791800
 20
4.359960
  0
VERTEX
  8
0
  6
CONTINUOUS
 10
2.791800
 20
4.342800
  0
VERTEX
  8
0
  6
CONTINUOUS
 10
2.792240
 20
4.327400
  0
VERTEX
  8
0
  6
CONTINUOUS
 10
2.799720
 20
4.303640
  0
VERTEX
  8
0
  6
CONTINUOUS
 10
2.808080
 20
4.295280
  0
VERTEX
  8
0
  6
CONTINUOUS
 10
2.820840
 20
4.289120
  0
VERTEX
  8
0
  6
CONTINUOUS
 10
2.838880
 20
4.285160
  0
VERTEX
  8
0
  6
CONTINUOUS
 10
2.863520
 20
4.283840
  0
VERTEX
  8
0
  6
CONTINUOUS
 10
2.887720
 20
4.278560
  0
VERTEX
  8
0
  6
CONTINUOUS
 10
2.905320
 20
4.264040
  0
VERTEX
  8
0
  6
CONTINUOUS
 10
2.917200
 20
4.243800
  0
VERTEX
  8
0
  6
CONTINUOUS
 10
2.924240
 20
4.220920
  0
VERTEX
  8
0
  6
CONTINUOUS
 10
2.928200
 20
4.197600
  0
VERTEX
  8
0
  6
CONTINUOUS
 10
2.929520
 20
4.177360
  0
VERTEX
  8
0
  6
CONTINUOUS
 10
2.929520
 20
4.163280
  0
VERTEX
  8
0
  6
CONTINUOUS
 10
2.929520
 20
4.157560
  0
VERTEX
  8
0
  6
CONTINUOUS
 10
2.929520
 20
4.111360
  0
SEQEND
  8
0
  0
TEXT
  8
0
 10
3.379200
 20
3.124440
 40
0.138197
  1
BA  1227 
 41
1.000000
  7
SN0
 71
     0
 72
     5
 11
4.108381
 21
3.124440
  0
TEXT
  8
0
 10
4.108280
 20
3.124440
 40
0.138197
  1
3/4" x 1-1/2"
 41
1.000000
  7
SN0
 71
     0
 72
     5
 11
5.009616
 21
3.124440
  0
TEXT
  8
0
 10
3.379200
 20
2.933040
 40
0.138197
  1
BA  1228 3/4" x 5-1/2"
 41
1.000000
  7
SN0
 71
     0
 72
     5
 11
5.009397
 21
2.933040
  0
ENDSEC
  0
EOF
