  0
SECTION
  2
HEADER
  9
$ACADVER
  1
AC1006
  9
$EXTMIN
 10
1.740200
 20
3.728560
  9
$EXTMAX
 10
7.295200
 20
9.339000
  9
$LTSCALE
 40
0.044000
  9
$PDMODE
 70
    35
  9
$PDSIZE
 40
0.035200
  0
ENDSEC
  0
SECTION
  2
TABLES
  0
TABLE
  2
LTYPE
 70
     9
  0
LTYPE
  2
CONTINUOUS
 70
    64
  3
Solid line
 72
    65
 73
     0
 40
0.000000
  0
LTYPE
  2
DASHED
 70
    64
  3
__ __ __ __ __ __ __ __ __ __ __ __ __ __ __
 72
    65
 73
     2
 40
0.000330
 49
0.000220
 49
-0.000110
  0
LTYPE
  2
HIDDEN
 70
    64
  3
 _ _ _ _ _ _ _ _ _ _ _ _ _ _ _ _ _ _ _ _ _ _
 72
    65
 73
     2
 40
0.000165
 49
0.000110
 49
-0.000055
  0
LTYPE
  2
CENTER
 70
    64
  3
____ _ ____ _ ____ _ ____ _ ____ _ ____ _ ____
 72
    65
 73
     4
 40
0.000880
 49
0.000550
 49
-0.000110
 49
0.000110
 49
-0.000110
  0
LTYPE
  2
PHANTOM
 70
    64
  3
_____ _ _ _____ _ _ _____ _ _ _____ _ _ ____
 72
    65
 73
     6
 40
0.001100
 49
0.000550
 49
-0.000110
 49
0.000110
 49
-0.000110
 49
0.000110
 49
-0.000110
  0
LTYPE
  2
DOT
 70
    64
  3
...............................................
 72
    65
 73
     2
 40
0.000110
 49
0.000000
 49
-0.000110
  0
LTYPE
  2
DASHDOT
 70
    64
  3
__ . __ . __ . __ . __ . __ . __ . __ . __ . __
 72
    65
 73
     4
 40
0.000440
 49
0.000220
 49
-0.000110
 49
0.000000
 49
-0.000110
  0
LTYPE
  2
BORDER
 70
    64
  3
__ __ . __ __ . __ __ . __ __ . __ __ . __ __
 72
    65
 73
     6
 40
0.000770
 49
0.000220
 49
-0.000110
 49
0.000220
 49
-0.000110
 49
0.000000
 49
-0.000110
  0
LTYPE
  2
DIVIDE
 70
    64
  3
__ . . __ . . __ . . __ . . __ . . __ . . __
 72
    65
 73
     6
 40
0.000550
 49
0.000220
 49
-0.000110
 49
0.000000
 49
-0.000110
 49
0.000000
 49
-0.000110
  0
LTYPE
  2
DOTDOT
 70
    64
  3
 . .  . .  . .  . .  . .  . . 
 72
    65
 73
     5
 40
0.000242
 49
-0.000110
 49
0.000000
 49
-0.000110
 49
0.000000
 49
-0.000110
  0
ENDTAB
  0
TABLE
  2
STYLE
 70
     2
  0
STYLE
 70
     0
  2
SN0
 40
0.000000
 41
0.000440
 50
0.000000
 71
     0
 42
0.000000
  3
ROMAND
  0
STYLE
 70
    68
  2
SV0
 40
0.000000
 41
0.000440
 50
0.000000
 71
     0
 42
0.000000
  3
ROMAND
  0
ENDTAB
  0
TABLE
  2
LAYER
 70
     3
  0
LAYER
  2
FOREGROUND
 70
    64
 62
     7
  6
CONTINUOUS
  0
LAYER
  2
BACKGROUND
 70
    65
 62
    -7
  6
CONTINUOUS
  0
LAYER
  2
0
 70
    64
 62
     7
  6
CONTINUOUS
  0
ENDTAB
  0
ENDSEC
  0
SECTION
  2
ENTITIES
  0
POLYLINE
  8
FOREGROUND
  6
CONTINUOUS
 66
     1
 40
0.000000
 41
0.000000
  0
VERTEX
  8
FOREGROUND
  6
CONTINUOUS
 10
0.000000
 20
13.067560
  0
VERTEX
  8
FOREGROUND
  6
CONTINUOUS
 10
8.499920
 20
13.067560
  0
VERTEX
  8
FOREGROUND
  6
CONTINUOUS
 10
8.499920
 20
2.067560
  0
VERTEX
  8
FOREGROUND
  6
CONTINUOUS
 10
0.000000
 20
2.067560
  0
VERTEX
  8
FOREGROUND
  6
CONTINUOUS
 10
0.000000
 20
13.067560
  0
SEQEND
  8
0
  0
POLYLINE
  8
FOREGROUND
  6
CONTINUOUS
 66
     1
 40
0.000000
 41
0.000000
  0
VERTEX
  8
FOREGROUND
  6
CONTINUOUS
 10
0.000000
 20
13.067560
  0
VERTEX
  8
FOREGROUND
  6
CONTINUOUS
 10
8.499920
 20
13.067560
  0
VERTEX
  8
FOREGROUND
  6
CONTINUOUS
 10
8.499920
 20
2.067560
  0
VERTEX
  8
FOREGROUND
  6
CONTINUOUS
 10
0.000000
 20
2.067560
  0
VERTEX
  8
FOREGROUND
  6
CONTINUOUS
 10
0.000000
 20
13.067560
  0
SEQEND
  8
0
  0
POLYLINE
  8
0
  6
CONTINUOUS
 66
     1
 40
0.014080
 41
0.014080
  0
VERTEX
  8
0
  6
CONTINUOUS
 10
6.174960
 20
8.283880
  0
VERTEX
  8
0
  6
CONTINUOUS
 10
4.668400
 20
8.283880
  0
VERTEX
  8
0
  6
CONTINUOUS
 10
4.668400
 20
9.033200
  0
VERTEX
  8
0
  6
CONTINUOUS
 10
5.137000
 20
9.032320
  0
VERTEX
  8
0
  6
CONTINUOUS
 10
5.162520
 20
8.956640
  0
VERTEX
  8
0
  6
CONTINUOUS
 10
5.221480
 20
8.957960
  0
VERTEX
  8
0
  6
CONTINUOUS
 10
5.276480
 20
8.953560
  0
VERTEX
  8
0
  6
CONTINUOUS
 10
5.310800
 20
8.948280
  0
VERTEX
  8
0
  6
CONTINUOUS
 10
5.343800
 20
8.941240
  0
VERTEX
  8
0
  6
CONTINUOUS
 10
5.375040
 20
8.932440
  0
VERTEX
  8
0
  6
CONTINUOUS
 10
5.432240
 20
8.910440
  0
VERTEX
  8
0
  6
CONTINUOUS
 10
5.458640
 20
8.898120
  0
VERTEX
  8
0
  6
CONTINUOUS
 10
5.505720
 20
8.870840
  0
VERTEX
  8
0
  6
CONTINUOUS
 10
5.546200
 20
8.842240
  0
VERTEX
  8
0
  6
CONTINUOUS
 10
5.580080
 20
8.813640
  0
VERTEX
  8
0
  6
CONTINUOUS
 10
5.666320
 20
8.726520
  0
VERTEX
  8
0
  6
CONTINUOUS
 10
5.700200
 20
8.697920
  0
VERTEX
  8
0
  6
CONTINUOUS
 10
5.738920
 20
8.671520
  0
VERTEX
  8
0
  6
CONTINUOUS
 10
5.784240
 20
8.649520
  0
VERTEX
  8
0
  6
CONTINUOUS
 10
5.823400
 20
8.636760
  0
VERTEX
  8
0
  6
CONTINUOUS
 10
5.852000
 20
8.630160
  0
VERTEX
  8
0
  6
CONTINUOUS
 10
5.899960
 20
8.624440
  0
VERTEX
  8
0
  6
CONTINUOUS
 10
5.958040
 20
8.622240
  0
VERTEX
  8
0
  6
CONTINUOUS
 10
5.978280
 20
8.619600
  0
VERTEX
  8
0
  6
CONTINUOUS
 10
5.995880
 20
8.614320
  0
VERTEX
  8
0
  6
CONTINUOUS
 10
6.010840
 20
8.606400
  0
VERTEX
  8
0
  6
CONTINUOUS
 10
6.017440
 20
8.601120
  0
VERTEX
  8
0
  6
CONTINUOUS
 10
6.027560
 20
8.587040
  0
VERTEX
  8
0
  6
CONTINUOUS
 10
6.031520
 20
8.578680
  0
VERTEX
  8
0
  6
CONTINUOUS
 10
6.036360
 20
8.558440
  0
VERTEX
  8
0
  6
CONTINUOUS
 10
6.038120
 20
8.499920
  0
VERTEX
  8
0
  6
CONTINUOUS
 10
6.042080
 20
8.481440
  0
VERTEX
  8
0
  6
CONTINUOUS
 10
6.048680
 20
8.471760
  0
VERTEX
  8
0
  6
CONTINUOUS
 10
6.059240
 20
8.464280
  0
VERTEX
  8
0
  6
CONTINUOUS
 10
6.074640
 20
8.459000
  0
VERTEX
  8
0
  6
CONTINUOUS
 10
6.122160
 20
8.455040
  0
VERTEX
  8
0
  6
CONTINUOUS
 10
6.138440
 20
8.448000
  0
VERTEX
  8
0
  6
CONTINUOUS
 10
6.150760
 20
8.436560
  0
VERTEX
  8
0
  6
CONTINUOUS
 10
6.162640
 20
8.416320
  0
VERTEX
  8
0
  6
CONTINUOUS
 10
6.170120
 20
8.393000
  0
VERTEX
  8
0
  6
CONTINUOUS
 10
6.174520
 20
8.359560
  0
VERTEX
  8
0
  6
CONTINUOUS
 10
6.174960
 20
8.330080
  0
VERTEX
  8
0
  6
CONTINUOUS
 10
6.174960
 20
8.283880
  0
SEQEND
  8
0
  0
SOLID
  8
0
 62
    15
 10
3.630440
 20
8.189280
 11
3.625600
 21
8.932440
 12
3.697760
 22
8.184440
 13
3.692920
 23
8.928040
  0
POLYLINE
  8
0
  6
CONTINUOUS
 66
     1
 40
0.000000
 41
0.000000
  0
VERTEX
  8
0
  6
CONTINUOUS
 10
3.630440
 20
8.189280
  0
VERTEX
  8
0
  6
CONTINUOUS
 10
3.625600
 20
8.932440
  0
VERTEX
  8
0
  6
CONTINUOUS
 10
3.692920
 20
8.928040
  0
VERTEX
  8
0
  6
CONTINUOUS
 10
3.697760
 20
8.184440
  0
VERTEX
  8
0
  6
CONTINUOUS
 10
3.630440
 20
8.189280
  0
SEQEND
  8
0
  0
SOLID
  8
0
 62
    15
 10
2.431440
 20
7.845200
 11
2.426600
 21
8.588800
 12
2.431440
 22
8.594520
 13
2.426600
 23
9.338120
  0
POLYLINE
  8
0
  6
CONTINUOUS
 66
     1
 40
0.000000
 41
0.000000
  0
VERTEX
  8
0
  6
CONTINUOUS
 10
2.431440
 20
7.845200
  0
VERTEX
  8
0
  6
CONTINUOUS
 10
2.426600
 20
8.588800
  0
VERTEX
  8
0
  6
CONTINUOUS
 10
2.426600
 20
9.338120
  0
VERTEX
  8
0
  6
CONTINUOUS
 10
2.431440
 20
8.594520
  0
VERTEX
  8
0
  6
CONTINUOUS
 10
2.431440
 20
7.845200
  0
SEQEND
  8
0
  0
SOLID
  8
0
 62
    15
 10
2.899600
 20
8.593640
 11
2.894760
 21
9.337240
 12
2.925560
 22
8.517960
 13
2.920720
 23
9.261560
  0
POLYLINE
  8
0
  6
CONTINUOUS
 66
     1
 40
0.000000
 41
0.000000
  0
VERTEX
  8
0
  6
CONTINUOUS
 10
2.899600
 20
8.593640
  0
VERTEX
  8
0
  6
CONTINUOUS
 10
2.894760
 20
9.337240
  0
VERTEX
  8
0
  6
CONTINUOUS
 10
2.920720
 20
9.261560
  0
VERTEX
  8
0
  6
CONTINUOUS
 10
2.925560
 20
8.517960
  0
VERTEX
  8
0
  6
CONTINUOUS
 10
2.899600
 20
8.593640
  0
SEQEND
  8
0
  0
SOLID
  8
0
 62
    15
 10
2.925560
 20
8.517960
 11
2.920720
 21
9.261560
 12
3.003000
 22
8.518400
 13
2.998160
 23
9.261560
  0
POLYLINE
  8
0
  6
CONTINUOUS
 66
     1
 40
0.000000
 41
0.000000
  0
VERTEX
  8
0
  6
CONTINUOUS
 10
2.925560
 20
8.517960
  0
VERTEX
  8
0
  6
CONTINUOUS
 10
2.920720
 20
9.261560
  0
VERTEX
  8
0
  6
CONTINUOUS
 10
2.998160
 20
9.261560
  0
VERTEX
  8
0
  6
CONTINUOUS
 10
3.003000
 20
8.518400
  0
VERTEX
  8
0
  6
CONTINUOUS
 10
2.925560
 20
8.517960
  0
SEQEND
  8
0
  0
SOLID
  8
0
 62
    15
 10
3.003000
 20
8.518400
 11
2.998160
 21
9.261560
 12
3.073840
 22
8.509600
 13
3.069000
 23
9.253200
  0
POLYLINE
  8
0
  6
CONTINUOUS
 66
     1
 40
0.000000
 41
0.000000
  0
VERTEX
  8
0
  6
CONTINUOUS
 10
3.003000
 20
8.518400
  0
VERTEX
  8
0
  6
CONTINUOUS
 10
2.998160
 20
9.261560
  0
VERTEX
  8
0
  6
CONTINUOUS
 10
3.069000
 20
9.253200
  0
VERTEX
  8
0
  6
CONTINUOUS
 10
3.073840
 20
8.509600
  0
VERTEX
  8
0
  6
CONTINUOUS
 10
3.003000
 20
8.518400
  0
SEQEND
  8
0
  0
SOLID
  8
0
 62
    15
 10
3.073840
 20
8.509600
 11
3.069000
 21
9.253200
 12
3.137640
 22
8.493760
 13
3.132800
 23
9.236920
  0
POLYLINE
  8
0
  6
CONTINUOUS
 66
     1
 40
0.000000
 41
0.000000
  0
VERTEX
  8
0
  6
CONTINUOUS
 10
3.073840
 20
8.509600
  0
VERTEX
  8
0
  6
CONTINUOUS
 10
3.069000
 20
9.253200
  0
VERTEX
  8
0
  6
CONTINUOUS
 10
3.132800
 20
9.236920
  0
VERTEX
  8
0
  6
CONTINUOUS
 10
3.137640
 20
8.493760
  0
VERTEX
  8
0
  6
CONTINUOUS
 10
3.073840
 20
8.509600
  0
SEQEND
  8
0
  0
SOLID
  8
0
 62
    15
 10
3.137640
 20
8.493760
 11
3.132800
 21
9.236920
 12
3.195280
 22
8.471760
 13
3.190440
 23
9.215360
  0
POLYLINE
  8
0
  6
CONTINUOUS
 66
     1
 40
0.000000
 41
0.000000
  0
VERTEX
  8
0
  6
CONTINUOUS
 10
3.137640
 20
8.493760
  0
VERTEX
  8
0
  6
CONTINUOUS
 10
3.132800
 20
9.236920
  0
VERTEX
  8
0
  6
CONTINUOUS
 10
3.190440
 20
9.215360
  0
VERTEX
  8
0
  6
CONTINUOUS
 10
3.195280
 20
8.471760
  0
VERTEX
  8
0
  6
CONTINUOUS
 10
3.137640
 20
8.493760
  0
SEQEND
  8
0
  0
SOLID
  8
0
 62
    15
 10
3.195280
 20
8.471760
 11
3.190440
 21
9.215360
 12
3.245880
 22
8.446240
 13
3.241040
 23
9.189840
  0
POLYLINE
  8
0
  6
CONTINUOUS
 66
     1
 40
0.000000
 41
0.000000
  0
VERTEX
  8
0
  6
CONTINUOUS
 10
3.195280
 20
8.471760
  0
VERTEX
  8
0
  6
CONTINUOUS
 10
3.190440
 20
9.215360
  0
VERTEX
  8
0
  6
CONTINUOUS
 10
3.241040
 20
9.189840
  0
VERTEX
  8
0
  6
CONTINUOUS
 10
3.245880
 20
8.446240
  0
VERTEX
  8
0
  6
CONTINUOUS
 10
3.195280
 20
8.471760
  0
SEQEND
  8
0
  0
SOLID
  8
0
 62
    15
 10
3.245880
 20
8.446240
 11
3.241040
 21
9.189840
 12
3.289880
 22
8.418080
 13
3.285040
 23
9.161680
  0
POLYLINE
  8
0
  6
CONTINUOUS
 66
     1
 40
0.000000
 41
0.000000
  0
VERTEX
  8
0
  6
CONTINUOUS
 10
3.245880
 20
8.446240
  0
VERTEX
  8
0
  6
CONTINUOUS
 10
3.241040
 20
9.189840
  0
VERTEX
  8
0
  6
CONTINUOUS
 10
3.285040
 20
9.161680
  0
VERTEX
  8
0
  6
CONTINUOUS
 10
3.289880
 20
8.418080
  0
VERTEX
  8
0
  6
CONTINUOUS
 10
3.245880
 20
8.446240
  0
SEQEND
  8
0
  0
SOLID
  8
0
 62
    15
 10
3.289880
 20
8.418080
 11
3.285040
 21
9.161680
 12
3.327280
 22
8.389040
 13
3.322440
 23
9.132640
  0
POLYLINE
  8
0
  6
CONTINUOUS
 66
     1
 40
0.000000
 41
0.000000
  0
VERTEX
  8
0
  6
CONTINUOUS
 10
3.289880
 20
8.418080
  0
VERTEX
  8
0
  6
CONTINUOUS
 10
3.285040
 20
9.161680
  0
VERTEX
  8
0
  6
CONTINUOUS
 10
3.322440
 20
9.132640
  0
VERTEX
  8
0
  6
CONTINUOUS
 10
3.327280
 20
8.389040
  0
VERTEX
  8
0
  6
CONTINUOUS
 10
3.289880
 20
8.418080
  0
SEQEND
  8
0
  0
SOLID
  8
0
 62
    15
 10
3.327280
 20
8.389040
 11
3.322440
 21
9.132640
 12
3.357640
 22
8.361320
 13
3.352800
 23
9.104480
  0
POLYLINE
  8
0
  6
CONTINUOUS
 66
     1
 40
0.000000
 41
0.000000
  0
VERTEX
  8
0
  6
CONTINUOUS
 10
3.327280
 20
8.389040
  0
VERTEX
  8
0
  6
CONTINUOUS
 10
3.322440
 20
9.132640
  0
VERTEX
  8
0
  6
CONTINUOUS
 10
3.352800
 20
9.104480
  0
VERTEX
  8
0
  6
CONTINUOUS
 10
3.357640
 20
8.361320
  0
VERTEX
  8
0
  6
CONTINUOUS
 10
3.327280
 20
8.389040
  0
SEQEND
  8
0
  0
SOLID
  8
0
 62
    15
 10
3.357640
 20
8.361320
 11
3.352800
 21
9.104480
 12
3.371280
 22
8.347240
 13
3.366440
 23
9.090840
  0
POLYLINE
  8
0
  6
CONTINUOUS
 66
     1
 40
0.000000
 41
0.000000
  0
VERTEX
  8
0
  6
CONTINUOUS
 10
3.357640
 20
8.361320
  0
VERTEX
  8
0
  6
CONTINUOUS
 10
3.352800
 20
9.104480
  0
VERTEX
  8
0
  6
CONTINUOUS
 10
3.366440
 20
9.090840
  0
VERTEX
  8
0
  6
CONTINUOUS
 10
3.371280
 20
8.347240
  0
VERTEX
  8
0
  6
CONTINUOUS
 10
3.357640
 20
8.361320
  0
SEQEND
  8
0
  0
SOLID
  8
0
 62
    15
 10
3.371280
 20
8.347240
 11
3.366440
 21
9.090840
 12
3.384920
 22
8.332720
 13
3.380080
 23
9.076320
  0
POLYLINE
  8
0
  6
CONTINUOUS
 66
     1
 40
0.000000
 41
0.000000
  0
VERTEX
  8
0
  6
CONTINUOUS
 10
3.371280
 20
8.347240
  0
VERTEX
  8
0
  6
CONTINUOUS
 10
3.366440
 20
9.090840
  0
VERTEX
  8
0
  6
CONTINUOUS
 10
3.380080
 20
9.076320
  0
VERTEX
  8
0
  6
CONTINUOUS
 10
3.384920
 20
8.332720
  0
VERTEX
  8
0
  6
CONTINUOUS
 10
3.371280
 20
8.347240
  0
SEQEND
  8
0
  0
SOLID
  8
0
 62
    15
 10
3.384920
 20
8.332720
 11
3.380080
 21
9.076320
 12
3.413960
 22
8.302800
 13
3.409120
 23
9.046400
  0
POLYLINE
  8
0
  6
CONTINUOUS
 66
     1
 40
0.000000
 41
0.000000
  0
VERTEX
  8
0
  6
CONTINUOUS
 10
3.384920
 20
8.332720
  0
VERTEX
  8
0
  6
CONTINUOUS
 10
3.380080
 20
9.076320
  0
VERTEX
  8
0
  6
CONTINUOUS
 10
3.409120
 20
9.046400
  0
VERTEX
  8
0
  6
CONTINUOUS
 10
3.413960
 20
8.302800
  0
VERTEX
  8
0
  6
CONTINUOUS
 10
3.384920
 20
8.332720
  0
SEQEND
  8
0
  0
SOLID
  8
0
 62
    15
 10
3.413960
 20
8.302800
 11
3.409120
 21
9.046400
 12
3.445640
 22
8.273320
 13
3.440800
 23
9.016920
  0
POLYLINE
  8
0
  6
CONTINUOUS
 66
     1
 40
0.000000
 41
0.000000
  0
VERTEX
  8
0
  6
CONTINUOUS
 10
3.413960
 20
8.302800
  0
VERTEX
  8
0
  6
CONTINUOUS
 10
3.409120
 20
9.046400
  0
VERTEX
  8
0
  6
CONTINUOUS
 10
3.440800
 20
9.016920
  0
VERTEX
  8
0
  6
CONTINUOUS
 10
3.445640
 20
8.273320
  0
VERTEX
  8
0
  6
CONTINUOUS
 10
3.413960
 20
8.302800
  0
SEQEND
  8
0
  0
SOLID
  8
0
 62
    15
 10
3.445640
 20
8.273320
 11
3.440800
 21
9.016920
 12
3.481720
 22
8.245600
 13
3.476880
 23
8.989200
  0
POLYLINE
  8
0
  6
CONTINUOUS
 66
     1
 40
0.000000
 41
0.000000
  0
VERTEX
  8
0
  6
CONTINUOUS
 10
3.445640
 20
8.273320
  0
VERTEX
  8
0
  6
CONTINUOUS
 10
3.440800
 20
9.016920
  0
VERTEX
  8
0
  6
CONTINUOUS
 10
3.476880
 20
8.989200
  0
VERTEX
  8
0
  6
CONTINUOUS
 10
3.481720
 20
8.245600
  0
VERTEX
  8
0
  6
CONTINUOUS
 10
3.445640
 20
8.273320
  0
SEQEND
  8
0
  0
SOLID
  8
0
 62
    15
 10
3.481720
 20
8.245600
 11
3.476880
 21
8.989200
 12
3.523520
 22
8.221400
 13
3.518680
 23
8.965000
  0
POLYLINE
  8
0
  6
CONTINUOUS
 66
     1
 40
0.000000
 41
0.000000
  0
VERTEX
  8
0
  6
CONTINUOUS
 10
3.481720
 20
8.245600
  0
VERTEX
  8
0
  6
CONTINUOUS
 10
3.476880
 20
8.989200
  0
VERTEX
  8
0
  6
CONTINUOUS
 10
3.518680
 20
8.965000
  0
VERTEX
  8
0
  6
CONTINUOUS
 10
3.523520
 20
8.221400
  0
VERTEX
  8
0
  6
CONTINUOUS
 10
3.481720
 20
8.245600
  0
SEQEND
  8
0
  0
SOLID
  8
0
 62
    15
 10
3.523520
 20
8.221400
 11
3.518680
 21
8.965000
 12
3.572800
 22
8.202040
 13
3.567960
 23
8.945200
  0
POLYLINE
  8
0
  6
CONTINUOUS
 66
     1
 40
0.000000
 41
0.000000
  0
VERTEX
  8
0
  6
CONTINUOUS
 10
3.523520
 20
8.221400
  0
VERTEX
  8
0
  6
CONTINUOUS
 10
3.518680
 20
8.965000
  0
VERTEX
  8
0
  6
CONTINUOUS
 10
3.567960
 20
8.945200
  0
VERTEX
  8
0
  6
CONTINUOUS
 10
3.572800
 20
8.202040
  0
VERTEX
  8
0
  6
CONTINUOUS
 10
3.523520
 20
8.221400
  0
SEQEND
  8
0
  0
SOLID
  8
0
 62
    15
 10
3.572800
 20
8.202040
 11
3.567960
 21
8.945200
 12
3.630440
 22
8.189280
 13
3.625600
 23
8.932440
  0
POLYLINE
  8
0
  6
CONTINUOUS
 66
     1
 40
0.000000
 41
0.000000
  0
VERTEX
  8
0
  6
CONTINUOUS
 10
3.572800
 20
8.202040
  0
VERTEX
  8
0
  6
CONTINUOUS
 10
3.567960
 20
8.945200
  0
VERTEX
  8
0
  6
CONTINUOUS
 10
3.625600
 20
8.932440
  0
VERTEX
  8
0
  6
CONTINUOUS
 10
3.630440
 20
8.189280
  0
VERTEX
  8
0
  6
CONTINUOUS
 10
3.572800
 20
8.202040
  0
SEQEND
  8
0
  0
SOLID
  8
0
 62
    15
 10
2.431440
 20
8.594520
 11
2.426600
 21
9.338120
 12
2.899600
 22
8.593640
 13
2.894760
 23
9.337240
  0
POLYLINE
  8
0
  6
CONTINUOUS
 66
     1
 40
0.000000
 41
0.000000
  0
VERTEX
  8
0
  6
CONTINUOUS
 10
2.431440
 20
8.594520
  0
VERTEX
  8
0
  6
CONTINUOUS
 10
2.426600
 20
9.338120
  0
VERTEX
  8
0
  6
CONTINUOUS
 10
2.894760
 20
9.337240
  0
VERTEX
  8
0
  6
CONTINUOUS
 10
2.899600
 20
8.593640
  0
VERTEX
  8
0
  6
CONTINUOUS
 10
2.431440
 20
8.594520
  0
SEQEND
  8
0
  0
SOLID
  8
0
 62
    15
 10
3.697760
 20
8.184440
 11
3.692920
 21
8.928040
 12
3.740880
 22
8.180920
 13
3.736040
 23
8.924520
  0
POLYLINE
  8
0
  6
CONTINUOUS
 66
     1
 40
0.000000
 41
0.000000
  0
VERTEX
  8
0
  6
CONTINUOUS
 10
3.697760
 20
8.184440
  0
VERTEX
  8
0
  6
CONTINUOUS
 10
3.692920
 20
8.928040
  0
VERTEX
  8
0
  6
CONTINUOUS
 10
3.736040
 20
8.924520
  0
VERTEX
  8
0
  6
CONTINUOUS
 10
3.740880
 20
8.180920
  0
VERTEX
  8
0
  6
CONTINUOUS
 10
3.697760
 20
8.184440
  0
SEQEND
  8
0
  0
SOLID
  8
0
 62
    15
 10
3.740880
 20
8.180920
 11
3.736040
 21
8.924520
 12
3.758920
 22
8.176080
 13
3.754080
 23
8.919240
  0
POLYLINE
  8
0
  6
CONTINUOUS
 66
     1
 40
0.000000
 41
0.000000
  0
VERTEX
  8
0
  6
CONTINUOUS
 10
3.740880
 20
8.180920
  0
VERTEX
  8
0
  6
CONTINUOUS
 10
3.736040
 20
8.924520
  0
VERTEX
  8
0
  6
CONTINUOUS
 10
3.754080
 20
8.919240
  0
VERTEX
  8
0
  6
CONTINUOUS
 10
3.758920
 20
8.176080
  0
VERTEX
  8
0
  6
CONTINUOUS
 10
3.740880
 20
8.180920
  0
SEQEND
  8
0
  0
SOLID
  8
0
 62
    15
 10
3.758920
 20
8.176080
 11
3.754080
 21
8.919240
 12
3.773880
 22
8.167720
 13
3.769040
 23
8.911320
  0
POLYLINE
  8
0
  6
CONTINUOUS
 66
     1
 40
0.000000
 41
0.000000
  0
VERTEX
  8
0
  6
CONTINUOUS
 10
3.758920
 20
8.176080
  0
VERTEX
  8
0
  6
CONTINUOUS
 10
3.754080
 20
8.919240
  0
VERTEX
  8
0
  6
CONTINUOUS
 10
3.769040
 20
8.911320
  0
VERTEX
  8
0
  6
CONTINUOUS
 10
3.773880
 20
8.167720
  0
VERTEX
  8
0
  6
CONTINUOUS
 10
3.758920
 20
8.176080
  0
SEQEND
  8
0
  0
SOLID
  8
0
 62
    15
 10
3.773880
 20
8.167720
 11
3.769040
 21
8.911320
 12
3.785760
 22
8.155840
 13
3.780920
 23
8.899440
  0
POLYLINE
  8
0
  6
CONTINUOUS
 66
     1
 40
0.000000
 41
0.000000
  0
VERTEX
  8
0
  6
CONTINUOUS
 10
3.773880
 20
8.167720
  0
VERTEX
  8
0
  6
CONTINUOUS
 10
3.769040
 20
8.911320
  0
VERTEX
  8
0
  6
CONTINUOUS
 10
3.780920
 20
8.899440
  0
VERTEX
  8
0
  6
CONTINUOUS
 10
3.785760
 20
8.155840
  0
VERTEX
  8
0
  6
CONTINUOUS
 10
3.773880
 20
8.167720
  0
SEQEND
  8
0
  0
SOLID
  8
0
 62
    15
 10
3.785760
 20
8.155840
 11
3.780920
 21
8.899440
 12
3.794120
 22
8.140000
 13
3.789280
 23
8.883600
  0
POLYLINE
  8
0
  6
CONTINUOUS
 66
     1
 40
0.000000
 41
0.000000
  0
VERTEX
  8
0
  6
CONTINUOUS
 10
3.785760
 20
8.155840
  0
VERTEX
  8
0
  6
CONTINUOUS
 10
3.780920
 20
8.899440
  0
VERTEX
  8
0
  6
CONTINUOUS
 10
3.789280
 20
8.883600
  0
VERTEX
  8
0
  6
CONTINUOUS
 10
3.794120
 20
8.140000
  0
VERTEX
  8
0
  6
CONTINUOUS
 10
3.785760
 20
8.155840
  0
SEQEND
  8
0
  0
SOLID
  8
0
 62
    15
 10
3.798960
 20
8.119760
 11
3.794120
 21
8.862920
 12
3.800280
 22
8.093800
 13
3.795440
 23
8.837400
  0
POLYLINE
  8
0
  6
CONTINUOUS
 66
     1
 40
0.000000
 41
0.000000
  0
VERTEX
  8
0
  6
CONTINUOUS
 10
3.798960
 20
8.119760
  0
VERTEX
  8
0
  6
CONTINUOUS
 10
3.794120
 20
8.862920
  0
VERTEX
  8
0
  6
CONTINUOUS
 10
3.795440
 20
8.837400
  0
VERTEX
  8
0
  6
CONTINUOUS
 10
3.800280
 20
8.093800
  0
VERTEX
  8
0
  6
CONTINUOUS
 10
3.798960
 20
8.119760
  0
SEQEND
  8
0
  0
SOLID
  8
0
 62
    15
 10
3.794120
 20
8.140000
 11
3.789280
 21
8.883600
 12
3.798960
 22
8.119760
 13
3.794120
 23
8.862920
  0
POLYLINE
  8
0
  6
CONTINUOUS
 66
     1
 40
0.000000
 41
0.000000
  0
VERTEX
  8
0
  6
CONTINUOUS
 10
3.794120
 20
8.140000
  0
VERTEX
  8
0
  6
CONTINUOUS
 10
3.789280
 20
8.883600
  0
VERTEX
  8
0
  6
CONTINUOUS
 10
3.794120
 20
8.862920
  0
VERTEX
  8
0
  6
CONTINUOUS
 10
3.798960
 20
8.119760
  0
VERTEX
  8
0
  6
CONTINUOUS
 10
3.794120
 20
8.140000
  0
SEQEND
  8
0
  0
SOLID
  8
0
 62
    15
 10
3.800720
 20
8.061240
 11
3.795880
 21
8.804840
 12
3.808200
 22
8.037480
 13
3.803360
 23
8.781080
  0
POLYLINE
  8
0
  6
CONTINUOUS
 66
     1
 40
0.000000
 41
0.000000
  0
VERTEX
  8
0
  6
CONTINUOUS
 10
3.800720
 20
8.061240
  0
VERTEX
  8
0
  6
CONTINUOUS
 10
3.795880
 20
8.804840
  0
VERTEX
  8
0
  6
CONTINUOUS
 10
3.803360
 20
8.781080
  0
VERTEX
  8
0
  6
CONTINUOUS
 10
3.808200
 20
8.037480
  0
VERTEX
  8
0
  6
CONTINUOUS
 10
3.800720
 20
8.061240
  0
SEQEND
  8
0
  0
SOLID
  8
0
 62
    15
 10
3.800280
 20
8.076640
 11
3.795440
 21
8.820240
 12
3.800720
 22
8.061240
 13
3.795880
 23
8.804840
  0
POLYLINE
  8
0
  6
CONTINUOUS
 66
     1
 40
0.000000
 41
0.000000
  0
VERTEX
  8
0
  6
CONTINUOUS
 10
3.800280
 20
8.076640
  0
VERTEX
  8
0
  6
CONTINUOUS
 10
3.795440
 20
8.820240
  0
VERTEX
  8
0
  6
CONTINUOUS
 10
3.795880
 20
8.804840
  0
VERTEX
  8
0
  6
CONTINUOUS
 10
3.800720
 20
8.061240
  0
VERTEX
  8
0
  6
CONTINUOUS
 10
3.800280
 20
8.076640
  0
SEQEND
  8
0
  0
SOLID
  8
0
 62
    15
 10
3.808200
 20
8.037480
 11
3.803360
 21
8.781080
 12
3.816120
 22
8.029120
 13
3.811280
 23
8.772280
  0
POLYLINE
  8
0
  6
CONTINUOUS
 66
     1
 40
0.000000
 41
0.000000
  0
VERTEX
  8
0
  6
CONTINUOUS
 10
3.808200
 20
8.037480
  0
VERTEX
  8
0
  6
CONTINUOUS
 10
3.803360
 20
8.781080
  0
VERTEX
  8
0
  6
CONTINUOUS
 10
3.811280
 20
8.772280
  0
VERTEX
  8
0
  6
CONTINUOUS
 10
3.816120
 20
8.029120
  0
VERTEX
  8
0
  6
CONTINUOUS
 10
3.808200
 20
8.037480
  0
SEQEND
  8
0
  0
SOLID
  8
0
 62
    15
 10
3.816120
 20
8.029120
 11
3.811280
 21
8.772280
 12
3.829320
 22
8.022960
 13
3.824480
 23
8.766120
  0
POLYLINE
  8
0
  6
CONTINUOUS
 66
     1
 40
0.000000
 41
0.000000
  0
VERTEX
  8
0
  6
CONTINUOUS
 10
3.816120
 20
8.029120
  0
VERTEX
  8
0
  6
CONTINUOUS
 10
3.811280
 20
8.772280
  0
VERTEX
  8
0
  6
CONTINUOUS
 10
3.824480
 20
8.766120
  0
VERTEX
  8
0
  6
CONTINUOUS
 10
3.829320
 20
8.022960
  0
VERTEX
  8
0
  6
CONTINUOUS
 10
3.816120
 20
8.029120
  0
SEQEND
  8
0
  0
SOLID
  8
0
 62
    15
 10
3.829320
 20
8.022960
 11
3.824480
 21
8.766120
 12
3.847360
 22
8.019000
 13
3.842520
 23
8.762600
  0
POLYLINE
  8
0
  6
CONTINUOUS
 66
     1
 40
0.000000
 41
0.000000
  0
VERTEX
  8
0
  6
CONTINUOUS
 10
3.829320
 20
8.022960
  0
VERTEX
  8
0
  6
CONTINUOUS
 10
3.824480
 20
8.766120
  0
VERTEX
  8
0
  6
CONTINUOUS
 10
3.842520
 20
8.762600
  0
VERTEX
  8
0
  6
CONTINUOUS
 10
3.847360
 20
8.019000
  0
VERTEX
  8
0
  6
CONTINUOUS
 10
3.829320
 20
8.022960
  0
SEQEND
  8
0
  0
SOLID
  8
0
 62
    15
 10
3.847360
 20
8.019000
 11
3.842520
 21
8.762600
 12
3.872000
 22
8.017680
 13
3.867160
 23
8.761280
  0
POLYLINE
  8
0
  6
CONTINUOUS
 66
     1
 40
0.000000
 41
0.000000
  0
VERTEX
  8
0
  6
CONTINUOUS
 10
3.847360
 20
8.019000
  0
VERTEX
  8
0
  6
CONTINUOUS
 10
3.842520
 20
8.762600
  0
VERTEX
  8
0
  6
CONTINUOUS
 10
3.867160
 20
8.761280
  0
VERTEX
  8
0
  6
CONTINUOUS
 10
3.872000
 20
8.017680
  0
VERTEX
  8
0
  6
CONTINUOUS
 10
3.847360
 20
8.019000
  0
SEQEND
  8
0
  0
SOLID
  8
0
 62
    15
 10
3.872000
 20
8.017680
 11
3.867160
 21
8.761280
 12
3.896200
 22
8.012400
 13
3.891360
 23
8.756000
  0
POLYLINE
  8
0
  6
CONTINUOUS
 66
     1
 40
0.000000
 41
0.000000
  0
VERTEX
  8
0
  6
CONTINUOUS
 10
3.872000
 20
8.017680
  0
VERTEX
  8
0
  6
CONTINUOUS
 10
3.867160
 20
8.761280
  0
VERTEX
  8
0
  6
CONTINUOUS
 10
3.891360
 20
8.756000
  0
VERTEX
  8
0
  6
CONTINUOUS
 10
3.896200
 20
8.012400
  0
VERTEX
  8
0
  6
CONTINUOUS
 10
3.872000
 20
8.017680
  0
SEQEND
  8
0
  0
SOLID
  8
0
 62
    15
 10
3.896200
 20
8.012400
 11
3.891360
 21
8.756000
 12
3.913800
 22
7.997880
 13
3.908960
 23
8.741480
  0
POLYLINE
  8
0
  6
CONTINUOUS
 66
     1
 40
0.000000
 41
0.000000
  0
VERTEX
  8
0
  6
CONTINUOUS
 10
3.896200
 20
8.012400
  0
VERTEX
  8
0
  6
CONTINUOUS
 10
3.891360
 20
8.756000
  0
VERTEX
  8
0
  6
CONTINUOUS
 10
3.908960
 20
8.741480
  0
VERTEX
  8
0
  6
CONTINUOUS
 10
3.913800
 20
7.997880
  0
VERTEX
  8
0
  6
CONTINUOUS
 10
3.896200
 20
8.012400
  0
SEQEND
  8
0
  0
SOLID
  8
0
 62
    15
 10
3.913800
 20
7.997880
 11
3.908960
 21
8.741480
 12
3.925680
 22
7.977640
 13
3.920840
 23
8.721240
  0
POLYLINE
  8
0
  6
CONTINUOUS
 66
     1
 40
0.000000
 41
0.000000
  0
VERTEX
  8
0
  6
CONTINUOUS
 10
3.913800
 20
7.997880
  0
VERTEX
  8
0
  6
CONTINUOUS
 10
3.908960
 20
8.741480
  0
VERTEX
  8
0
  6
CONTINUOUS
 10
3.920840
 20
8.721240
  0
VERTEX
  8
0
  6
CONTINUOUS
 10
3.925680
 20
7.977640
  0
VERTEX
  8
0
  6
CONTINUOUS
 10
3.913800
 20
7.997880
  0
SEQEND
  8
0
  0
SOLID
  8
0
 62
    15
 10
3.925680
 20
7.977640
 11
3.920840
 21
8.721240
 12
3.932720
 22
7.954760
 13
3.927880
 23
8.697920
  0
POLYLINE
  8
0
  6
CONTINUOUS
 66
     1
 40
0.000000
 41
0.000000
  0
VERTEX
  8
0
  6
CONTINUOUS
 10
3.925680
 20
7.977640
  0
VERTEX
  8
0
  6
CONTINUOUS
 10
3.920840
 20
8.721240
  0
VERTEX
  8
0
  6
CONTINUOUS
 10
3.927880
 20
8.697920
  0
VERTEX
  8
0
  6
CONTINUOUS
 10
3.932720
 20
7.954760
  0
VERTEX
  8
0
  6
CONTINUOUS
 10
3.925680
 20
7.977640
  0
SEQEND
  8
0
  0
SOLID
  8
0
 62
    15
 10
3.932720
 20
7.954760
 11
3.927880
 21
8.697920
 12
3.936680
 22
7.931440
 13
3.931840
 23
8.675040
  0
POLYLINE
  8
0
  6
CONTINUOUS
 66
     1
 40
0.000000
 41
0.000000
  0
VERTEX
  8
0
  6
CONTINUOUS
 10
3.932720
 20
7.954760
  0
VERTEX
  8
0
  6
CONTINUOUS
 10
3.927880
 20
8.697920
  0
VERTEX
  8
0
  6
CONTINUOUS
 10
3.931840
 20
8.675040
  0
VERTEX
  8
0
  6
CONTINUOUS
 10
3.936680
 20
7.931440
  0
VERTEX
  8
0
  6
CONTINUOUS
 10
3.932720
 20
7.954760
  0
SEQEND
  8
0
  0
SOLID
  8
0
 62
    15
 10
3.936680
 20
7.931440
 11
3.931840
 21
8.675040
 12
3.938000
 22
7.911200
 13
3.933160
 23
8.654800
  0
POLYLINE
  8
0
  6
CONTINUOUS
 66
     1
 40
0.000000
 41
0.000000
  0
VERTEX
  8
0
  6
CONTINUOUS
 10
3.936680
 20
7.931440
  0
VERTEX
  8
0
  6
CONTINUOUS
 10
3.931840
 20
8.675040
  0
VERTEX
  8
0
  6
CONTINUOUS
 10
3.933160
 20
8.654800
  0
VERTEX
  8
0
  6
CONTINUOUS
 10
3.938000
 20
7.911200
  0
VERTEX
  8
0
  6
CONTINUOUS
 10
3.936680
 20
7.931440
  0
SEQEND
  8
0
  0
POLYLINE
  8
0
  6
CONTINUOUS
 66
     1
 40
0.000000
 41
0.000000
  0
VERTEX
  8
0
  6
CONTINUOUS
 10
3.938000
 20
7.845200
  0
VERTEX
  8
0
  6
CONTINUOUS
 10
2.431440
 20
7.845200
  0
VERTEX
  8
0
  6
CONTINUOUS
 10
2.431440
 20
8.594520
  0
VERTEX
  8
0
  6
CONTINUOUS
 10
2.899600
 20
8.593640
  0
VERTEX
  8
0
  6
CONTINUOUS
 10
2.925560
 20
8.517960
  0
VERTEX
  8
0
  6
CONTINUOUS
 10
3.003000
 20
8.518400
  0
VERTEX
  8
0
  6
CONTINUOUS
 10
3.073840
 20
8.509600
  0
VERTEX
  8
0
  6
CONTINUOUS
 10
3.137640
 20
8.493760
  0
VERTEX
  8
0
  6
CONTINUOUS
 10
3.195280
 20
8.471760
  0
VERTEX
  8
0
  6
CONTINUOUS
 10
3.245880
 20
8.446240
  0
VERTEX
  8
0
  6
CONTINUOUS
 10
3.289880
 20
8.418080
  0
VERTEX
  8
0
  6
CONTINUOUS
 10
3.327280
 20
8.389040
  0
VERTEX
  8
0
  6
CONTINUOUS
 10
3.357640
 20
8.361320
  0
VERTEX
  8
0
  6
CONTINUOUS
 10
3.371280
 20
8.347240
  0
VERTEX
  8
0
  6
CONTINUOUS
 10
3.384920
 20
8.332720
  0
VERTEX
  8
0
  6
CONTINUOUS
 10
3.413960
 20
8.302800
  0
VERTEX
  8
0
  6
CONTINUOUS
 10
3.445640
 20
8.273320
  0
VERTEX
  8
0
  6
CONTINUOUS
 10
3.481720
 20
8.245600
  0
VERTEX
  8
0
  6
CONTINUOUS
 10
3.523520
 20
8.221400
  0
VERTEX
  8
0
  6
CONTINUOUS
 10
3.572800
 20
8.202040
  0
VERTEX
  8
0
  6
CONTINUOUS
 10
3.630440
 20
8.189280
  0
VERTEX
  8
0
  6
CONTINUOUS
 10
3.697760
 20
8.184440
  0
VERTEX
  8
0
  6
CONTINUOUS
 10
3.740880
 20
8.180920
  0
VERTEX
  8
0
  6
CONTINUOUS
 10
3.758920
 20
8.176080
  0
VERTEX
  8
0
  6
CONTINUOUS
 10
3.773880
 20
8.167720
  0
VERTEX
  8
0
  6
CONTINUOUS
 10
3.785760
 20
8.155840
  0
VERTEX
  8
0
  6
CONTINUOUS
 10
3.794120
 20
8.140000
  0
VERTEX
  8
0
  6
CONTINUOUS
 10
3.798960
 20
8.119760
  0
VERTEX
  8
0
  6
CONTINUOUS
 10
3.800280
 20
8.093800
  0
VERTEX
  8
0
  6
CONTINUOUS
 10
3.800280
 20
8.076640
  0
VERTEX
  8
0
  6
CONTINUOUS
 10
3.800720
 20
8.061240
  0
VERTEX
  8
0
  6
CONTINUOUS
 10
3.808200
 20
8.037480
  0
VERTEX
  8
0
  6
CONTINUOUS
 10
3.816120
 20
8.029120
  0
VERTEX
  8
0
  6
CONTINUOUS
 10
3.829320
 20
8.022960
  0
VERTEX
  8
0
  6
CONTINUOUS
 10
3.847360
 20
8.019000
  0
VERTEX
  8
0
  6
CONTINUOUS
 10
3.872000
 20
8.017680
  0
VERTEX
  8
0
  6
CONTINUOUS
 10
3.896200
 20
8.012400
  0
VERTEX
  8
0
  6
CONTINUOUS
 10
3.913800
 20
7.997880
  0
VERTEX
  8
0
  6
CONTINUOUS
 10
3.925680
 20
7.977640
  0
VERTEX
  8
0
  6
CONTINUOUS
 10
3.932720
 20
7.954760
  0
VERTEX
  8
0
  6
CONTINUOUS
 10
3.936680
 20
7.931440
  0
VERTEX
  8
0
  6
CONTINUOUS
 10
3.938000
 20
7.911200
  0
VERTEX
  8
0
  6
CONTINUOUS
 10
3.938000
 20
7.896680
  0
VERTEX
  8
0
  6
CONTINUOUS
 10
3.938000
 20
7.891400
  0
VERTEX
  8
0
  6
CONTINUOUS
 10
3.938000
 20
7.845200
  0
SEQEND
  8
0
  0
TEXT
  8
0
 10
2.840640
 20
7.602320
 40
0.138092
  1
BA  1227
 41
1.000000
  7
SN0
 71
     0
 72
     5
 11
3.523711
 21
7.602320
  0
TEXT
  8
0
 10
2.731080
 20
7.410920
 40
0.138092
  1
3/4" x 1-1/2"
 41
1.000000
  7
SN0
 71
     0
 72
     5
 11
3.632678
 21
7.410920
  0
TEXT
  8
0
 10
5.040200
 20
8.077080
 40
0.138092
  1
BA  1227
 41
1.000000
  7
SN0
 71
     0
 72
     5
 11
5.723271
 21
8.077080
  0
TEXT
  8
0
 10
4.930640
 20
7.885240
 40
0.138092
  1
3/4" x 1-1/2"
 41
1.000000
  7
SN0
 71
     0
 72
     5
 11
5.832238
 21
7.885240
  0
SOLID
  8
0
 62
    15
 10
6.992920
 20
4.649040
 11
6.995560
 21
5.388680
 12
7.001280
 22
4.635840
 13
7.003480
 23
5.375040
  0
POLYLINE
  8
0
  6
CONTINUOUS
 66
     1
 40
0.000000
 41
0.000000
  0
VERTEX
  8
0
  6
CONTINUOUS
 10
6.992920
 20
4.649040
  0
VERTEX
  8
0
  6
CONTINUOUS
 10
6.995560
 20
5.388680
  0
VERTEX
  8
0
  6
CONTINUOUS
 10
7.003480
 20
5.375040
  0
VERTEX
  8
0
  6
CONTINUOUS
 10
7.001280
 20
4.635840
  0
VERTEX
  8
0
  6
CONTINUOUS
 10
6.992920
 20
4.649040
  0
SEQEND
  8
0
  0
SOLID
  8
0
 62
    15
 10
6.709560
 20
4.789840
 11
6.712200
 21
5.529040
 12
6.746960
 22
4.788080
 13
6.749160
 23
5.527720
  0
POLYLINE
  8
0
  6
CONTINUOUS
 66
     1
 40
0.000000
 41
0.000000
  0
VERTEX
  8
0
  6
CONTINUOUS
 10
6.709560
 20
4.789840
  0
VERTEX
  8
0
  6
CONTINUOUS
 10
6.712200
 20
5.529040
  0
VERTEX
  8
0
  6
CONTINUOUS
 10
6.749160
 20
5.527720
  0
VERTEX
  8
0
  6
CONTINUOUS
 10
6.746960
 20
4.788080
  0
VERTEX
  8
0
  6
CONTINUOUS
 10
6.709560
 20
4.789840
  0
SEQEND
  8
0
  0
SOLID
  8
0
 62
    15
 10
6.709560
 20
4.953080
 11
6.712200
 21
5.692280
 12
6.709560
 22
4.789840
 13
6.712200
 23
5.529040
  0
POLYLINE
  8
0
  6
CONTINUOUS
 66
     1
 40
0.000000
 41
0.000000
  0
VERTEX
  8
0
  6
CONTINUOUS
 10
6.709560
 20
4.953080
  0
VERTEX
  8
0
  6
CONTINUOUS
 10
6.712200
 20
5.692280
  0
VERTEX
  8
0
  6
CONTINUOUS
 10
6.712200
 20
5.529040
  0
VERTEX
  8
0
  6
CONTINUOUS
 10
6.709560
 20
4.789840
  0
VERTEX
  8
0
  6
CONTINUOUS
 10
6.709560
 20
4.953080
  0
SEQEND
  8
0
  0
SOLID
  8
0
 62
    15
 10
1.745480
 20
4.953080
 11
1.747680
 21
5.692280
 12
6.709560
 22
4.953080
 13
6.712200
 23
5.692280
  0
POLYLINE
  8
0
  6
CONTINUOUS
 66
     1
 40
0.000000
 41
0.000000
  0
VERTEX
  8
0
  6
CONTINUOUS
 10
1.745480
 20
4.953080
  0
VERTEX
  8
0
  6
CONTINUOUS
 10
1.747680
 20
5.692280
  0
VERTEX
  8
0
  6
CONTINUOUS
 10
6.712200
 20
5.692280
  0
VERTEX
  8
0
  6
CONTINUOUS
 10
6.709560
 20
4.953080
  0
VERTEX
  8
0
  6
CONTINUOUS
 10
1.745480
 20
4.953080
  0
SEQEND
  8
0
  0
SOLID
  8
0
 62
    15
 10
6.746960
 20
4.788080
 11
6.749160
 21
5.527720
 12
6.780840
 22
4.784120
 13
6.783040
 23
5.523320
  0
POLYLINE
  8
0
  6
CONTINUOUS
 66
     1
 40
0.000000
 41
0.000000
  0
VERTEX
  8
0
  6
CONTINUOUS
 10
6.746960
 20
4.788080
  0
VERTEX
  8
0
  6
CONTINUOUS
 10
6.749160
 20
5.527720
  0
VERTEX
  8
0
  6
CONTINUOUS
 10
6.783040
 20
5.523320
  0
VERTEX
  8
0
  6
CONTINUOUS
 10
6.780840
 20
4.784120
  0
VERTEX
  8
0
  6
CONTINUOUS
 10
6.746960
 20
4.788080
  0
SEQEND
  8
0
  0
SOLID
  8
0
 62
    15
 10
6.780840
 20
4.784120
 11
6.783040
 21
5.523320
 12
6.840240
 22
4.769160
 13
6.842440
 23
5.508360
  0
POLYLINE
  8
0
  6
CONTINUOUS
 66
     1
 40
0.000000
 41
0.000000
  0
VERTEX
  8
0
  6
CONTINUOUS
 10
6.780840
 20
4.784120
  0
VERTEX
  8
0
  6
CONTINUOUS
 10
6.783040
 20
5.523320
  0
VERTEX
  8
0
  6
CONTINUOUS
 10
6.842440
 20
5.508360
  0
VERTEX
  8
0
  6
CONTINUOUS
 10
6.840240
 20
4.769160
  0
VERTEX
  8
0
  6
CONTINUOUS
 10
6.780840
 20
4.784120
  0
SEQEND
  8
0
  0
SOLID
  8
0
 62
    15
 10
6.840240
 20
4.769160
 11
6.842440
 21
5.508360
 12
6.888640
 22
4.747160
 13
6.891280
 23
5.486800
  0
POLYLINE
  8
0
  6
CONTINUOUS
 66
     1
 40
0.000000
 41
0.000000
  0
VERTEX
  8
0
  6
CONTINUOUS
 10
6.840240
 20
4.769160
  0
VERTEX
  8
0
  6
CONTINUOUS
 10
6.842440
 20
5.508360
  0
VERTEX
  8
0
  6
CONTINUOUS
 10
6.891280
 20
5.486800
  0
VERTEX
  8
0
  6
CONTINUOUS
 10
6.888640
 20
4.747160
  0
VERTEX
  8
0
  6
CONTINUOUS
 10
6.840240
 20
4.769160
  0
SEQEND
  8
0
  0
SOLID
  8
0
 62
    15
 10
6.888640
 20
4.747160
 11
6.891280
 21
5.486800
 12
6.927360
 22
4.721640
 13
6.930000
 23
5.460840
  0
POLYLINE
  8
0
  6
CONTINUOUS
 66
     1
 40
0.000000
 41
0.000000
  0
VERTEX
  8
0
  6
CONTINUOUS
 10
6.888640
 20
4.747160
  0
VERTEX
  8
0
  6
CONTINUOUS
 10
6.891280
 20
5.486800
  0
VERTEX
  8
0
  6
CONTINUOUS
 10
6.930000
 20
5.460840
  0
VERTEX
  8
0
  6
CONTINUOUS
 10
6.927360
 20
4.721640
  0
VERTEX
  8
0
  6
CONTINUOUS
 10
6.888640
 20
4.747160
  0
SEQEND
  8
0
  0
SOLID
  8
0
 62
    15
 10
6.927360
 20
4.721640
 11
6.930000
 21
5.460840
 12
6.957280
 22
4.694800
 13
6.959480
 23
5.434440
  0
POLYLINE
  8
0
  6
CONTINUOUS
 66
     1
 40
0.000000
 41
0.000000
  0
VERTEX
  8
0
  6
CONTINUOUS
 10
6.927360
 20
4.721640
  0
VERTEX
  8
0
  6
CONTINUOUS
 10
6.930000
 20
5.460840
  0
VERTEX
  8
0
  6
CONTINUOUS
 10
6.959480
 20
5.434440
  0
VERTEX
  8
0
  6
CONTINUOUS
 10
6.957280
 20
4.694800
  0
VERTEX
  8
0
  6
CONTINUOUS
 10
6.927360
 20
4.721640
  0
SEQEND
  8
0
  0
SOLID
  8
0
 62
    15
 10
6.957280
 20
4.694800
 11
6.959480
 21
5.434440
 12
6.978840
 22
4.669720
 13
6.981040
 23
5.409360
  0
POLYLINE
  8
0
  6
CONTINUOUS
 66
     1
 40
0.000000
 41
0.000000
  0
VERTEX
  8
0
  6
CONTINUOUS
 10
6.957280
 20
4.694800
  0
VERTEX
  8
0
  6
CONTINUOUS
 10
6.959480
 20
5.434440
  0
VERTEX
  8
0
  6
CONTINUOUS
 10
6.981040
 20
5.409360
  0
VERTEX
  8
0
  6
CONTINUOUS
 10
6.978840
 20
4.669720
  0
VERTEX
  8
0
  6
CONTINUOUS
 10
6.957280
 20
4.694800
  0
SEQEND
  8
0
  0
SOLID
  8
0
 62
    15
 10
6.978840
 20
4.669720
 11
6.981040
 21
5.409360
 12
6.992920
 22
4.649040
 13
6.995560
 23
5.388680
  0
POLYLINE
  8
0
  6
CONTINUOUS
 66
     1
 40
0.000000
 41
0.000000
  0
VERTEX
  8
0
  6
CONTINUOUS
 10
6.978840
 20
4.669720
  0
VERTEX
  8
0
  6
CONTINUOUS
 10
6.981040
 20
5.409360
  0
VERTEX
  8
0
  6
CONTINUOUS
 10
6.995560
 20
5.388680
  0
VERTEX
  8
0
  6
CONTINUOUS
 10
6.992920
 20
4.649040
  0
VERTEX
  8
0
  6
CONTINUOUS
 10
6.978840
 20
4.669720
  0
SEQEND
  8
0
  0
SOLID
  8
0
 62
    15
 10
7.292560
 20
4.211680
 11
7.294760
 21
4.951320
 12
7.292560
 22
4.205080
 13
7.294760
 23
4.944280
  0
POLYLINE
  8
0
  6
CONTINUOUS
 66
     1
 40
0.000000
 41
0.000000
  0
VERTEX
  8
0
  6
CONTINUOUS
 10
7.292560
 20
4.211680
  0
VERTEX
  8
0
  6
CONTINUOUS
 10
7.294760
 20
4.951320
  0
VERTEX
  8
0
  6
CONTINUOUS
 10
7.294760
 20
4.944280
  0
VERTEX
  8
0
  6
CONTINUOUS
 10
7.292560
 20
4.205080
  0
VERTEX
  8
0
  6
CONTINUOUS
 10
7.292560
 20
4.211680
  0
SEQEND
  8
0
  0
SOLID
  8
0
 62
    15
 10
7.001280
 20
4.635840
 11
7.003480
 21
5.375040
 12
7.010080
 22
4.623520
 13
7.012280
 23
5.362720
  0
POLYLINE
  8
0
  6
CONTINUOUS
 66
     1
 40
0.000000
 41
0.000000
  0
VERTEX
  8
0
  6
CONTINUOUS
 10
7.001280
 20
4.635840
  0
VERTEX
  8
0
  6
CONTINUOUS
 10
7.003480
 20
5.375040
  0
VERTEX
  8
0
  6
CONTINUOUS
 10
7.012280
 20
5.362720
  0
VERTEX
  8
0
  6
CONTINUOUS
 10
7.010080
 20
4.623520
  0
VERTEX
  8
0
  6
CONTINUOUS
 10
7.001280
 20
4.635840
  0
SEQEND
  8
0
  0
SOLID
  8
0
 62
    15
 10
7.010080
 20
4.623520
 11
7.012280
 21
5.362720
 12
7.026800
 22
4.605920
 13
7.029000
 23
5.345120
  0
POLYLINE
  8
0
  6
CONTINUOUS
 66
     1
 40
0.000000
 41
0.000000
  0
VERTEX
  8
0
  6
CONTINUOUS
 10
7.010080
 20
4.623520
  0
VERTEX
  8
0
  6
CONTINUOUS
 10
7.012280
 20
5.362720
  0
VERTEX
  8
0
  6
CONTINUOUS
 10
7.029000
 20
5.345120
  0
VERTEX
  8
0
  6
CONTINUOUS
 10
7.026800
 20
4.605920
  0
VERTEX
  8
0
  6
CONTINUOUS
 10
7.010080
 20
4.623520
  0
SEQEND
  8
0
  0
SOLID
  8
0
 62
    15
 10
7.026800
 20
4.605920
 11
7.029000
 21
5.345120
 12
7.051000
 22
4.584800
 13
7.053640
 23
5.324440
  0
POLYLINE
  8
0
  6
CONTINUOUS
 66
     1
 40
0.000000
 41
0.000000
  0
VERTEX
  8
0
  6
CONTINUOUS
 10
7.026800
 20
4.605920
  0
VERTEX
  8
0
  6
CONTINUOUS
 10
7.029000
 20
5.345120
  0
VERTEX
  8
0
  6
CONTINUOUS
 10
7.053640
 20
5.324440
  0
VERTEX
  8
0
  6
CONTINUOUS
 10
7.051000
 20
4.584800
  0
VERTEX
  8
0
  6
CONTINUOUS
 10
7.026800
 20
4.605920
  0
SEQEND
  8
0
  0
SOLID
  8
0
 62
    15
 10
7.051000
 20
4.584800
 11
7.053640
 21
5.324440
 12
7.083560
 22
4.562800
 13
7.085760
 23
5.302440
  0
POLYLINE
  8
0
  6
CONTINUOUS
 66
     1
 40
0.000000
 41
0.000000
  0
VERTEX
  8
0
  6
CONTINUOUS
 10
7.051000
 20
4.584800
  0
VERTEX
  8
0
  6
CONTINUOUS
 10
7.053640
 20
5.324440
  0
VERTEX
  8
0
  6
CONTINUOUS
 10
7.085760
 20
5.302440
  0
VERTEX
  8
0
  6
CONTINUOUS
 10
7.083560
 20
4.562800
  0
VERTEX
  8
0
  6
CONTINUOUS
 10
7.051000
 20
4.584800
  0
SEQEND
  8
0
  0
SOLID
  8
0
 62
    15
 10
7.083560
 20
4.562800
 11
7.085760
 21
5.302440
 12
7.123600
 22
4.542120
 13
7.126240
 23
5.281320
  0
POLYLINE
  8
0
  6
CONTINUOUS
 66
     1
 40
0.000000
 41
0.000000
  0
VERTEX
  8
0
  6
CONTINUOUS
 10
7.083560
 20
4.562800
  0
VERTEX
  8
0
  6
CONTINUOUS
 10
7.085760
 20
5.302440
  0
VERTEX
  8
0
  6
CONTINUOUS
 10
7.126240
 20
5.281320
  0
VERTEX
  8
0
  6
CONTINUOUS
 10
7.123600
 20
4.542120
  0
VERTEX
  8
0
  6
CONTINUOUS
 10
7.083560
 20
4.562800
  0
SEQEND
  8
0
  0
SOLID
  8
0
 62
    15
 10
7.123600
 20
4.542120
 11
7.126240
 21
5.281320
 12
7.172000
 22
4.524520
 13
7.174200
 23
5.263720
  0
POLYLINE
  8
0
  6
CONTINUOUS
 66
     1
 40
0.000000
 41
0.000000
  0
VERTEX
  8
0
  6
CONTINUOUS
 10
7.123600
 20
4.542120
  0
VERTEX
  8
0
  6
CONTINUOUS
 10
7.126240
 20
5.281320
  0
VERTEX
  8
0
  6
CONTINUOUS
 10
7.174200
 20
5.263720
  0
VERTEX
  8
0
  6
CONTINUOUS
 10
7.172000
 20
4.524520
  0
VERTEX
  8
0
  6
CONTINUOUS
 10
7.123600
 20
4.542120
  0
SEQEND
  8
0
  0
SOLID
  8
0
 62
    15
 10
7.172000
 20
4.524520
 11
7.174200
 21
5.263720
 12
7.228320
 22
4.512200
 13
7.230520
 23
5.251840
  0
POLYLINE
  8
0
  6
CONTINUOUS
 66
     1
 40
0.000000
 41
0.000000
  0
VERTEX
  8
0
  6
CONTINUOUS
 10
7.172000
 20
4.524520
  0
VERTEX
  8
0
  6
CONTINUOUS
 10
7.174200
 20
5.263720
  0
VERTEX
  8
0
  6
CONTINUOUS
 10
7.230520
 20
5.251840
  0
VERTEX
  8
0
  6
CONTINUOUS
 10
7.228320
 20
4.512200
  0
VERTEX
  8
0
  6
CONTINUOUS
 10
7.172000
 20
4.524520
  0
SEQEND
  8
0
  0
SOLID
  8
0
 62
    15
 10
7.292560
 20
4.507800
 11
7.294760
 21
5.247000
 12
7.292560
 22
4.211680
 13
7.294760
 23
4.951320
  0
POLYLINE
  8
0
  6
CONTINUOUS
 66
     1
 40
0.000000
 41
0.000000
  0
VERTEX
  8
0
  6
CONTINUOUS
 10
7.292560
 20
4.507800
  0
VERTEX
  8
0
  6
CONTINUOUS
 10
7.294760
 20
5.247000
  0
VERTEX
  8
0
  6
CONTINUOUS
 10
7.294760
 20
4.951320
  0
VERTEX
  8
0
  6
CONTINUOUS
 10
7.292560
 20
4.211680
  0
VERTEX
  8
0
  6
CONTINUOUS
 10
7.292560
 20
4.507800
  0
SEQEND
  8
0
  0
SOLID
  8
0
 62
    15
 10
7.228320
 20
4.512200
 11
7.230520
 21
5.251840
 12
7.292560
 22
4.507800
 13
7.294760
 23
5.247000
  0
POLYLINE
  8
0
  6
CONTINUOUS
 66
     1
 40
0.000000
 41
0.000000
  0
VERTEX
  8
0
  6
CONTINUOUS
 10
7.228320
 20
4.512200
  0
VERTEX
  8
0
  6
CONTINUOUS
 10
7.230520
 20
5.251840
  0
VERTEX
  8
0
  6
CONTINUOUS
 10
7.294760
 20
5.247000
  0
VERTEX
  8
0
  6
CONTINUOUS
 10
7.292560
 20
4.507800
  0
VERTEX
  8
0
  6
CONTINUOUS
 10
7.228320
 20
4.512200
  0
SEQEND
  8
0
  0
POLYLINE
  8
0
  6
CONTINUOUS
 66
     1
 40
0.000000
 41
0.000000
  0
VERTEX
  8
0
  6
CONTINUOUS
 10
7.292560
 20
4.211680
  0
VERTEX
  8
0
  6
CONTINUOUS
 10
7.294760
 20
4.951320
  0
VERTEX
  8
0
  6
CONTINUOUS
 10
7.292560
 20
4.211680
  0
SEQEND
  8
0
  0
POLYLINE
  8
0
  6
CONTINUOUS
 66
     1
 40
0.000000
 41
0.000000
  0
VERTEX
  8
0
  6
CONTINUOUS
 10
7.292560
 20
4.211680
  0
VERTEX
  8
0
  6
CONTINUOUS
 10
7.292560
 20
4.205080
  0
VERTEX
  8
0
  6
CONTINUOUS
 10
1.745480
 20
4.205080
  0
VERTEX
  8
0
  6
CONTINUOUS
 10
1.745480
 20
4.953080
  0
VERTEX
  8
0
  6
CONTINUOUS
 10
6.709560
 20
4.953080
  0
VERTEX
  8
0
  6
CONTINUOUS
 10
6.709560
 20
4.789840
  0
VERTEX
  8
0
  6
CONTINUOUS
 10
6.746960
 20
4.788080
  0
VERTEX
  8
0
  6
CONTINUOUS
 10
6.780840
 20
4.784120
  0
VERTEX
  8
0
  6
CONTINUOUS
 10
6.840240
 20
4.769160
  0
VERTEX
  8
0
  6
CONTINUOUS
 10
6.888640
 20
4.747160
  0
VERTEX
  8
0
  6
CONTINUOUS
 10
6.927360
 20
4.721640
  0
VERTEX
  8
0
  6
CONTINUOUS
 10
6.957280
 20
4.694800
  0
VERTEX
  8
0
  6
CONTINUOUS
 10
6.978840
 20
4.669720
  0
VERTEX
  8
0
  6
CONTINUOUS
 10
6.992920
 20
4.649040
  0
VERTEX
  8
0
  6
CONTINUOUS
 10
7.001280
 20
4.635840
  0
VERTEX
  8
0
  6
CONTINUOUS
 10
7.010080
 20
4.623520
  0
VERTEX
  8
0
  6
CONTINUOUS
 10
7.026800
 20
4.605920
  0
VERTEX
  8
0
  6
CONTINUOUS
 10
7.051000
 20
4.584800
  0
VERTEX
  8
0
  6
CONTINUOUS
 10
7.083560
 20
4.562800
  0
VERTEX
  8
0
  6
CONTINUOUS
 10
7.123600
 20
4.542120
  0
VERTEX
  8
0
  6
CONTINUOUS
 10
7.172000
 20
4.524520
  0
VERTEX
  8
0
  6
CONTINUOUS
 10
7.228320
 20
4.512200
  0
VERTEX
  8
0
  6
CONTINUOUS
 10
7.292560
 20
4.507800
  0
VERTEX
  8
0
  6
CONTINUOUS
 10
7.292560
 20
4.211680
  0
SEQEND
  8
0
  0
SOLID
  8
0
 62
    15
 10
2.944480
 20
5.296720
 11
2.939640
 21
6.040320
 12
3.012240
 22
5.292320
 13
3.007400
 23
6.035920
  0
POLYLINE
  8
0
  6
CONTINUOUS
 66
     1
 40
0.000000
 41
0.000000
  0
VERTEX
  8
0
  6
CONTINUOUS
 10
2.944480
 20
5.296720
  0
VERTEX
  8
0
  6
CONTINUOUS
 10
2.939640
 20
6.040320
  0
VERTEX
  8
0
  6
CONTINUOUS
 10
3.007400
 20
6.035920
  0
VERTEX
  8
0
  6
CONTINUOUS
 10
3.012240
 20
5.292320
  0
VERTEX
  8
0
  6
CONTINUOUS
 10
2.944480
 20
5.296720
  0
SEQEND
  8
0
  0
SOLID
  8
0
 62
    15
 10
1.745920
 20
4.953080
 11
1.741080
 21
5.696240
 12
1.745920
 22
5.702400
 13
1.741080
 23
6.446000
  0
POLYLINE
  8
0
  6
CONTINUOUS
 66
     1
 40
0.000000
 41
0.000000
  0
VERTEX
  8
0
  6
CONTINUOUS
 10
1.745920
 20
4.953080
  0
VERTEX
  8
0
  6
CONTINUOUS
 10
1.741080
 20
5.696240
  0
VERTEX
  8
0
  6
CONTINUOUS
 10
1.741080
 20
6.446000
  0
VERTEX
  8
0
  6
CONTINUOUS
 10
1.745920
 20
5.702400
  0
VERTEX
  8
0
  6
CONTINUOUS
 10
1.745920
 20
4.953080
  0
SEQEND
  8
0
  0
SOLID
  8
0
 62
    15
 10
2.214080
 20
5.701520
 11
2.209240
 21
6.444680
 12
2.239600
 22
5.625840
 13
2.234760
 23
6.369000
  0
POLYLINE
  8
0
  6
CONTINUOUS
 66
     1
 40
0.000000
 41
0.000000
  0
VERTEX
  8
0
  6
CONTINUOUS
 10
2.214080
 20
5.701520
  0
VERTEX
  8
0
  6
CONTINUOUS
 10
2.209240
 20
6.444680
  0
VERTEX
  8
0
  6
CONTINUOUS
 10
2.234760
 20
6.369000
  0
VERTEX
  8
0
  6
CONTINUOUS
 10
2.239600
 20
5.625840
  0
VERTEX
  8
0
  6
CONTINUOUS
 10
2.214080
 20
5.701520
  0
SEQEND
  8
0
  0
SOLID
  8
0
 62
    15
 10
2.239600
 20
5.625840
 11
2.234760
 21
6.369000
 12
2.317040
 22
5.625840
 13
2.312200
 23
6.369440
  0
POLYLINE
  8
0
  6
CONTINUOUS
 66
     1
 40
0.000000
 41
0.000000
  0
VERTEX
  8
0
  6
CONTINUOUS
 10
2.239600
 20
5.625840
  0
VERTEX
  8
0
  6
CONTINUOUS
 10
2.234760
 20
6.369000
  0
VERTEX
  8
0
  6
CONTINUOUS
 10
2.312200
 20
6.369440
  0
VERTEX
  8
0
  6
CONTINUOUS
 10
2.317040
 20
5.625840
  0
VERTEX
  8
0
  6
CONTINUOUS
 10
2.239600
 20
5.625840
  0
SEQEND
  8
0
  0
SOLID
  8
0
 62
    15
 10
2.317040
 20
5.625840
 11
2.312200
 21
6.369440
 12
2.387880
 22
5.617480
 13
2.383040
 23
6.360640
  0
POLYLINE
  8
0
  6
CONTINUOUS
 66
     1
 40
0.000000
 41
0.000000
  0
VERTEX
  8
0
  6
CONTINUOUS
 10
2.317040
 20
5.625840
  0
VERTEX
  8
0
  6
CONTINUOUS
 10
2.312200
 20
6.369440
  0
VERTEX
  8
0
  6
CONTINUOUS
 10
2.383040
 20
6.360640
  0
VERTEX
  8
0
  6
CONTINUOUS
 10
2.387880
 20
5.617480
  0
VERTEX
  8
0
  6
CONTINUOUS
 10
2.317040
 20
5.625840
  0
SEQEND
  8
0
  0
SOLID
  8
0
 62
    15
 10
2.387880
 20
5.617480
 11
2.383040
 21
6.360640
 12
2.452120
 22
5.601200
 13
2.447280
 23
6.344800
  0
POLYLINE
  8
0
  6
CONTINUOUS
 66
     1
 40
0.000000
 41
0.000000
  0
VERTEX
  8
0
  6
CONTINUOUS
 10
2.387880
 20
5.617480
  0
VERTEX
  8
0
  6
CONTINUOUS
 10
2.383040
 20
6.360640
  0
VERTEX
  8
0
  6
CONTINUOUS
 10
2.447280
 20
6.344800
  0
VERTEX
  8
0
  6
CONTINUOUS
 10
2.452120
 20
5.601200
  0
VERTEX
  8
0
  6
CONTINUOUS
 10
2.387880
 20
5.617480
  0
SEQEND
  8
0
  0
SOLID
  8
0
 62
    15
 10
2.452120
 20
5.601200
 11
2.447280
 21
6.344800
 12
2.509320
 22
5.579640
 13
2.504480
 23
6.323240
  0
POLYLINE
  8
0
  6
CONTINUOUS
 66
     1
 40
0.000000
 41
0.000000
  0
VERTEX
  8
0
  6
CONTINUOUS
 10
2.452120
 20
5.601200
  0
VERTEX
  8
0
  6
CONTINUOUS
 10
2.447280
 20
6.344800
  0
VERTEX
  8
0
  6
CONTINUOUS
 10
2.504480
 20
6.323240
  0
VERTEX
  8
0
  6
CONTINUOUS
 10
2.509320
 20
5.579640
  0
VERTEX
  8
0
  6
CONTINUOUS
 10
2.452120
 20
5.601200
  0
SEQEND
  8
0
  0
SOLID
  8
0
 62
    15
 10
2.509320
 20
5.579640
 11
2.504480
 21
6.323240
 12
2.560360
 22
5.554120
 13
2.555520
 23
6.297280
  0
POLYLINE
  8
0
  6
CONTINUOUS
 66
     1
 40
0.000000
 41
0.000000
  0
VERTEX
  8
0
  6
CONTINUOUS
 10
2.509320
 20
5.579640
  0
VERTEX
  8
0
  6
CONTINUOUS
 10
2.504480
 20
6.323240
  0
VERTEX
  8
0
  6
CONTINUOUS
 10
2.555520
 20
6.297280
  0
VERTEX
  8
0
  6
CONTINUOUS
 10
2.560360
 20
5.554120
  0
VERTEX
  8
0
  6
CONTINUOUS
 10
2.509320
 20
5.579640
  0
SEQEND
  8
0
  0
SOLID
  8
0
 62
    15
 10
2.560360
 20
5.554120
 11
2.555520
 21
6.297280
 12
2.604360
 22
5.525960
 13
2.599520
 23
6.269120
  0
POLYLINE
  8
0
  6
CONTINUOUS
 66
     1
 40
0.000000
 41
0.000000
  0
VERTEX
  8
0
  6
CONTINUOUS
 10
2.560360
 20
5.554120
  0
VERTEX
  8
0
  6
CONTINUOUS
 10
2.555520
 20
6.297280
  0
VERTEX
  8
0
  6
CONTINUOUS
 10
2.599520
 20
6.269120
  0
VERTEX
  8
0
  6
CONTINUOUS
 10
2.604360
 20
5.525960
  0
VERTEX
  8
0
  6
CONTINUOUS
 10
2.560360
 20
5.554120
  0
SEQEND
  8
0
  0
SOLID
  8
0
 62
    15
 10
2.604360
 20
5.525960
 11
2.599520
 21
6.269120
 12
2.641320
 22
5.496920
 13
2.636480
 23
6.240520
  0
POLYLINE
  8
0
  6
CONTINUOUS
 66
     1
 40
0.000000
 41
0.000000
  0
VERTEX
  8
0
  6
CONTINUOUS
 10
2.604360
 20
5.525960
  0
VERTEX
  8
0
  6
CONTINUOUS
 10
2.599520
 20
6.269120
  0
VERTEX
  8
0
  6
CONTINUOUS
 10
2.636480
 20
6.240520
  0
VERTEX
  8
0
  6
CONTINUOUS
 10
2.641320
 20
5.496920
  0
VERTEX
  8
0
  6
CONTINUOUS
 10
2.604360
 20
5.525960
  0
SEQEND
  8
0
  0
SOLID
  8
0
 62
    15
 10
2.641320
 20
5.496920
 11
2.636480
 21
6.240520
 12
2.672120
 22
5.468760
 13
2.667280
 23
6.212360
  0
POLYLINE
  8
0
  6
CONTINUOUS
 66
     1
 40
0.000000
 41
0.000000
  0
VERTEX
  8
0
  6
CONTINUOUS
 10
2.641320
 20
5.496920
  0
VERTEX
  8
0
  6
CONTINUOUS
 10
2.636480
 20
6.240520
  0
VERTEX
  8
0
  6
CONTINUOUS
 10
2.667280
 20
6.212360
  0
VERTEX
  8
0
  6
CONTINUOUS
 10
2.672120
 20
5.468760
  0
VERTEX
  8
0
  6
CONTINUOUS
 10
2.641320
 20
5.496920
  0
SEQEND
  8
0
  0
SOLID
  8
0
 62
    15
 10
2.672120
 20
5.468760
 11
2.667280
 21
6.212360
 12
2.685760
 22
5.455120
 13
2.680920
 23
6.198280
  0
POLYLINE
  8
0
  6
CONTINUOUS
 66
     1
 40
0.000000
 41
0.000000
  0
VERTEX
  8
0
  6
CONTINUOUS
 10
2.672120
 20
5.468760
  0
VERTEX
  8
0
  6
CONTINUOUS
 10
2.667280
 20
6.212360
  0
VERTEX
  8
0
  6
CONTINUOUS
 10
2.680920
 20
6.198280
  0
VERTEX
  8
0
  6
CONTINUOUS
 10
2.685760
 20
5.455120
  0
VERTEX
  8
0
  6
CONTINUOUS
 10
2.672120
 20
5.468760
  0
SEQEND
  8
0
  0
SOLID
  8
0
 62
    15
 10
2.685760
 20
5.455120
 11
2.680920
 21
6.198280
 12
2.699400
 22
5.440600
 13
2.694560
 23
6.183760
  0
POLYLINE
  8
0
  6
CONTINUOUS
 66
     1
 40
0.000000
 41
0.000000
  0
VERTEX
  8
0
  6
CONTINUOUS
 10
2.685760
 20
5.455120
  0
VERTEX
  8
0
  6
CONTINUOUS
 10
2.680920
 20
6.198280
  0
VERTEX
  8
0
  6
CONTINUOUS
 10
2.694560
 20
6.183760
  0
VERTEX
  8
0
  6
CONTINUOUS
 10
2.699400
 20
5.440600
  0
VERTEX
  8
0
  6
CONTINUOUS
 10
2.685760
 20
5.455120
  0
SEQEND
  8
0
  0
SOLID
  8
0
 62
    15
 10
2.699400
 20
5.440600
 11
2.694560
 21
6.183760
 12
2.728440
 22
5.410680
 13
2.723600
 23
6.154280
  0
POLYLINE
  8
0
  6
CONTINUOUS
 66
     1
 40
0.000000
 41
0.000000
  0
VERTEX
  8
0
  6
CONTINUOUS
 10
2.699400
 20
5.440600
  0
VERTEX
  8
0
  6
CONTINUOUS
 10
2.694560
 20
6.183760
  0
VERTEX
  8
0
  6
CONTINUOUS
 10
2.723600
 20
6.154280
  0
VERTEX
  8
0
  6
CONTINUOUS
 10
2.728440
 20
5.410680
  0
VERTEX
  8
0
  6
CONTINUOUS
 10
2.699400
 20
5.440600
  0
SEQEND
  8
0
  0
SOLID
  8
0
 62
    15
 10
2.728440
 20
5.410680
 11
2.723600
 21
6.154280
 12
2.760120
 22
5.381200
 13
2.755280
 23
6.124800
  0
POLYLINE
  8
0
  6
CONTINUOUS
 66
     1
 40
0.000000
 41
0.000000
  0
VERTEX
  8
0
  6
CONTINUOUS
 10
2.728440
 20
5.410680
  0
VERTEX
  8
0
  6
CONTINUOUS
 10
2.723600
 20
6.154280
  0
VERTEX
  8
0
  6
CONTINUOUS
 10
2.755280
 20
6.124800
  0
VERTEX
  8
0
  6
CONTINUOUS
 10
2.760120
 20
5.381200
  0
VERTEX
  8
0
  6
CONTINUOUS
 10
2.728440
 20
5.410680
  0
SEQEND
  8
0
  0
SOLID
  8
0
 62
    15
 10
2.760120
 20
5.381200
 11
2.755280
 21
6.124800
 12
2.796200
 22
5.353480
 13
2.791360
 23
6.096640
  0
POLYLINE
  8
0
  6
CONTINUOUS
 66
     1
 40
0.000000
 41
0.000000
  0
VERTEX
  8
0
  6
CONTINUOUS
 10
2.760120
 20
5.381200
  0
VERTEX
  8
0
  6
CONTINUOUS
 10
2.755280
 20
6.124800
  0
VERTEX
  8
0
  6
CONTINUOUS
 10
2.791360
 20
6.096640
  0
VERTEX
  8
0
  6
CONTINUOUS
 10
2.796200
 20
5.353480
  0
VERTEX
  8
0
  6
CONTINUOUS
 10
2.760120
 20
5.381200
  0
SEQEND
  8
0
  0
SOLID
  8
0
 62
    15
 10
2.796200
 20
5.353480
 11
2.791360
 21
6.096640
 12
2.838000
 22
5.328840
 13
2.833160
 23
6.072440
  0
POLYLINE
  8
0
  6
CONTINUOUS
 66
     1
 40
0.000000
 41
0.000000
  0
VERTEX
  8
0
  6
CONTINUOUS
 10
2.796200
 20
5.353480
  0
VERTEX
  8
0
  6
CONTINUOUS
 10
2.791360
 20
6.096640
  0
VERTEX
  8
0
  6
CONTINUOUS
 10
2.833160
 20
6.072440
  0
VERTEX
  8
0
  6
CONTINUOUS
 10
2.838000
 20
5.328840
  0
VERTEX
  8
0
  6
CONTINUOUS
 10
2.796200
 20
5.353480
  0
SEQEND
  8
0
  0
SOLID
  8
0
 62
    15
 10
2.838000
 20
5.328840
 11
2.833160
 21
6.072440
 12
2.886840
 22
5.309480
 13
2.882000
 23
6.053080
  0
POLYLINE
  8
0
  6
CONTINUOUS
 66
     1
 40
0.000000
 41
0.000000
  0
VERTEX
  8
0
  6
CONTINUOUS
 10
2.838000
 20
5.328840
  0
VERTEX
  8
0
  6
CONTINUOUS
 10
2.833160
 20
6.072440
  0
VERTEX
  8
0
  6
CONTINUOUS
 10
2.882000
 20
6.053080
  0
VERTEX
  8
0
  6
CONTINUOUS
 10
2.886840
 20
5.309480
  0
VERTEX
  8
0
  6
CONTINUOUS
 10
2.838000
 20
5.328840
  0
SEQEND
  8
0
  0
SOLID
  8
0
 62
    15
 10
2.886840
 20
5.309480
 11
2.882000
 21
6.053080
 12
2.944480
 22
5.296720
 13
2.939640
 23
6.040320
  0
POLYLINE
  8
0
  6
CONTINUOUS
 66
     1
 40
0.000000
 41
0.000000
  0
VERTEX
  8
0
  6
CONTINUOUS
 10
2.886840
 20
5.309480
  0
VERTEX
  8
0
  6
CONTINUOUS
 10
2.882000
 20
6.053080
  0
VERTEX
  8
0
  6
CONTINUOUS
 10
2.939640
 20
6.040320
  0
VERTEX
  8
0
  6
CONTINUOUS
 10
2.944480
 20
5.296720
  0
VERTEX
  8
0
  6
CONTINUOUS
 10
2.886840
 20
5.309480
  0
SEQEND
  8
0
  0
SOLID
  8
0
 62
    15
 10
1.745920
 20
5.702400
 11
1.741080
 21
6.446000
 12
2.214080
 22
5.701520
 13
2.209240
 23
6.444680
  0
POLYLINE
  8
0
  6
CONTINUOUS
 66
     1
 40
0.000000
 41
0.000000
  0
VERTEX
  8
0
  6
CONTINUOUS
 10
1.745920
 20
5.702400
  0
VERTEX
  8
0
  6
CONTINUOUS
 10
1.741080
 20
6.446000
  0
VERTEX
  8
0
  6
CONTINUOUS
 10
2.209240
 20
6.444680
  0
VERTEX
  8
0
  6
CONTINUOUS
 10
2.214080
 20
5.701520
  0
VERTEX
  8
0
  6
CONTINUOUS
 10
1.745920
 20
5.702400
  0
SEQEND
  8
0
  0
SOLID
  8
0
 62
    15
 10
3.012240
 20
5.292320
 11
3.007400
 21
6.035920
 12
3.055360
 22
5.288800
 13
3.050520
 23
6.032400
  0
POLYLINE
  8
0
  6
CONTINUOUS
 66
     1
 40
0.000000
 41
0.000000
  0
VERTEX
  8
0
  6
CONTINUOUS
 10
3.012240
 20
5.292320
  0
VERTEX
  8
0
  6
CONTINUOUS
 10
3.007400
 20
6.035920
  0
VERTEX
  8
0
  6
CONTINUOUS
 10
3.050520
 20
6.032400
  0
VERTEX
  8
0
  6
CONTINUOUS
 10
3.055360
 20
5.288800
  0
VERTEX
  8
0
  6
CONTINUOUS
 10
3.012240
 20
5.292320
  0
SEQEND
  8
0
  0
SOLID
  8
0
 62
    15
 10
3.055360
 20
5.288800
 11
3.050520
 21
6.032400
 12
3.073400
 22
5.283520
 13
3.068560
 23
6.027120
  0
POLYLINE
  8
0
  6
CONTINUOUS
 66
     1
 40
0.000000
 41
0.000000
  0
VERTEX
  8
0
  6
CONTINUOUS
 10
3.055360
 20
5.288800
  0
VERTEX
  8
0
  6
CONTINUOUS
 10
3.050520
 20
6.032400
  0
VERTEX
  8
0
  6
CONTINUOUS
 10
3.068560
 20
6.027120
  0
VERTEX
  8
0
  6
CONTINUOUS
 10
3.073400
 20
5.283520
  0
VERTEX
  8
0
  6
CONTINUOUS
 10
3.055360
 20
5.288800
  0
SEQEND
  8
0
  0
SOLID
  8
0
 62
    15
 10
3.073400
 20
5.283520
 11
3.068560
 21
6.027120
 12
3.088360
 22
5.275600
 13
3.083520
 23
6.018760
  0
POLYLINE
  8
0
  6
CONTINUOUS
 66
     1
 40
0.000000
 41
0.000000
  0
VERTEX
  8
0
  6
CONTINUOUS
 10
3.073400
 20
5.283520
  0
VERTEX
  8
0
  6
CONTINUOUS
 10
3.068560
 20
6.027120
  0
VERTEX
  8
0
  6
CONTINUOUS
 10
3.083520
 20
6.018760
  0
VERTEX
  8
0
  6
CONTINUOUS
 10
3.088360
 20
5.275600
  0
VERTEX
  8
0
  6
CONTINUOUS
 10
3.073400
 20
5.283520
  0
SEQEND
  8
0
  0
SOLID
  8
0
 62
    15
 10
3.088360
 20
5.275600
 11
3.083520
 21
6.018760
 12
3.100240
 22
5.263720
 13
3.095400
 23
6.007320
  0
POLYLINE
  8
0
  6
CONTINUOUS
 66
     1
 40
0.000000
 41
0.000000
  0
VERTEX
  8
0
  6
CONTINUOUS
 10
3.088360
 20
5.275600
  0
VERTEX
  8
0
  6
CONTINUOUS
 10
3.083520
 20
6.018760
  0
VERTEX
  8
0
  6
CONTINUOUS
 10
3.095400
 20
6.007320
  0
VERTEX
  8
0
  6
CONTINUOUS
 10
3.100240
 20
5.263720
  0
VERTEX
  8
0
  6
CONTINUOUS
 10
3.088360
 20
5.275600
  0
SEQEND
  8
0
  0
SOLID
  8
0
 62
    15
 10
3.100240
 20
5.263720
 11
3.095400
 21
6.007320
 12
3.108600
 22
5.247880
 13
3.103760
 23
5.991480
  0
POLYLINE
  8
0
  6
CONTINUOUS
 66
     1
 40
0.000000
 41
0.000000
  0
VERTEX
  8
0
  6
CONTINUOUS
 10
3.100240
 20
5.263720
  0
VERTEX
  8
0
  6
CONTINUOUS
 10
3.095400
 20
6.007320
  0
VERTEX
  8
0
  6
CONTINUOUS
 10
3.103760
 20
5.991480
  0
VERTEX
  8
0
  6
CONTINUOUS
 10
3.108600
 20
5.247880
  0
VERTEX
  8
0
  6
CONTINUOUS
 10
3.100240
 20
5.263720
  0
SEQEND
  8
0
  0
SOLID
  8
0
 62
    15
 10
3.113440
 20
5.227200
 11
3.108600
 21
5.970800
 12
3.114320
 22
5.201680
 13
3.109480
 23
5.945280
  0
POLYLINE
  8
0
  6
CONTINUOUS
 66
     1
 40
0.000000
 41
0.000000
  0
VERTEX
  8
0
  6
CONTINUOUS
 10
3.113440
 20
5.227200
  0
VERTEX
  8
0
  6
CONTINUOUS
 10
3.108600
 20
5.970800
  0
VERTEX
  8
0
  6
CONTINUOUS
 10
3.109480
 20
5.945280
  0
VERTEX
  8
0
  6
CONTINUOUS
 10
3.114320
 20
5.201680
  0
VERTEX
  8
0
  6
CONTINUOUS
 10
3.113440
 20
5.227200
  0
SEQEND
  8
0
  0
SOLID
  8
0
 62
    15
 10
3.108600
 20
5.247880
 11
3.103760
 21
5.991480
 12
3.113440
 22
5.227200
 13
3.108600
 23
5.970800
  0
POLYLINE
  8
0
  6
CONTINUOUS
 66
     1
 40
0.000000
 41
0.000000
  0
VERTEX
  8
0
  6
CONTINUOUS
 10
3.108600
 20
5.247880
  0
VERTEX
  8
0
  6
CONTINUOUS
 10
3.103760
 20
5.991480
  0
VERTEX
  8
0
  6
CONTINUOUS
 10
3.108600
 20
5.970800
  0
VERTEX
  8
0
  6
CONTINUOUS
 10
3.113440
 20
5.227200
  0
VERTEX
  8
0
  6
CONTINUOUS
 10
3.108600
 20
5.247880
  0
SEQEND
  8
0
  0
SOLID
  8
0
 62
    15
 10
3.115200
 20
5.169120
 11
3.110360
 21
5.912720
 12
3.122240
 22
5.145360
 13
3.117400
 23
5.888520
  0
POLYLINE
  8
0
  6
CONTINUOUS
 66
     1
 40
0.000000
 41
0.000000
  0
VERTEX
  8
0
  6
CONTINUOUS
 10
3.115200
 20
5.169120
  0
VERTEX
  8
0
  6
CONTINUOUS
 10
3.110360
 20
5.912720
  0
VERTEX
  8
0
  6
CONTINUOUS
 10
3.117400
 20
5.888520
  0
VERTEX
  8
0
  6
CONTINUOUS
 10
3.122240
 20
5.145360
  0
VERTEX
  8
0
  6
CONTINUOUS
 10
3.115200
 20
5.169120
  0
SEQEND
  8
0
  0
SOLID
  8
0
 62
    15
 10
3.114320
 20
5.184520
 11
3.109480
 21
5.927680
 12
3.115200
 22
5.169120
 13
3.110360
 23
5.912720
  0
POLYLINE
  8
0
  6
CONTINUOUS
 66
     1
 40
0.000000
 41
0.000000
  0
VERTEX
  8
0
  6
CONTINUOUS
 10
3.114320
 20
5.184520
  0
VERTEX
  8
0
  6
CONTINUOUS
 10
3.109480
 20
5.927680
  0
VERTEX
  8
0
  6
CONTINUOUS
 10
3.110360
 20
5.912720
  0
VERTEX
  8
0
  6
CONTINUOUS
 10
3.115200
 20
5.169120
  0
VERTEX
  8
0
  6
CONTINUOUS
 10
3.114320
 20
5.184520
  0
SEQEND
  8
0
  0
SOLID
  8
0
 62
    15
 10
3.122240
 20
5.145360
 11
3.117400
 21
5.888520
 12
3.130600
 22
5.136560
 13
3.125760
 23
5.880160
  0
POLYLINE
  8
0
  6
CONTINUOUS
 66
     1
 40
0.000000
 41
0.000000
  0
VERTEX
  8
0
  6
CONTINUOUS
 10
3.122240
 20
5.145360
  0
VERTEX
  8
0
  6
CONTINUOUS
 10
3.117400
 20
5.888520
  0
VERTEX
  8
0
  6
CONTINUOUS
 10
3.125760
 20
5.880160
  0
VERTEX
  8
0
  6
CONTINUOUS
 10
3.130600
 20
5.136560
  0
VERTEX
  8
0
  6
CONTINUOUS
 10
3.122240
 20
5.145360
  0
SEQEND
  8
0
  0
SOLID
  8
0
 62
    15
 10
3.130600
 20
5.136560
 11
3.125760
 21
5.880160
 12
3.143360
 22
5.130400
 13
3.138520
 23
5.874000
  0
POLYLINE
  8
0
  6
CONTINUOUS
 66
     1
 40
0.000000
 41
0.000000
  0
VERTEX
  8
0
  6
CONTINUOUS
 10
3.130600
 20
5.136560
  0
VERTEX
  8
0
  6
CONTINUOUS
 10
3.125760
 20
5.880160
  0
VERTEX
  8
0
  6
CONTINUOUS
 10
3.138520
 20
5.874000
  0
VERTEX
  8
0
  6
CONTINUOUS
 10
3.143360
 20
5.130400
  0
VERTEX
  8
0
  6
CONTINUOUS
 10
3.130600
 20
5.136560
  0
SEQEND
  8
0
  0
SOLID
  8
0
 62
    15
 10
3.143360
 20
5.130400
 11
3.138520
 21
5.874000
 12
3.161840
 22
5.126880
 13
3.157000
 23
5.870040
  0
POLYLINE
  8
0
  6
CONTINUOUS
 66
     1
 40
0.000000
 41
0.000000
  0
VERTEX
  8
0
  6
CONTINUOUS
 10
3.143360
 20
5.130400
  0
VERTEX
  8
0
  6
CONTINUOUS
 10
3.138520
 20
5.874000
  0
VERTEX
  8
0
  6
CONTINUOUS
 10
3.157000
 20
5.870040
  0
VERTEX
  8
0
  6
CONTINUOUS
 10
3.161840
 20
5.126880
  0
VERTEX
  8
0
  6
CONTINUOUS
 10
3.143360
 20
5.130400
  0
SEQEND
  8
0
  0
SOLID
  8
0
 62
    15
 10
3.161840
 20
5.126880
 11
3.157000
 21
5.870040
 12
3.186040
 22
5.125560
 13
3.181200
 23
5.869160
  0
POLYLINE
  8
0
  6
CONTINUOUS
 66
     1
 40
0.000000
 41
0.000000
  0
VERTEX
  8
0
  6
CONTINUOUS
 10
3.161840
 20
5.126880
  0
VERTEX
  8
0
  6
CONTINUOUS
 10
3.157000
 20
5.870040
  0
VERTEX
  8
0
  6
CONTINUOUS
 10
3.181200
 20
5.869160
  0
VERTEX
  8
0
  6
CONTINUOUS
 10
3.186040
 20
5.125560
  0
VERTEX
  8
0
  6
CONTINUOUS
 10
3.161840
 20
5.126880
  0
SEQEND
  8
0
  0
SOLID
  8
0
 62
    15
 10
3.186040
 20
5.125560
 11
3.181200
 21
5.869160
 12
3.210240
 22
5.120280
 13
3.205400
 23
5.863440
  0
POLYLINE
  8
0
  6
CONTINUOUS
 66
     1
 40
0.000000
 41
0.000000
  0
VERTEX
  8
0
  6
CONTINUOUS
 10
3.186040
 20
5.125560
  0
VERTEX
  8
0
  6
CONTINUOUS
 10
3.181200
 20
5.869160
  0
VERTEX
  8
0
  6
CONTINUOUS
 10
3.205400
 20
5.863440
  0
VERTEX
  8
0
  6
CONTINUOUS
 10
3.210240
 20
5.120280
  0
VERTEX
  8
0
  6
CONTINUOUS
 10
3.186040
 20
5.125560
  0
SEQEND
  8
0
  0
SOLID
  8
0
 62
    15
 10
3.210240
 20
5.120280
 11
3.205400
 21
5.863440
 12
3.227840
 22
5.105760
 13
3.223000
 23
5.849360
  0
POLYLINE
  8
0
  6
CONTINUOUS
 66
     1
 40
0.000000
 41
0.000000
  0
VERTEX
  8
0
  6
CONTINUOUS
 10
3.210240
 20
5.120280
  0
VERTEX
  8
0
  6
CONTINUOUS
 10
3.205400
 20
5.863440
  0
VERTEX
  8
0
  6
CONTINUOUS
 10
3.223000
 20
5.849360
  0
VERTEX
  8
0
  6
CONTINUOUS
 10
3.227840
 20
5.105760
  0
VERTEX
  8
0
  6
CONTINUOUS
 10
3.210240
 20
5.120280
  0
SEQEND
  8
0
  0
SOLID
  8
0
 62
    15
 10
3.227840
 20
5.105760
 11
3.223000
 21
5.849360
 12
3.239720
 22
5.085520
 13
3.234880
 23
5.829120
  0
POLYLINE
  8
0
  6
CONTINUOUS
 66
     1
 40
0.000000
 41
0.000000
  0
VERTEX
  8
0
  6
CONTINUOUS
 10
3.227840
 20
5.105760
  0
VERTEX
  8
0
  6
CONTINUOUS
 10
3.223000
 20
5.849360
  0
VERTEX
  8
0
  6
CONTINUOUS
 10
3.234880
 20
5.829120
  0
VERTEX
  8
0
  6
CONTINUOUS
 10
3.239720
 20
5.085520
  0
VERTEX
  8
0
  6
CONTINUOUS
 10
3.227840
 20
5.105760
  0
SEQEND
  8
0
  0
SOLID
  8
0
 62
    15
 10
3.239720
 20
5.085520
 11
3.234880
 21
5.829120
 12
3.247200
 22
5.062200
 13
3.242360
 23
5.805800
  0
POLYLINE
  8
0
  6
CONTINUOUS
 66
     1
 40
0.000000
 41
0.000000
  0
VERTEX
  8
0
  6
CONTINUOUS
 10
3.239720
 20
5.085520
  0
VERTEX
  8
0
  6
CONTINUOUS
 10
3.234880
 20
5.829120
  0
VERTEX
  8
0
  6
CONTINUOUS
 10
3.242360
 20
5.805800
  0
VERTEX
  8
0
  6
CONTINUOUS
 10
3.247200
 20
5.062200
  0
VERTEX
  8
0
  6
CONTINUOUS
 10
3.239720
 20
5.085520
  0
SEQEND
  8
0
  0
SOLID
  8
0
 62
    15
 10
3.247200
 20
5.062200
 11
3.242360
 21
5.805800
 12
3.251160
 22
5.039320
 13
3.246320
 23
5.782480
  0
POLYLINE
  8
0
  6
CONTINUOUS
 66
     1
 40
0.000000
 41
0.000000
  0
VERTEX
  8
0
  6
CONTINUOUS
 10
3.247200
 20
5.062200
  0
VERTEX
  8
0
  6
CONTINUOUS
 10
3.242360
 20
5.805800
  0
VERTEX
  8
0
  6
CONTINUOUS
 10
3.246320
 20
5.782480
  0
VERTEX
  8
0
  6
CONTINUOUS
 10
3.251160
 20
5.039320
  0
VERTEX
  8
0
  6
CONTINUOUS
 10
3.247200
 20
5.062200
  0
SEQEND
  8
0
  0
SOLID
  8
0
 62
    15
 10
3.251160
 20
5.039320
 11
3.246320
 21
5.782480
 12
3.252480
 22
5.019080
 13
3.247640
 23
5.762240
  0
POLYLINE
  8
0
  6
CONTINUOUS
 66
     1
 40
0.000000
 41
0.000000
  0
VERTEX
  8
0
  6
CONTINUOUS
 10
3.251160
 20
5.039320
  0
VERTEX
  8
0
  6
CONTINUOUS
 10
3.246320
 20
5.782480
  0
VERTEX
  8
0
  6
CONTINUOUS
 10
3.247640
 20
5.762240
  0
VERTEX
  8
0
  6
CONTINUOUS
 10
3.252480
 20
5.019080
  0
VERTEX
  8
0
  6
CONTINUOUS
 10
3.251160
 20
5.039320
  0
SEQEND
  8
0
  0
POLYLINE
  8
0
  6
CONTINUOUS
 66
     1
 40
0.000000
 41
0.000000
  0
VERTEX
  8
0
  6
CONTINUOUS
 10
3.252040
 20
4.953080
  0
VERTEX
  8
0
  6
CONTINUOUS
 10
1.745920
 20
4.953080
  0
VERTEX
  8
0
  6
CONTINUOUS
 10
1.745920
 20
5.702400
  0
VERTEX
  8
0
  6
CONTINUOUS
 10
2.214080
 20
5.701520
  0
VERTEX
  8
0
  6
CONTINUOUS
 10
2.239600
 20
5.625840
  0
VERTEX
  8
0
  6
CONTINUOUS
 10
2.317040
 20
5.625840
  0
VERTEX
  8
0
  6
CONTINUOUS
 10
2.387880
 20
5.617480
  0
VERTEX
  8
0
  6
CONTINUOUS
 10
2.452120
 20
5.601200
  0
VERTEX
  8
0
  6
CONTINUOUS
 10
2.509320
 20
5.579640
  0
VERTEX
  8
0
  6
CONTINUOUS
 10
2.560360
 20
5.554120
  0
VERTEX
  8
0
  6
CONTINUOUS
 10
2.604360
 20
5.525960
  0
VERTEX
  8
0
  6
CONTINUOUS
 10
2.641320
 20
5.496920
  0
VERTEX
  8
0
  6
CONTINUOUS
 10
2.672120
 20
5.468760
  0
VERTEX
  8
0
  6
CONTINUOUS
 10
2.685760
 20
5.455120
  0
VERTEX
  8
0
  6
CONTINUOUS
 10
2.699400
 20
5.440600
  0
VERTEX
  8
0
  6
CONTINUOUS
 10
2.728440
 20
5.410680
  0
VERTEX
  8
0
  6
CONTINUOUS
 10
2.760120
 20
5.381200
  0
VERTEX
  8
0
  6
CONTINUOUS
 10
2.796200
 20
5.353480
  0
VERTEX
  8
0
  6
CONTINUOUS
 10
2.838000
 20
5.328840
  0
VERTEX
  8
0
  6
CONTINUOUS
 10
2.886840
 20
5.309480
  0
VERTEX
  8
0
  6
CONTINUOUS
 10
2.944480
 20
5.296720
  0
VERTEX
  8
0
  6
CONTINUOUS
 10
3.012240
 20
5.292320
  0
VERTEX
  8
0
  6
CONTINUOUS
 10
3.055360
 20
5.288800
  0
VERTEX
  8
0
  6
CONTINUOUS
 10
3.073400
 20
5.283520
  0
VERTEX
  8
0
  6
CONTINUOUS
 10
3.088360
 20
5.275600
  0
VERTEX
  8
0
  6
CONTINUOUS
 10
3.100240
 20
5.263720
  0
VERTEX
  8
0
  6
CONTINUOUS
 10
3.108600
 20
5.247880
  0
VERTEX
  8
0
  6
CONTINUOUS
 10
3.113440
 20
5.227200
  0
VERTEX
  8
0
  6
CONTINUOUS
 10
3.114320
 20
5.201680
  0
VERTEX
  8
0
  6
CONTINUOUS
 10
3.114320
 20
5.184520
  0
VERTEX
  8
0
  6
CONTINUOUS
 10
3.115200
 20
5.169120
  0
VERTEX
  8
0
  6
CONTINUOUS
 10
3.122240
 20
5.145360
  0
VERTEX
  8
0
  6
CONTINUOUS
 10
3.130600
 20
5.136560
  0
VERTEX
  8
0
  6
CONTINUOUS
 10
3.143360
 20
5.130400
  0
VERTEX
  8
0
  6
CONTINUOUS
 10
3.161840
 20
5.126880
  0
VERTEX
  8
0
  6
CONTINUOUS
 10
3.186040
 20
5.125560
  0
VERTEX
  8
0
  6
CONTINUOUS
 10
3.210240
 20
5.120280
  0
VERTEX
  8
0
  6
CONTINUOUS
 10
3.227840
 20
5.105760
  0
VERTEX
  8
0
  6
CONTINUOUS
 10
3.239720
 20
5.085520
  0
VERTEX
  8
0
  6
CONTINUOUS
 10
3.247200
 20
5.062200
  0
VERTEX
  8
0
  6
CONTINUOUS
 10
3.251160
 20
5.039320
  0
VERTEX
  8
0
  6
CONTINUOUS
 10
3.252480
 20
5.019080
  0
VERTEX
  8
0
  6
CONTINUOUS
 10
3.252480
 20
5.004560
  0
VERTEX
  8
0
  6
CONTINUOUS
 10
3.252040
 20
4.999280
  0
VERTEX
  8
0
  6
CONTINUOUS
 10
3.252040
 20
4.953080
  0
SEQEND
  8
0
  0
TEXT
  8
0
 10
3.701720
 20
3.966160
 40
0.138092
  1
BA  1227 
 41
1.000000
  7
SN0
 71
     0
 72
     5
 11
4.430797
 21
3.966160
  0
TEXT
  8
0
 10
4.431240
 20
3.966160
 40
0.138092
  1
3/4" x 1-1/2"
 41
1.000000
  7
SN0
 71
     0
 72
     5
 11
5.332838
 21
3.966160
  0
TEXT
  8
0
 10
3.701720
 20
3.774320
 40
0.138092
  1
BA  1228 3/4" x 5-1/2"
 41
1.000000
  7
SN0
 71
     0
 72
     5
 11
5.332114
 21
3.774320
  0
ENDSEC
  0
EOF
