  0
SECTION
  2
HEADER
  9
$ACADVER
  1
AC1006
  9
$EXTMIN
 10
3.506800
 20
1.092960
  9
$EXTMAX
 10
6.548080
 20
5.567760
  9
$LTSCALE
 40
0.044000
  9
$PDMODE
 70
    35
  9
$PDSIZE
 40
0.035200
  0
ENDSEC
  0
SECTION
  2
TABLES
  0
TABLE
  2
LTYPE
 70
     9
  0
LTYPE
  2
CONTINUOUS
 70
    64
  3
Solid line
 72
    65
 73
     0
 40
0.000000
  0
LTYPE
  2
DASHED
 70
    64
  3
__ __ __ __ __ __ __ __ __ __ __ __ __ __ __
 72
    65
 73
     2
 40
0.000330
 49
0.000220
 49
-0.000110
  0
LTYPE
  2
HIDDEN
 70
    64
  3
 _ _ _ _ _ _ _ _ _ _ _ _ _ _ _ _ _ _ _ _ _ _
 72
    65
 73
     2
 40
0.000165
 49
0.000110
 49
-0.000055
  0
LTYPE
  2
CENTER
 70
    64
  3
____ _ ____ _ ____ _ ____ _ ____ _ ____ _ ____
 72
    65
 73
     4
 40
0.000880
 49
0.000550
 49
-0.000110
 49
0.000110
 49
-0.000110
  0
LTYPE
  2
PHANTOM
 70
    64
  3
_____ _ _ _____ _ _ _____ _ _ _____ _ _ ____
 72
    65
 73
     6
 40
0.001100
 49
0.000550
 49
-0.000110
 49
0.000110
 49
-0.000110
 49
0.000110
 49
-0.000110
  0
LTYPE
  2
DOT
 70
    64
  3
...............................................
 72
    65
 73
     2
 40
0.000110
 49
0.000000
 49
-0.000110
  0
LTYPE
  2
DASHDOT
 70
    64
  3
__ . __ . __ . __ . __ . __ . __ . __ . __ . __
 72
    65
 73
     4
 40
0.000440
 49
0.000220
 49
-0.000110
 49
0.000000
 49
-0.000110
  0
LTYPE
  2
BORDER
 70
    64
  3
__ __ . __ __ . __ __ . __ __ . __ __ . __ __
 72
    65
 73
     6
 40
0.000770
 49
0.000220
 49
-0.000110
 49
0.000220
 49
-0.000110
 49
0.000000
 49
-0.000110
  0
LTYPE
  2
DIVIDE
 70
    64
  3
__ . . __ . . __ . . __ . . __ . . __ . . __
 72
    65
 73
     6
 40
0.000550
 49
0.000220
 49
-0.000110
 49
0.000000
 49
-0.000110
 49
0.000000
 49
-0.000110
  0
LTYPE
  2
DOTDOT
 70
    64
  3
 . .  . .  . .  . .  . .  . . 
 72
    65
 73
     5
 40
0.000242
 49
-0.000110
 49
0.000000
 49
-0.000110
 49
0.000000
 49
-0.000110
  0
ENDTAB
  0
TABLE
  2
STYLE
 70
     2
  0
STYLE
 70
     0
  2
SN0
 40
0.000000
 41
0.000440
 50
0.000000
 71
     0
 42
0.000000
  3
ROMAND
  0
STYLE
 70
    68
  2
SV0
 40
0.000000
 41
0.000440
 50
0.000000
 71
     0
 42
0.000000
  3
ROMAND
  0
ENDTAB
  0
TABLE
  2
LAYER
 70
     3
  0
LAYER
  2
FOREGROUND
 70
    64
 62
     7
  6
CONTINUOUS
  0
LAYER
  2
BACKGROUND
 70
    65
 62
    -7
  6
CONTINUOUS
  0
LAYER
  2
0
 70
    64
 62
     7
  6
CONTINUOUS
  0
ENDTAB
  0
ENDSEC
  0
SECTION
  2
ENTITIES
  0
POLYLINE
  8
FOREGROUND
  6
CONTINUOUS
 66
     1
 40
0.000000
 41
0.000000
  0
VERTEX
  8
FOREGROUND
  6
CONTINUOUS
 10
0.000000
 20
6.660720
  0
VERTEX
  8
FOREGROUND
  6
CONTINUOUS
 10
8.499920
 20
6.660720
  0
VERTEX
  8
FOREGROUND
  6
CONTINUOUS
 10
8.499920
 20
-4.339280
  0
VERTEX
  8
FOREGROUND
  6
CONTINUOUS
 10
0.000000
 20
-4.339280
  0
VERTEX
  8
FOREGROUND
  6
CONTINUOUS
 10
0.000000
 20
6.660720
  0
SEQEND
  8
0
  0
POLYLINE
  8
FOREGROUND
  6
CONTINUOUS
 66
     1
 40
0.000000
 41
0.000000
  0
VERTEX
  8
FOREGROUND
  6
CONTINUOUS
 10
0.000000
 20
6.660720
  0
VERTEX
  8
FOREGROUND
  6
CONTINUOUS
 10
8.499920
 20
6.660720
  0
VERTEX
  8
FOREGROUND
  6
CONTINUOUS
 10
8.499920
 20
-4.339280
  0
VERTEX
  8
FOREGROUND
  6
CONTINUOUS
 10
0.000000
 20
-4.339280
  0
VERTEX
  8
FOREGROUND
  6
CONTINUOUS
 10
0.000000
 20
6.660720
  0
SEQEND
  8
0
  0
POLYLINE
  8
0
  6
CONTINUOUS
 66
     1
 40
0.014080
 41
0.014080
  0
VERTEX
  8
0
  6
CONTINUOUS
 10
5.536960
 20
5.051640
  0
VERTEX
  8
0
  6
CONTINUOUS
 10
6.015680
 20
5.472280
  0
VERTEX
  8
0
  6
CONTINUOUS
 10
5.931640
 20
5.557640
  0
VERTEX
  8
0
  6
CONTINUOUS
 10
5.880160
 20
5.521120
  0
VERTEX
  8
0
  6
CONTINUOUS
 10
5.847600
 20
5.502200
  0
VERTEX
  8
0
  6
CONTINUOUS
 10
5.815040
 20
5.488560
  0
VERTEX
  8
0
  6
CONTINUOUS
 10
5.782040
 20
5.481080
  0
VERTEX
  8
0
  6
CONTINUOUS
 10
5.747280
 20
5.480640
  0
VERTEX
  8
0
  6
CONTINUOUS
 10
5.728800
 20
5.482840
  0
VERTEX
  8
0
  6
CONTINUOUS
 10
5.689640
 20
5.493840
  0
VERTEX
  8
0
  6
CONTINUOUS
 10
5.623200
 20
5.523760
  0
VERTEX
  8
0
  6
CONTINUOUS
 10
5.591960
 20
5.533000
  0
VERTEX
  8
0
  6
CONTINUOUS
 10
5.563800
 20
5.535200
  0
VERTEX
  8
0
  6
CONTINUOUS
 10
5.546640
 20
5.533880
  0
VERTEX
  8
0
  6
CONTINUOUS
 10
5.530800
 20
5.530800
  0
VERTEX
  8
0
  6
CONTINUOUS
 10
5.503960
 20
5.520240
  0
VERTEX
  8
0
  6
CONTINUOUS
 10
5.482400
 20
5.506160
  0
VERTEX
  8
0
  6
CONTINUOUS
 10
5.457760
 20
5.482400
  0
VERTEX
  8
0
  6
CONTINUOUS
 10
5.454680
 20
5.478000
  0
VERTEX
  8
0
  6
CONTINUOUS
 10
5.408920
 20
5.525520
  0
VERTEX
  8
0
  6
CONTINUOUS
 10
5.340280
 20
5.459960
  0
VERTEX
  8
0
  6
CONTINUOUS
 10
5.247440
 20
5.556320
  0
VERTEX
  8
0
  6
CONTINUOUS
 10
5.187600
 20
5.512320
  0
VERTEX
  8
0
  6
CONTINUOUS
 10
5.125560
 20
5.471840
  0
VERTEX
  8
0
  6
CONTINUOUS
 10
5.060880
 20
5.435760
  0
VERTEX
  8
0
  6
CONTINUOUS
 10
4.994440
 20
5.404520
  0
VERTEX
  8
0
  6
CONTINUOUS
 10
4.925800
 20
5.378120
  0
VERTEX
  8
0
  6
CONTINUOUS
 10
4.891040
 20
5.366680
  0
VERTEX
  8
0
  6
CONTINUOUS
 10
4.855400
 20
5.357000
  0
VERTEX
  8
0
  6
CONTINUOUS
 10
4.783680
 20
5.342480
  0
VERTEX
  8
0
  6
CONTINUOUS
 10
4.710200
 20
5.334120
  0
VERTEX
  8
0
  6
CONTINUOUS
 10
4.635840
 20
5.332800
  0
VERTEX
  8
0
  6
CONTINUOUS
 10
4.598000
 20
5.335000
  0
VERTEX
  8
0
  6
CONTINUOUS
 10
4.560160
 20
5.338960
  0
VERTEX
  8
0
  6
CONTINUOUS
 10
4.521880
 20
5.345120
  0
VERTEX
  8
0
  6
CONTINUOUS
 10
4.483600
 20
5.353040
  0
VERTEX
  8
0
  6
CONTINUOUS
 10
4.444880
 20
5.363160
  0
VERTEX
  8
0
  6
CONTINUOUS
 10
4.406160
 20
5.375480
  0
VERTEX
  8
0
  6
CONTINUOUS
 10
4.367440
 20
5.390000
  0
VERTEX
  8
0
  6
CONTINUOUS
 10
4.328280
 20
5.406720
  0
VERTEX
  8
0
  6
CONTINUOUS
 10
4.289120
 20
5.425640
  0
VERTEX
  8
0
  6
CONTINUOUS
 10
4.249960
 20
5.447200
  0
VERTEX
  8
0
  6
CONTINUOUS
 10
4.210800
 20
5.470960
  0
VERTEX
  8
0
  6
CONTINUOUS
 10
4.171200
 20
5.497360
  0
VERTEX
  8
0
  6
CONTINUOUS
 10
4.132040
 20
5.525960
  0
VERTEX
  8
0
  6
CONTINUOUS
 10
4.092440
 20
5.557640
  0
VERTEX
  8
0
  6
CONTINUOUS
 10
3.941960
 20
5.411560
  0
VERTEX
  8
0
  6
CONTINUOUS
 10
4.351600
 20
5.047240
  0
VERTEX
  8
0
  6
CONTINUOUS
 10
5.531680
 20
5.047240
  0
VERTEX
  8
0
  6
CONTINUOUS
 10
5.536960
 20
5.051640
  0
SEQEND
  8
0
  0
POLYLINE
  8
0
  6
CONTINUOUS
 66
     1
 40
0.000000
 41
0.000000
  0
VERTEX
  8
0
  6
CONTINUOUS
 10
5.151960
 20
1.782440
  0
VERTEX
  8
0
  6
CONTINUOUS
 10
5.630680
 20
2.203080
  0
VERTEX
  8
0
  6
CONTINUOUS
 10
5.546640
 20
2.288440
  0
VERTEX
  8
0
  6
CONTINUOUS
 10
5.495160
 20
2.251920
  0
VERTEX
  8
0
  6
CONTINUOUS
 10
5.462600
 20
2.233000
  0
VERTEX
  8
0
  6
CONTINUOUS
 10
5.430040
 20
2.219360
  0
VERTEX
  8
0
  6
CONTINUOUS
 10
5.397040
 20
2.211880
  0
VERTEX
  8
0
  6
CONTINUOUS
 10
5.379880
 20
2.210560
  0
VERTEX
  8
0
  6
CONTINUOUS
 10
5.362280
 20
2.211000
  0
VERTEX
  8
0
  6
CONTINUOUS
 10
5.343800
 20
2.213640
  0
VERTEX
  8
0
  6
CONTINUOUS
 10
5.324880
 20
2.218040
  0
VERTEX
  8
0
  6
CONTINUOUS
 10
5.283080
 20
2.233440
  0
VERTEX
  8
0
  6
CONTINUOUS
 10
5.238200
 20
2.254560
  0
VERTEX
  8
0
  6
CONTINUOUS
 10
5.206960
 20
2.263800
  0
VERTEX
  8
0
  6
CONTINUOUS
 10
5.188040
 20
2.266000
  0
VERTEX
  8
0
  6
CONTINUOUS
 10
5.161640
 20
2.264680
  0
VERTEX
  8
0
  6
CONTINUOUS
 10
5.146240
 20
2.261600
  0
VERTEX
  8
0
  6
CONTINUOUS
 10
5.131720
 20
2.256760
  0
VERTEX
  8
0
  6
CONTINUOUS
 10
5.107520
 20
2.244000
  0
VERTEX
  8
0
  6
CONTINUOUS
 10
5.089040
 20
2.229920
  0
VERTEX
  8
0
  6
CONTINUOUS
 10
5.069680
 20
2.208360
  0
VERTEX
  8
0
  6
CONTINUOUS
 10
5.023920
 20
2.256320
  0
VERTEX
  8
0
  6
CONTINUOUS
 10
4.955280
 20
2.190760
  0
VERTEX
  8
0
  6
CONTINUOUS
 10
4.862440
 20
2.287120
  0
VERTEX
  8
0
  6
CONTINUOUS
 10
4.802600
 20
2.243120
  0
VERTEX
  8
0
  6
CONTINUOUS
 10
4.740560
 20
2.202640
  0
VERTEX
  8
0
  6
CONTINUOUS
 10
4.675880
 20
2.166560
  0
VERTEX
  8
0
  6
CONTINUOUS
 10
4.609440
 20
2.134880
  0
VERTEX
  8
0
  6
CONTINUOUS
 10
4.540800
 20
2.108480
  0
VERTEX
  8
0
  6
CONTINUOUS
 10
4.470400
 20
2.087800
  0
VERTEX
  8
0
  6
CONTINUOUS
 10
4.434760
 20
2.079440
  0
VERTEX
  8
0
  6
CONTINUOUS
 10
4.362160
 20
2.068000
  0
VERTEX
  8
0
  6
CONTINUOUS
 10
4.288240
 20
2.063160
  0
VERTEX
  8
0
  6
CONTINUOUS
 10
4.250840
 20
2.063600
  0
VERTEX
  8
0
  6
CONTINUOUS
 10
4.213440
 20
2.065800
  0
VERTEX
  8
0
  6
CONTINUOUS
 10
4.175160
 20
2.069760
  0
VERTEX
  8
0
  6
CONTINUOUS
 10
4.137320
 20
2.075920
  0
VERTEX
  8
0
  6
CONTINUOUS
 10
4.098600
 20
2.083840
  0
VERTEX
  8
0
  6
CONTINUOUS
 10
4.060320
 20
2.093960
  0
VERTEX
  8
0
  6
CONTINUOUS
 10
4.021600
 20
2.106280
  0
VERTEX
  8
0
  6
CONTINUOUS
 10
3.982440
 20
2.120800
  0
VERTEX
  8
0
  6
CONTINUOUS
 10
3.943280
 20
2.137520
  0
VERTEX
  8
0
  6
CONTINUOUS
 10
3.904120
 20
2.156440
  0
VERTEX
  8
0
  6
CONTINUOUS
 10
3.864960
 20
2.178000
  0
VERTEX
  8
0
  6
CONTINUOUS
 10
3.825800
 20
2.201760
  0
VERTEX
  8
0
  6
CONTINUOUS
 10
3.786200
 20
2.228160
  0
VERTEX
  8
0
  6
CONTINUOUS
 10
3.747040
 20
2.256760
  0
VERTEX
  8
0
  6
CONTINUOUS
 10
3.707440
 20
2.288440
  0
VERTEX
  8
0
  6
CONTINUOUS
 10
3.556960
 20
2.142360
  0
VERTEX
  8
0
  6
CONTINUOUS
 10
3.966600
 20
1.778040
  0
VERTEX
  8
0
  6
CONTINUOUS
 10
5.146680
 20
1.778040
  0
VERTEX
  8
0
  6
CONTINUOUS
 10
5.151960
 20
1.782440
  0
SEQEND
  8
0
  0
POLYLINE
  8
0
  6
CONTINUOUS
 66
     1
 40
0.000000
 41
0.000000
  0
VERTEX
  8
0
  6
CONTINUOUS
 10
3.985960
 20
1.097360
  0
VERTEX
  8
0
  6
CONTINUOUS
 10
3.507240
 20
1.518000
  0
VERTEX
  8
0
  6
CONTINUOUS
 10
3.591280
 20
1.603800
  0
VERTEX
  8
0
  6
CONTINUOUS
 10
3.642760
 20
1.567280
  0
VERTEX
  8
0
  6
CONTINUOUS
 10
3.675320
 20
1.548360
  0
VERTEX
  8
0
  6
CONTINUOUS
 10
3.707880
 20
1.534720
  0
VERTEX
  8
0
  6
CONTINUOUS
 10
3.724160
 20
1.529880
  0
VERTEX
  8
0
  6
CONTINUOUS
 10
3.758040
 20
1.525920
  0
VERTEX
  8
0
  6
CONTINUOUS
 10
3.775640
 20
1.526360
  0
VERTEX
  8
0
  6
CONTINUOUS
 10
3.794120
 20
1.529000
  0
VERTEX
  8
0
  6
CONTINUOUS
 10
3.833280
 20
1.539560
  0
VERTEX
  8
0
  6
CONTINUOUS
 10
3.899720
 20
1.569480
  0
VERTEX
  8
0
  6
CONTINUOUS
 10
3.930960
 20
1.578720
  0
VERTEX
  8
0
  6
CONTINUOUS
 10
3.959120
 20
1.581360
  0
VERTEX
  8
0
  6
CONTINUOUS
 10
3.976280
 20
1.580040
  0
VERTEX
  8
0
  6
CONTINUOUS
 10
4.006200
 20
1.572120
  0
VERTEX
  8
0
  6
CONTINUOUS
 10
4.030400
 20
1.559360
  0
VERTEX
  8
0
  6
CONTINUOUS
 10
4.048880
 20
1.545280
  0
VERTEX
  8
0
  6
CONTINUOUS
 10
4.068240
 20
1.523720
  0
VERTEX
  8
0
  6
CONTINUOUS
 10
4.114000
 20
1.571240
  0
VERTEX
  8
0
  6
CONTINUOUS
 10
4.182640
 20
1.505680
  0
VERTEX
  8
0
  6
CONTINUOUS
 10
4.275920
 20
1.602040
  0
VERTEX
  8
0
  6
CONTINUOUS
 10
4.335760
 20
1.558040
  0
VERTEX
  8
0
  6
CONTINUOUS
 10
4.397800
 20
1.517560
  0
VERTEX
  8
0
  6
CONTINUOUS
 10
4.462480
 20
1.481480
  0
VERTEX
  8
0
  6
CONTINUOUS
 10
4.528920
 20
1.450240
  0
VERTEX
  8
0
  6
CONTINUOUS
 10
4.562800
 20
1.436160
  0
VERTEX
  8
0
  6
CONTINUOUS
 10
4.632320
 20
1.412400
  0
VERTEX
  8
0
  6
CONTINUOUS
 10
4.667520
 20
1.402720
  0
VERTEX
  8
0
  6
CONTINUOUS
 10
4.739240
 20
1.388200
  0
VERTEX
  8
0
  6
CONTINUOUS
 10
4.812720
 20
1.379840
  0
VERTEX
  8
0
  6
CONTINUOUS
 10
4.849680
 20
1.378520
  0
VERTEX
  8
0
  6
CONTINUOUS
 10
4.924920
 20
1.380720
  0
VERTEX
  8
0
  6
CONTINUOUS
 10
5.001040
 20
1.390840
  0
VERTEX
  8
0
  6
CONTINUOUS
 10
5.039320
 20
1.399200
  0
VERTEX
  8
0
  6
CONTINUOUS
 10
5.078040
 20
1.409320
  0
VERTEX
  8
0
  6
CONTINUOUS
 10
5.155480
 20
1.435720
  0
VERTEX
  8
0
  6
CONTINUOUS
 10
5.194640
 20
1.452440
  0
VERTEX
  8
0
  6
CONTINUOUS
 10
5.233800
 20
1.471800
  0
VERTEX
  8
0
  6
CONTINUOUS
 10
5.272960
 20
1.493360
  0
VERTEX
  8
0
  6
CONTINUOUS
 10
5.312120
 20
1.517120
  0
VERTEX
  8
0
  6
CONTINUOUS
 10
5.351720
 20
1.543520
  0
VERTEX
  8
0
  6
CONTINUOUS
 10
5.390880
 20
1.572120
  0
VERTEX
  8
0
  6
CONTINUOUS
 10
5.430480
 20
1.603800
  0
VERTEX
  8
0
  6
CONTINUOUS
 10
5.580960
 20
1.457720
  0
VERTEX
  8
0
  6
CONTINUOUS
 10
5.171320
 20
1.093400
  0
VERTEX
  8
0
  6
CONTINUOUS
 10
3.991240
 20
1.093400
  0
VERTEX
  8
0
  6
CONTINUOUS
 10
3.985960
 20
1.097360
  0
SEQEND
  8
0
  0
SOLID
  8
0
 62
    15
 10
4.560160
 20
3.328600
 11
5.206520
 21
2.956800
 12
4.559280
 22
3.233560
 13
5.205640
 23
2.861760
  0
POLYLINE
  8
0
  6
CONTINUOUS
 66
     1
 40
0.000000
 41
0.000000
  0
VERTEX
  8
0
  6
CONTINUOUS
 10
4.560160
 20
3.328600
  0
VERTEX
  8
0
  6
CONTINUOUS
 10
5.206520
 20
2.956800
  0
VERTEX
  8
0
  6
CONTINUOUS
 10
5.205640
 20
2.861760
  0
VERTEX
  8
0
  6
CONTINUOUS
 10
4.559280
 20
3.233560
  0
VERTEX
  8
0
  6
CONTINUOUS
 10
4.560160
 20
3.328600
  0
SEQEND
  8
0
  0
SOLID
  8
0
 62
    15
 10
5.498680
 20
4.156680
 11
6.145040
 21
3.784880
 12
5.400560
 22
4.142160
 13
6.046920
 23
3.770360
  0
POLYLINE
  8
0
  6
CONTINUOUS
 66
     1
 40
0.000000
 41
0.000000
  0
VERTEX
  8
0
  6
CONTINUOUS
 10
5.498680
 20
4.156680
  0
VERTEX
  8
0
  6
CONTINUOUS
 10
6.145040
 20
3.784880
  0
VERTEX
  8
0
  6
CONTINUOUS
 10
6.046920
 20
3.770360
  0
VERTEX
  8
0
  6
CONTINUOUS
 10
5.400560
 20
4.142160
  0
VERTEX
  8
0
  6
CONTINUOUS
 10
5.498680
 20
4.156680
  0
SEQEND
  8
0
  0
SOLID
  8
0
 62
    15
 10
5.400560
 20
4.142160
 11
6.046920
 21
3.770360
 12
5.309480
 22
4.120600
 13
5.955840
 23
3.748360
  0
POLYLINE
  8
0
  6
CONTINUOUS
 66
     1
 40
0.000000
 41
0.000000
  0
VERTEX
  8
0
  6
CONTINUOUS
 10
5.400560
 20
4.142160
  0
VERTEX
  8
0
  6
CONTINUOUS
 10
6.046920
 20
3.770360
  0
VERTEX
  8
0
  6
CONTINUOUS
 10
5.955840
 20
3.748360
  0
VERTEX
  8
0
  6
CONTINUOUS
 10
5.309480
 20
4.120600
  0
VERTEX
  8
0
  6
CONTINUOUS
 10
5.400560
 20
4.142160
  0
SEQEND
  8
0
  0
SOLID
  8
0
 62
    15
 10
5.309480
 20
4.120600
 11
5.955840
 21
3.748360
 12
5.225880
 22
4.092440
 13
5.872240
 23
3.720200
  0
POLYLINE
  8
0
  6
CONTINUOUS
 66
     1
 40
0.000000
 41
0.000000
  0
VERTEX
  8
0
  6
CONTINUOUS
 10
5.309480
 20
4.120600
  0
VERTEX
  8
0
  6
CONTINUOUS
 10
5.955840
 20
3.748360
  0
VERTEX
  8
0
  6
CONTINUOUS
 10
5.872240
 20
3.720200
  0
VERTEX
  8
0
  6
CONTINUOUS
 10
5.225880
 20
4.092440
  0
VERTEX
  8
0
  6
CONTINUOUS
 10
5.309480
 20
4.120600
  0
SEQEND
  8
0
  0
SOLID
  8
0
 62
    15
 10
5.225880
 20
4.092440
 11
5.872240
 21
3.720200
 12
5.149320
 22
4.058120
 13
5.795680
 23
3.686320
  0
POLYLINE
  8
0
  6
CONTINUOUS
 66
     1
 40
0.000000
 41
0.000000
  0
VERTEX
  8
0
  6
CONTINUOUS
 10
5.225880
 20
4.092440
  0
VERTEX
  8
0
  6
CONTINUOUS
 10
5.872240
 20
3.720200
  0
VERTEX
  8
0
  6
CONTINUOUS
 10
5.795680
 20
3.686320
  0
VERTEX
  8
0
  6
CONTINUOUS
 10
5.149320
 20
4.058120
  0
VERTEX
  8
0
  6
CONTINUOUS
 10
5.225880
 20
4.092440
  0
SEQEND
  8
0
  0
SOLID
  8
0
 62
    15
 10
5.149320
 20
4.058120
 11
5.795680
 21
3.686320
 12
5.079360
 22
4.018080
 13
5.725720
 23
3.646280
  0
POLYLINE
  8
0
  6
CONTINUOUS
 66
     1
 40
0.000000
 41
0.000000
  0
VERTEX
  8
0
  6
CONTINUOUS
 10
5.149320
 20
4.058120
  0
VERTEX
  8
0
  6
CONTINUOUS
 10
5.795680
 20
3.686320
  0
VERTEX
  8
0
  6
CONTINUOUS
 10
5.725720
 20
3.646280
  0
VERTEX
  8
0
  6
CONTINUOUS
 10
5.079360
 20
4.018080
  0
VERTEX
  8
0
  6
CONTINUOUS
 10
5.149320
 20
4.058120
  0
SEQEND
  8
0
  0
SOLID
  8
0
 62
    15
 10
5.079360
 20
4.018080
 11
5.725720
 21
3.646280
 12
5.016000
 22
3.972760
 13
5.662360
 23
3.600960
  0
POLYLINE
  8
0
  6
CONTINUOUS
 66
     1
 40
0.000000
 41
0.000000
  0
VERTEX
  8
0
  6
CONTINUOUS
 10
5.079360
 20
4.018080
  0
VERTEX
  8
0
  6
CONTINUOUS
 10
5.725720
 20
3.646280
  0
VERTEX
  8
0
  6
CONTINUOUS
 10
5.662360
 20
3.600960
  0
VERTEX
  8
0
  6
CONTINUOUS
 10
5.016000
 20
3.972760
  0
VERTEX
  8
0
  6
CONTINUOUS
 10
5.079360
 20
4.018080
  0
SEQEND
  8
0
  0
SOLID
  8
0
 62
    15
 10
5.016000
 20
3.972760
 11
5.662360
 21
3.600960
 12
4.958800
 22
3.923040
 13
5.605160
 23
3.550800
  0
POLYLINE
  8
0
  6
CONTINUOUS
 66
     1
 40
0.000000
 41
0.000000
  0
VERTEX
  8
0
  6
CONTINUOUS
 10
5.016000
 20
3.972760
  0
VERTEX
  8
0
  6
CONTINUOUS
 10
5.662360
 20
3.600960
  0
VERTEX
  8
0
  6
CONTINUOUS
 10
5.605160
 20
3.550800
  0
VERTEX
  8
0
  6
CONTINUOUS
 10
4.958800
 20
3.923040
  0
VERTEX
  8
0
  6
CONTINUOUS
 10
5.016000
 20
3.972760
  0
SEQEND
  8
0
  0
SOLID
  8
0
 62
    15
 10
4.958800
 20
3.923040
 11
5.605160
 21
3.550800
 12
4.908200
 22
3.868480
 13
5.554560
 23
3.496680
  0
POLYLINE
  8
0
  6
CONTINUOUS
 66
     1
 40
0.000000
 41
0.000000
  0
VERTEX
  8
0
  6
CONTINUOUS
 10
4.958800
 20
3.923040
  0
VERTEX
  8
0
  6
CONTINUOUS
 10
5.605160
 20
3.550800
  0
VERTEX
  8
0
  6
CONTINUOUS
 10
5.554560
 20
3.496680
  0
VERTEX
  8
0
  6
CONTINUOUS
 10
4.908200
 20
3.868480
  0
VERTEX
  8
0
  6
CONTINUOUS
 10
4.958800
 20
3.923040
  0
SEQEND
  8
0
  0
SOLID
  8
0
 62
    15
 10
4.908200
 20
3.868480
 11
5.554560
 21
3.496680
 12
4.862880
 22
3.810400
 13
5.509240
 23
3.438160
  0
POLYLINE
  8
0
  6
CONTINUOUS
 66
     1
 40
0.000000
 41
0.000000
  0
VERTEX
  8
0
  6
CONTINUOUS
 10
4.908200
 20
3.868480
  0
VERTEX
  8
0
  6
CONTINUOUS
 10
5.554560
 20
3.496680
  0
VERTEX
  8
0
  6
CONTINUOUS
 10
5.509240
 20
3.438160
  0
VERTEX
  8
0
  6
CONTINUOUS
 10
4.862880
 20
3.810400
  0
VERTEX
  8
0
  6
CONTINUOUS
 10
4.908200
 20
3.868480
  0
SEQEND
  8
0
  0
SOLID
  8
0
 62
    15
 10
4.862880
 20
3.810400
 11
5.509240
 21
3.438160
 12
4.823720
 22
3.748360
 13
5.470080
 23
3.376560
  0
POLYLINE
  8
0
  6
CONTINUOUS
 66
     1
 40
0.000000
 41
0.000000
  0
VERTEX
  8
0
  6
CONTINUOUS
 10
4.862880
 20
3.810400
  0
VERTEX
  8
0
  6
CONTINUOUS
 10
5.509240
 20
3.438160
  0
VERTEX
  8
0
  6
CONTINUOUS
 10
5.470080
 20
3.376560
  0
VERTEX
  8
0
  6
CONTINUOUS
 10
4.823720
 20
3.748360
  0
VERTEX
  8
0
  6
CONTINUOUS
 10
4.862880
 20
3.810400
  0
SEQEND
  8
0
  0
SOLID
  8
0
 62
    15
 10
4.823720
 20
3.748360
 11
5.470080
 21
3.376560
 12
4.760800
 22
3.615920
 13
5.407160
 23
3.244120
  0
POLYLINE
  8
0
  6
CONTINUOUS
 66
     1
 40
0.000000
 41
0.000000
  0
VERTEX
  8
0
  6
CONTINUOUS
 10
4.823720
 20
3.748360
  0
VERTEX
  8
0
  6
CONTINUOUS
 10
5.470080
 20
3.376560
  0
VERTEX
  8
0
  6
CONTINUOUS
 10
5.407160
 20
3.244120
  0
VERTEX
  8
0
  6
CONTINUOUS
 10
4.760800
 20
3.615920
  0
VERTEX
  8
0
  6
CONTINUOUS
 10
4.823720
 20
3.748360
  0
SEQEND
  8
0
  0
SOLID
  8
0
 62
    15
 10
4.760800
 20
3.615920
 11
5.407160
 21
3.244120
 12
4.718120
 22
3.474680
 13
5.364480
 23
3.102880
  0
POLYLINE
  8
0
  6
CONTINUOUS
 66
     1
 40
0.000000
 41
0.000000
  0
VERTEX
  8
0
  6
CONTINUOUS
 10
4.760800
 20
3.615920
  0
VERTEX
  8
0
  6
CONTINUOUS
 10
5.407160
 20
3.244120
  0
VERTEX
  8
0
  6
CONTINUOUS
 10
5.364480
 20
3.102880
  0
VERTEX
  8
0
  6
CONTINUOUS
 10
4.718120
 20
3.474680
  0
VERTEX
  8
0
  6
CONTINUOUS
 10
4.760800
 20
3.615920
  0
SEQEND
  8
0
  0
SOLID
  8
0
 62
    15
 10
4.718120
 20
3.474680
 11
5.364480
 21
3.102880
 12
4.693920
 22
3.328600
 13
5.340280
 23
2.956360
  0
POLYLINE
  8
0
  6
CONTINUOUS
 66
     1
 40
0.000000
 41
0.000000
  0
VERTEX
  8
0
  6
CONTINUOUS
 10
4.718120
 20
3.474680
  0
VERTEX
  8
0
  6
CONTINUOUS
 10
5.364480
 20
3.102880
  0
VERTEX
  8
0
  6
CONTINUOUS
 10
5.340280
 20
2.956360
  0
VERTEX
  8
0
  6
CONTINUOUS
 10
4.693920
 20
3.328600
  0
VERTEX
  8
0
  6
CONTINUOUS
 10
4.718120
 20
3.474680
  0
SEQEND
  8
0
  0
SOLID
  8
0
 62
    15
 10
4.693920
 20
3.328600
 11
5.340280
 21
2.956360
 12
4.560160
 22
3.328600
 13
5.206520
 23
2.956800
  0
POLYLINE
  8
0
  6
CONTINUOUS
 66
     1
 40
0.000000
 41
0.000000
  0
VERTEX
  8
0
  6
CONTINUOUS
 10
4.693920
 20
3.328600
  0
VERTEX
  8
0
  6
CONTINUOUS
 10
5.340280
 20
2.956360
  0
VERTEX
  8
0
  6
CONTINUOUS
 10
5.206520
 20
2.956800
  0
VERTEX
  8
0
  6
CONTINUOUS
 10
4.560160
 20
3.328600
  0
VERTEX
  8
0
  6
CONTINUOUS
 10
4.693920
 20
3.328600
  0
SEQEND
  8
0
  0
SOLID
  8
0
 62
    15
 10
5.498680
 20
4.366560
 11
6.145040
 21
3.994320
 12
5.498680
 22
4.156680
 13
6.145040
 23
3.784880
  0
POLYLINE
  8
0
  6
CONTINUOUS
 66
     1
 40
0.000000
 41
0.000000
  0
VERTEX
  8
0
  6
CONTINUOUS
 10
5.498680
 20
4.366560
  0
VERTEX
  8
0
  6
CONTINUOUS
 10
6.145040
 20
3.994320
  0
VERTEX
  8
0
  6
CONTINUOUS
 10
6.145040
 20
3.784880
  0
VERTEX
  8
0
  6
CONTINUOUS
 10
5.498680
 20
4.156680
  0
VERTEX
  8
0
  6
CONTINUOUS
 10
5.498680
 20
4.366560
  0
SEQEND
  8
0
  0
SOLID
  8
0
 62
    15
 10
4.559280
 20
3.233560
 11
5.205640
 21
2.861760
 12
4.493280
 22
3.234000
 13
5.139640
 23
2.862200
  0
POLYLINE
  8
0
  6
CONTINUOUS
 66
     1
 40
0.000000
 41
0.000000
  0
VERTEX
  8
0
  6
CONTINUOUS
 10
4.559280
 20
3.233560
  0
VERTEX
  8
0
  6
CONTINUOUS
 10
5.205640
 20
2.861760
  0
VERTEX
  8
0
  6
CONTINUOUS
 10
5.139640
 20
2.862200
  0
VERTEX
  8
0
  6
CONTINUOUS
 10
4.493280
 20
3.234000
  0
VERTEX
  8
0
  6
CONTINUOUS
 10
4.559280
 20
3.233560
  0
SEQEND
  8
0
  0
SOLID
  8
0
 62
    15
 10
4.493280
 20
3.234000
 11
5.139640
 21
2.862200
 12
4.494160
 22
3.228720
 13
5.140520
 23
2.856920
  0
POLYLINE
  8
0
  6
CONTINUOUS
 66
     1
 40
0.000000
 41
0.000000
  0
VERTEX
  8
0
  6
CONTINUOUS
 10
4.493280
 20
3.234000
  0
VERTEX
  8
0
  6
CONTINUOUS
 10
5.139640
 20
2.862200
  0
VERTEX
  8
0
  6
CONTINUOUS
 10
5.140520
 20
2.856920
  0
VERTEX
  8
0
  6
CONTINUOUS
 10
4.494160
 20
3.228720
  0
VERTEX
  8
0
  6
CONTINUOUS
 10
4.493280
 20
3.234000
  0
SEQEND
  8
0
  0
SOLID
  8
0
 62
    15
 10
4.494160
 20
3.228720
 11
5.140520
 21
2.856920
 12
4.495040
 22
3.214640
 13
5.141400
 23
2.842840
  0
POLYLINE
  8
0
  6
CONTINUOUS
 66
     1
 40
0.000000
 41
0.000000
  0
VERTEX
  8
0
  6
CONTINUOUS
 10
4.494160
 20
3.228720
  0
VERTEX
  8
0
  6
CONTINUOUS
 10
5.140520
 20
2.856920
  0
VERTEX
  8
0
  6
CONTINUOUS
 10
5.141400
 20
2.842840
  0
VERTEX
  8
0
  6
CONTINUOUS
 10
4.495040
 20
3.214640
  0
VERTEX
  8
0
  6
CONTINUOUS
 10
4.494160
 20
3.228720
  0
SEQEND
  8
0
  0
SOLID
  8
0
 62
    15
 10
4.495040
 20
3.214640
 11
5.141400
 21
2.842840
 12
4.489320
 22
3.169320
 13
5.135680
 23
2.797520
  0
POLYLINE
  8
0
  6
CONTINUOUS
 66
     1
 40
0.000000
 41
0.000000
  0
VERTEX
  8
0
  6
CONTINUOUS
 10
4.495040
 20
3.214640
  0
VERTEX
  8
0
  6
CONTINUOUS
 10
5.141400
 20
2.842840
  0
VERTEX
  8
0
  6
CONTINUOUS
 10
5.135680
 20
2.797520
  0
VERTEX
  8
0
  6
CONTINUOUS
 10
4.489320
 20
3.169320
  0
VERTEX
  8
0
  6
CONTINUOUS
 10
4.495040
 20
3.214640
  0
SEQEND
  8
0
  0
SOLID
  8
0
 62
    15
 10
4.489320
 20
3.169320
 11
5.135680
 21
2.797520
 12
4.478320
 22
3.142480
 13
5.124240
 23
2.770240
  0
POLYLINE
  8
0
  6
CONTINUOUS
 66
     1
 40
0.000000
 41
0.000000
  0
VERTEX
  8
0
  6
CONTINUOUS
 10
4.489320
 20
3.169320
  0
VERTEX
  8
0
  6
CONTINUOUS
 10
5.135680
 20
2.797520
  0
VERTEX
  8
0
  6
CONTINUOUS
 10
5.124240
 20
2.770240
  0
VERTEX
  8
0
  6
CONTINUOUS
 10
4.478320
 20
3.142480
  0
VERTEX
  8
0
  6
CONTINUOUS
 10
4.489320
 20
3.169320
  0
SEQEND
  8
0
  0
SOLID
  8
0
 62
    15
 10
4.478320
 20
3.142480
 11
5.124240
 21
2.770240
 12
4.458520
 22
3.115640
 13
5.104880
 23
2.743840
  0
POLYLINE
  8
0
  6
CONTINUOUS
 66
     1
 40
0.000000
 41
0.000000
  0
VERTEX
  8
0
  6
CONTINUOUS
 10
4.478320
 20
3.142480
  0
VERTEX
  8
0
  6
CONTINUOUS
 10
5.124240
 20
2.770240
  0
VERTEX
  8
0
  6
CONTINUOUS
 10
5.104880
 20
2.743840
  0
VERTEX
  8
0
  6
CONTINUOUS
 10
4.458520
 20
3.115640
  0
VERTEX
  8
0
  6
CONTINUOUS
 10
4.478320
 20
3.142480
  0
SEQEND
  8
0
  0
SOLID
  8
0
 62
    15
 10
4.458520
 20
3.115640
 11
5.104880
 21
2.743840
 12
4.428600
 22
3.091440
 13
5.074960
 23
2.719640
  0
POLYLINE
  8
0
  6
CONTINUOUS
 66
     1
 40
0.000000
 41
0.000000
  0
VERTEX
  8
0
  6
CONTINUOUS
 10
4.458520
 20
3.115640
  0
VERTEX
  8
0
  6
CONTINUOUS
 10
5.104880
 20
2.743840
  0
VERTEX
  8
0
  6
CONTINUOUS
 10
5.074960
 20
2.719640
  0
VERTEX
  8
0
  6
CONTINUOUS
 10
4.428600
 20
3.091440
  0
VERTEX
  8
0
  6
CONTINUOUS
 10
4.458520
 20
3.115640
  0
SEQEND
  8
0
  0
SOLID
  8
0
 62
    15
 10
4.428600
 20
3.091440
 11
5.074960
 21
2.719640
 12
4.385920
 22
3.072080
 13
5.032280
 23
2.699840
  0
POLYLINE
  8
0
  6
CONTINUOUS
 66
     1
 40
0.000000
 41
0.000000
  0
VERTEX
  8
0
  6
CONTINUOUS
 10
4.428600
 20
3.091440
  0
VERTEX
  8
0
  6
CONTINUOUS
 10
5.074960
 20
2.719640
  0
VERTEX
  8
0
  6
CONTINUOUS
 10
5.032280
 20
2.699840
  0
VERTEX
  8
0
  6
CONTINUOUS
 10
4.385920
 20
3.072080
  0
VERTEX
  8
0
  6
CONTINUOUS
 10
4.428600
 20
3.091440
  0
SEQEND
  8
0
  0
SOLID
  8
0
 62
    15
 10
4.385920
 20
3.072080
 11
5.032280
 21
2.699840
 12
4.341480
 22
3.054040
 13
4.987840
 23
2.682240
  0
POLYLINE
  8
0
  6
CONTINUOUS
 66
     1
 40
0.000000
 41
0.000000
  0
VERTEX
  8
0
  6
CONTINUOUS
 10
4.385920
 20
3.072080
  0
VERTEX
  8
0
  6
CONTINUOUS
 10
5.032280
 20
2.699840
  0
VERTEX
  8
0
  6
CONTINUOUS
 10
4.987840
 20
2.682240
  0
VERTEX
  8
0
  6
CONTINUOUS
 10
4.341480
 20
3.054040
  0
VERTEX
  8
0
  6
CONTINUOUS
 10
4.385920
 20
3.072080
  0
SEQEND
  8
0
  0
SOLID
  8
0
 62
    15
 10
4.341480
 20
3.054040
 11
4.987840
 21
2.682240
 12
4.305840
 22
3.033360
 13
4.952200
 23
2.661560
  0
POLYLINE
  8
0
  6
CONTINUOUS
 66
     1
 40
0.000000
 41
0.000000
  0
VERTEX
  8
0
  6
CONTINUOUS
 10
4.341480
 20
3.054040
  0
VERTEX
  8
0
  6
CONTINUOUS
 10
4.987840
 20
2.682240
  0
VERTEX
  8
0
  6
CONTINUOUS
 10
4.952200
 20
2.661560
  0
VERTEX
  8
0
  6
CONTINUOUS
 10
4.305840
 20
3.033360
  0
VERTEX
  8
0
  6
CONTINUOUS
 10
4.341480
 20
3.054040
  0
SEQEND
  8
0
  0
SOLID
  8
0
 62
    15
 10
4.305840
 20
3.033360
 11
4.952200
 21
2.661560
 12
4.278560
 22
3.009600
 13
4.924920
 23
2.637800
  0
POLYLINE
  8
0
  6
CONTINUOUS
 66
     1
 40
0.000000
 41
0.000000
  0
VERTEX
  8
0
  6
CONTINUOUS
 10
4.305840
 20
3.033360
  0
VERTEX
  8
0
  6
CONTINUOUS
 10
4.952200
 20
2.661560
  0
VERTEX
  8
0
  6
CONTINUOUS
 10
4.924920
 20
2.637800
  0
VERTEX
  8
0
  6
CONTINUOUS
 10
4.278560
 20
3.009600
  0
VERTEX
  8
0
  6
CONTINUOUS
 10
4.305840
 20
3.033360
  0
SEQEND
  8
0
  0
SOLID
  8
0
 62
    15
 10
4.278560
 20
3.009600
 11
4.924920
 21
2.637800
 12
4.258320
 22
2.982320
 13
4.904680
 23
2.610520
  0
POLYLINE
  8
0
  6
CONTINUOUS
 66
     1
 40
0.000000
 41
0.000000
  0
VERTEX
  8
0
  6
CONTINUOUS
 10
4.278560
 20
3.009600
  0
VERTEX
  8
0
  6
CONTINUOUS
 10
4.924920
 20
2.637800
  0
VERTEX
  8
0
  6
CONTINUOUS
 10
4.904680
 20
2.610520
  0
VERTEX
  8
0
  6
CONTINUOUS
 10
4.258320
 20
2.982320
  0
VERTEX
  8
0
  6
CONTINUOUS
 10
4.278560
 20
3.009600
  0
SEQEND
  8
0
  0
SOLID
  8
0
 62
    15
 10
4.258320
 20
2.982320
 11
4.904680
 21
2.610520
 12
4.232360
 22
2.917200
 13
4.878720
 23
2.544960
  0
POLYLINE
  8
0
  6
CONTINUOUS
 66
     1
 40
0.000000
 41
0.000000
  0
VERTEX
  8
0
  6
CONTINUOUS
 10
4.258320
 20
2.982320
  0
VERTEX
  8
0
  6
CONTINUOUS
 10
4.904680
 20
2.610520
  0
VERTEX
  8
0
  6
CONTINUOUS
 10
4.878720
 20
2.544960
  0
VERTEX
  8
0
  6
CONTINUOUS
 10
4.232360
 20
2.917200
  0
VERTEX
  8
0
  6
CONTINUOUS
 10
4.258320
 20
2.982320
  0
SEQEND
  8
0
  0
SOLID
  8
0
 62
    15
 10
4.232360
 20
2.917200
 11
4.878720
 21
2.544960
 12
4.218720
 22
2.835800
 13
4.865080
 23
2.464000
  0
POLYLINE
  8
0
  6
CONTINUOUS
 66
     1
 40
0.000000
 41
0.000000
  0
VERTEX
  8
0
  6
CONTINUOUS
 10
4.232360
 20
2.917200
  0
VERTEX
  8
0
  6
CONTINUOUS
 10
4.878720
 20
2.544960
  0
VERTEX
  8
0
  6
CONTINUOUS
 10
4.865080
 20
2.464000
  0
VERTEX
  8
0
  6
CONTINUOUS
 10
4.218720
 20
2.835800
  0
VERTEX
  8
0
  6
CONTINUOUS
 10
4.232360
 20
2.917200
  0
SEQEND
  8
0
  0
SOLID
  8
0
 62
    15
 10
4.218720
 20
2.835800
 11
4.865080
 21
2.464000
 12
4.098600
 22
2.834920
 13
4.744960
 23
2.463120
  0
POLYLINE
  8
0
  6
CONTINUOUS
 66
     1
 40
0.000000
 41
0.000000
  0
VERTEX
  8
0
  6
CONTINUOUS
 10
4.218720
 20
2.835800
  0
VERTEX
  8
0
  6
CONTINUOUS
 10
4.865080
 20
2.464000
  0
VERTEX
  8
0
  6
CONTINUOUS
 10
4.744960
 20
2.463120
  0
VERTEX
  8
0
  6
CONTINUOUS
 10
4.098600
 20
2.834920
  0
VERTEX
  8
0
  6
CONTINUOUS
 10
4.218720
 20
2.835800
  0
SEQEND
  8
0
  0
POLYLINE
  8
0
  6
CONTINUOUS
 66
     1
 40
0.000000
 41
0.000000
  0
VERTEX
  8
0
  6
CONTINUOUS
 10
4.130720
 20
3.478200
  0
VERTEX
  8
0
  6
CONTINUOUS
 10
4.951760
 20
4.325640
  0
VERTEX
  8
0
  6
CONTINUOUS
 10
5.498680
 20
4.366560
  0
VERTEX
  8
0
  6
CONTINUOUS
 10
5.498680
 20
4.156680
  0
VERTEX
  8
0
  6
CONTINUOUS
 10
5.400560
 20
4.142160
  0
VERTEX
  8
0
  6
CONTINUOUS
 10
5.309480
 20
4.120600
  0
VERTEX
  8
0
  6
CONTINUOUS
 10
5.225880
 20
4.092440
  0
VERTEX
  8
0
  6
CONTINUOUS
 10
5.149320
 20
4.058120
  0
VERTEX
  8
0
  6
CONTINUOUS
 10
5.079360
 20
4.018080
  0
VERTEX
  8
0
  6
CONTINUOUS
 10
5.016000
 20
3.972760
  0
VERTEX
  8
0
  6
CONTINUOUS
 10
4.958800
 20
3.923040
  0
VERTEX
  8
0
  6
CONTINUOUS
 10
4.908200
 20
3.868480
  0
VERTEX
  8
0
  6
CONTINUOUS
 10
4.862880
 20
3.810400
  0
VERTEX
  8
0
  6
CONTINUOUS
 10
4.823720
 20
3.748360
  0
VERTEX
  8
0
  6
CONTINUOUS
 10
4.760800
 20
3.615920
  0
VERTEX
  8
0
  6
CONTINUOUS
 10
4.718120
 20
3.474680
  0
VERTEX
  8
0
  6
CONTINUOUS
 10
4.693920
 20
3.328600
  0
VERTEX
  8
0
  6
CONTINUOUS
 10
4.560160
 20
3.328600
  0
VERTEX
  8
0
  6
CONTINUOUS
 10
4.559280
 20
3.233560
  0
VERTEX
  8
0
  6
CONTINUOUS
 10
4.493280
 20
3.234000
  0
VERTEX
  8
0
  6
CONTINUOUS
 10
4.494160
 20
3.228720
  0
VERTEX
  8
0
  6
CONTINUOUS
 10
4.495040
 20
3.214640
  0
VERTEX
  8
0
  6
CONTINUOUS
 10
4.489320
 20
3.169320
  0
VERTEX
  8
0
  6
CONTINUOUS
 10
4.478320
 20
3.142480
  0
VERTEX
  8
0
  6
CONTINUOUS
 10
4.458520
 20
3.115640
  0
VERTEX
  8
0
  6
CONTINUOUS
 10
4.428600
 20
3.091440
  0
VERTEX
  8
0
  6
CONTINUOUS
 10
4.385920
 20
3.072080
  0
VERTEX
  8
0
  6
CONTINUOUS
 10
4.341480
 20
3.054040
  0
VERTEX
  8
0
  6
CONTINUOUS
 10
4.305840
 20
3.033360
  0
VERTEX
  8
0
  6
CONTINUOUS
 10
4.278560
 20
3.009600
  0
VERTEX
  8
0
  6
CONTINUOUS
 10
4.258320
 20
2.982320
  0
VERTEX
  8
0
  6
CONTINUOUS
 10
4.232360
 20
2.917200
  0
VERTEX
  8
0
  6
CONTINUOUS
 10
4.218720
 20
2.835800
  0
VERTEX
  8
0
  6
CONTINUOUS
 10
4.098600
 20
2.834920
  0
VERTEX
  8
0
  6
CONTINUOUS
 10
4.129840
 20
3.471600
  0
VERTEX
  8
0
  6
CONTINUOUS
 10
4.130720
 20
3.478200
  0
SEQEND
  8
0
  0
TEXT
  8
0
 10
5.602520
 20
2.673440
 40
0.138239
  1
BA  1225
 41
1.000000
  7
SN0
 71
     0
 72
     5
 11
6.286046
 21
2.673440
  0
TEXT
  8
0
 10
5.446760
 20
2.482040
 40
0.138239
  1
1/2" x 2-1/16"
 41
1.000000
  7
SN0
 71
     0
 72
     5
 11
6.441732
 21
2.482040
  0
TEXT
  8
0
 10
4.627480
 20
4.817120
 40
0.138239
  1
BA  1225
 41
1.000000
  7
SN0
 71
     0
 72
     5
 11
5.311006
 21
4.817120
  0
TEXT
  8
0
 10
4.471720
 20
4.625280
 40
0.138239
  1
1/2" x 2-1/16"
 41
1.000000
  7
SN0
 71
     0
 72
     5
 11
5.466692
 21
4.625280
  0
ENDSEC
  0
EOF
