  0
SECTION
  2
HEADER
  9
$ACADVER
  1
AC1006
  9
$EXTMIN
 10
3.003000
 20
0.784080
  9
$EXTMAX
 10
5.973000
 20
6.325000
  9
$LTSCALE
 40
0.044000
  9
$PDMODE
 70
    35
  9
$PDSIZE
 40
0.035200
  0
ENDSEC
  0
SECTION
  2
TABLES
  0
TABLE
  2
LTYPE
 70
     9
  0
LTYPE
  2
CONTINUOUS
 70
    64
  3
Solid line
 72
    65
 73
     0
 40
0.000000
  0
LTYPE
  2
DASHED
 70
    64
  3
__ __ __ __ __ __ __ __ __ __ __ __ __ __ __
 72
    65
 73
     2
 40
0.000330
 49
0.000220
 49
-0.000110
  0
LTYPE
  2
HIDDEN
 70
    64
  3
 _ _ _ _ _ _ _ _ _ _ _ _ _ _ _ _ _ _ _ _ _ _
 72
    65
 73
     2
 40
0.000165
 49
0.000110
 49
-0.000055
  0
LTYPE
  2
CENTER
 70
    64
  3
____ _ ____ _ ____ _ ____ _ ____ _ ____ _ ____
 72
    65
 73
     4
 40
0.000880
 49
0.000550
 49
-0.000110
 49
0.000110
 49
-0.000110
  0
LTYPE
  2
PHANTOM
 70
    64
  3
_____ _ _ _____ _ _ _____ _ _ _____ _ _ ____
 72
    65
 73
     6
 40
0.001100
 49
0.000550
 49
-0.000110
 49
0.000110
 49
-0.000110
 49
0.000110
 49
-0.000110
  0
LTYPE
  2
DOT
 70
    64
  3
...............................................
 72
    65
 73
     2
 40
0.000110
 49
0.000000
 49
-0.000110
  0
LTYPE
  2
DASHDOT
 70
    64
  3
__ . __ . __ . __ . __ . __ . __ . __ . __ . __
 72
    65
 73
     4
 40
0.000440
 49
0.000220
 49
-0.000110
 49
0.000000
 49
-0.000110
  0
LTYPE
  2
BORDER
 70
    64
  3
__ __ . __ __ . __ __ . __ __ . __ __ . __ __
 72
    65
 73
     6
 40
0.000770
 49
0.000220
 49
-0.000110
 49
0.000220
 49
-0.000110
 49
0.000000
 49
-0.000110
  0
LTYPE
  2
DIVIDE
 70
    64
  3
__ . . __ . . __ . . __ . . __ . . __ . . __
 72
    65
 73
     6
 40
0.000550
 49
0.000220
 49
-0.000110
 49
0.000000
 49
-0.000110
 49
0.000000
 49
-0.000110
  0
LTYPE
  2
DOTDOT
 70
    64
  3
 . .  . .  . .  . .  . .  . . 
 72
    65
 73
     5
 40
0.000242
 49
-0.000110
 49
0.000000
 49
-0.000110
 49
0.000000
 49
-0.000110
  0
ENDTAB
  0
TABLE
  2
STYLE
 70
     2
  0
STYLE
 70
     0
  2
SN0
 40
0.000000
 41
0.000440
 50
0.000000
 71
     0
 42
0.000000
  3
ROMAND
  0
STYLE
 70
    68
  2
SV0
 40
0.000000
 41
0.000440
 50
0.000000
 71
     0
 42
0.000000
  3
ROMAND
  0
ENDTAB
  0
TABLE
  2
LAYER
 70
     3
  0
LAYER
  2
FOREGROUND
 70
    64
 62
     7
  6
CONTINUOUS
  0
LAYER
  2
BACKGROUND
 70
    65
 62
    -7
  6
CONTINUOUS
  0
LAYER
  2
0
 70
    64
 62
     7
  6
CONTINUOUS
  0
ENDTAB
  0
ENDSEC
  0
SECTION
  2
ENTITIES
  0
POLYLINE
  8
FOREGROUND
  6
CONTINUOUS
 66
     1
 40
0.000000
 41
0.000000
  0
VERTEX
  8
FOREGROUND
  6
CONTINUOUS
 10
0.000000
 20
7.109080
  0
VERTEX
  8
FOREGROUND
  6
CONTINUOUS
 10
8.499920
 20
7.109080
  0
VERTEX
  8
FOREGROUND
  6
CONTINUOUS
 10
8.499920
 20
-3.890920
  0
VERTEX
  8
FOREGROUND
  6
CONTINUOUS
 10
0.000000
 20
-3.890920
  0
VERTEX
  8
FOREGROUND
  6
CONTINUOUS
 10
0.000000
 20
7.109080
  0
SEQEND
  8
0
  0
POLYLINE
  8
FOREGROUND
  6
CONTINUOUS
 66
     1
 40
0.000000
 41
0.000000
  0
VERTEX
  8
FOREGROUND
  6
CONTINUOUS
 10
0.000000
 20
7.109080
  0
VERTEX
  8
FOREGROUND
  6
CONTINUOUS
 10
8.499920
 20
7.109080
  0
VERTEX
  8
FOREGROUND
  6
CONTINUOUS
 10
8.499920
 20
-3.890920
  0
VERTEX
  8
FOREGROUND
  6
CONTINUOUS
 10
0.000000
 20
-3.890920
  0
VERTEX
  8
FOREGROUND
  6
CONTINUOUS
 10
0.000000
 20
7.109080
  0
SEQEND
  8
0
  0
POLYLINE
  8
0
  6
CONTINUOUS
 66
     1
 40
0.014080
 41
0.014080
  0
VERTEX
  8
0
  6
CONTINUOUS
 10
3.834160
 20
5.566000
  0
VERTEX
  8
0
  6
CONTINUOUS
 10
3.343560
 20
5.999400
  0
VERTEX
  8
0
  6
CONTINUOUS
 10
3.413080
 20
6.082560
  0
VERTEX
  8
0
  6
CONTINUOUS
 10
3.301760
 20
6.197400
  0
VERTEX
  8
0
  6
CONTINUOUS
 10
3.422320
 20
6.314000
  0
VERTEX
  8
0
  6
CONTINUOUS
 10
3.458400
 20
6.273080
  0
VERTEX
  8
0
  6
CONTINUOUS
 10
3.500200
 20
6.234360
  0
VERTEX
  8
0
  6
CONTINUOUS
 10
3.547720
 20
6.199160
  0
VERTEX
  8
0
  6
CONTINUOUS
 10
3.599640
 20
6.167480
  0
VERTEX
  8
0
  6
CONTINUOUS
 10
3.627360
 20
6.152520
  0
VERTEX
  8
0
  6
CONTINUOUS
 10
3.685000
 20
6.126560
  0
VERTEX
  8
0
  6
CONTINUOUS
 10
3.746160
 20
6.104560
  0
VERTEX
  8
0
  6
CONTINUOUS
 10
3.809960
 20
6.087400
  0
VERTEX
  8
0
  6
CONTINUOUS
 10
3.842520
 20
6.080360
  0
VERTEX
  8
0
  6
CONTINUOUS
 10
3.908520
 20
6.070680
  0
VERTEX
  8
0
  6
CONTINUOUS
 10
3.941960
 20
6.067600
  0
VERTEX
  8
0
  6
CONTINUOUS
 10
4.009720
 20
6.065840
  0
VERTEX
  8
0
  6
CONTINUOUS
 10
4.043600
 20
6.067160
  0
VERTEX
  8
0
  6
CONTINUOUS
 10
4.110920
 20
6.074640
  0
VERTEX
  8
0
  6
CONTINUOUS
 10
4.177800
 20
6.088280
  0
VERTEX
  8
0
  6
CONTINUOUS
 10
4.210360
 20
6.097520
  0
VERTEX
  8
0
  6
CONTINUOUS
 10
4.274600
 20
6.121720
  0
VERTEX
  8
0
  6
CONTINUOUS
 10
4.305840
 20
6.136240
  0
VERTEX
  8
0
  6
CONTINUOUS
 10
4.336640
 20
6.152520
  0
VERTEX
  8
0
  6
CONTINUOUS
 10
4.396040
 20
6.189040
  0
VERTEX
  8
0
  6
CONTINUOUS
 10
4.425080
 20
6.205320
  0
VERTEX
  8
0
  6
CONTINUOUS
 10
4.454120
 20
6.219400
  0
VERTEX
  8
0
  6
CONTINUOUS
 10
4.511320
 20
6.241840
  0
VERTEX
  8
0
  6
CONTINUOUS
 10
4.566760
 20
6.257240
  0
VERTEX
  8
0
  6
CONTINUOUS
 10
4.594040
 20
6.262520
  0
VERTEX
  8
0
  6
CONTINUOUS
 10
4.646840
 20
6.268680
  0
VERTEX
  8
0
  6
CONTINUOUS
 10
4.697000
 20
6.269560
  0
VERTEX
  8
0
  6
CONTINUOUS
 10
4.744960
 20
6.266040
  0
VERTEX
  8
0
  6
CONTINUOUS
 10
4.789840
 20
6.258560
  0
VERTEX
  8
0
  6
CONTINUOUS
 10
4.831640
 20
6.248440
  0
VERTEX
  8
0
  6
CONTINUOUS
 10
4.887080
 20
6.228640
  0
VERTEX
  8
0
  6
CONTINUOUS
 10
4.933720
 20
6.206200
  0
VERTEX
  8
0
  6
CONTINUOUS
 10
4.969360
 20
6.183320
  0
VERTEX
  8
0
  6
CONTINUOUS
 10
4.994000
 20
6.162640
  0
VERTEX
  8
0
  6
CONTINUOUS
 10
5.003680
 20
6.151200
  0
VERTEX
  8
0
  6
CONTINUOUS
 10
5.119400
 20
6.263400
  0
VERTEX
  8
0
  6
CONTINUOUS
 10
5.180560
 20
6.212360
  0
VERTEX
  8
0
  6
CONTINUOUS
 10
5.215760
 20
6.188600
  0
VERTEX
  8
0
  6
CONTINUOUS
 10
5.232480
 20
6.179800
  0
VERTEX
  8
0
  6
CONTINUOUS
 10
5.248760
 20
6.173200
  0
VERTEX
  8
0
  6
CONTINUOUS
 10
5.265040
 20
6.168800
  0
VERTEX
  8
0
  6
CONTINUOUS
 10
5.280880
 20
6.167040
  0
VERTEX
  8
0
  6
CONTINUOUS
 10
5.297600
 20
6.167040
  0
VERTEX
  8
0
  6
CONTINUOUS
 10
5.314320
 20
6.169240
  0
VERTEX
  8
0
  6
CONTINUOUS
 10
5.341160
 20
6.177160
  0
VERTEX
  8
0
  6
CONTINUOUS
 10
5.380320
 20
6.195640
  0
VERTEX
  8
0
  6
CONTINUOUS
 10
5.456000
 20
6.240960
  0
VERTEX
  8
0
  6
CONTINUOUS
 10
5.483280
 20
6.253280
  0
VERTEX
  8
0
  6
CONTINUOUS
 10
5.507480
 20
6.260320
  0
VERTEX
  8
0
  6
CONTINUOUS
 10
5.521560
 20
6.262960
  0
VERTEX
  8
0
  6
CONTINUOUS
 10
5.534760
 20
6.263840
  0
VERTEX
  8
0
  6
CONTINUOUS
 10
5.546640
 20
6.262960
  0
VERTEX
  8
0
  6
CONTINUOUS
 10
5.568200
 20
6.257240
  0
VERTEX
  8
0
  6
CONTINUOUS
 10
5.587120
 20
6.247120
  0
VERTEX
  8
0
  6
CONTINUOUS
 10
5.621440
 20
6.220280
  0
VERTEX
  8
0
  6
CONTINUOUS
 10
5.707680
 20
6.303880
  0
VERTEX
  8
0
  6
CONTINUOUS
 10
5.881040
 20
6.125680
  0
VERTEX
  8
0
  6
CONTINUOUS
 10
5.161200
 20
5.566000
  0
VERTEX
  8
0
  6
CONTINUOUS
 10
3.834160
 20
5.566000
  0
SEQEND
  8
0
  0
POLYLINE
  8
0
  6
CONTINUOUS
 66
     1
 40
0.000000
 41
0.000000
  0
VERTEX
  8
0
  6
CONTINUOUS
 10
3.535840
 20
1.771880
  0
VERTEX
  8
0
  6
CONTINUOUS
 10
3.045240
 20
2.205280
  0
VERTEX
  8
0
  6
CONTINUOUS
 10
3.114760
 20
2.288440
  0
VERTEX
  8
0
  6
CONTINUOUS
 10
3.003440
 20
2.403280
  0
VERTEX
  8
0
  6
CONTINUOUS
 10
3.124000
 20
2.519440
  0
VERTEX
  8
0
  6
CONTINUOUS
 10
3.160080
 20
2.478520
  0
VERTEX
  8
0
  6
CONTINUOUS
 10
3.201880
 20
2.439800
  0
VERTEX
  8
0
  6
CONTINUOUS
 10
3.249400
 20
2.404600
  0
VERTEX
  8
0
  6
CONTINUOUS
 10
3.301320
 20
2.372920
  0
VERTEX
  8
0
  6
CONTINUOUS
 10
3.357640
 20
2.344760
  0
VERTEX
  8
0
  6
CONTINUOUS
 10
3.417040
 20
2.320560
  0
VERTEX
  8
0
  6
CONTINUOUS
 10
3.479520
 20
2.301200
  0
VERTEX
  8
0
  6
CONTINUOUS
 10
3.511640
 20
2.292840
  0
VERTEX
  8
0
  6
CONTINUOUS
 10
3.576760
 20
2.280520
  0
VERTEX
  8
0
  6
CONTINUOUS
 10
3.610200
 20
2.276120
  0
VERTEX
  8
0
  6
CONTINUOUS
 10
3.677520
 20
2.271720
  0
VERTEX
  8
0
  6
CONTINUOUS
 10
3.745280
 20
2.273040
  0
VERTEX
  8
0
  6
CONTINUOUS
 10
3.812600
 20
2.280520
  0
VERTEX
  8
0
  6
CONTINUOUS
 10
3.879480
 20
2.294160
  0
VERTEX
  8
0
  6
CONTINUOUS
 10
3.912040
 20
2.303400
  0
VERTEX
  8
0
  6
CONTINUOUS
 10
3.944600
 20
2.314400
  0
VERTEX
  8
0
  6
CONTINUOUS
 10
4.007520
 20
2.342120
  0
VERTEX
  8
0
  6
CONTINUOUS
 10
4.038320
 20
2.358400
  0
VERTEX
  8
0
  6
CONTINUOUS
 10
4.097720
 20
2.394920
  0
VERTEX
  8
0
  6
CONTINUOUS
 10
4.126760
 20
2.411200
  0
VERTEX
  8
0
  6
CONTINUOUS
 10
4.155800
 20
2.425280
  0
VERTEX
  8
0
  6
CONTINUOUS
 10
4.213000
 20
2.447720
  0
VERTEX
  8
0
  6
CONTINUOUS
 10
4.268440
 20
2.463120
  0
VERTEX
  8
0
  6
CONTINUOUS
 10
4.295720
 20
2.468400
  0
VERTEX
  8
0
  6
CONTINUOUS
 10
4.348520
 20
2.474560
  0
VERTEX
  8
0
  6
CONTINUOUS
 10
4.399120
 20
2.475440
  0
VERTEX
  8
0
  6
CONTINUOUS
 10
4.446640
 20
2.471480
  0
VERTEX
  8
0
  6
CONTINUOUS
 10
4.491960
 20
2.464440
  0
VERTEX
  8
0
  6
CONTINUOUS
 10
4.533320
 20
2.453880
  0
VERTEX
  8
0
  6
CONTINUOUS
 10
4.588760
 20
2.434080
  0
VERTEX
  8
0
  6
CONTINUOUS
 10
4.620880
 20
2.419560
  0
VERTEX
  8
0
  6
CONTINUOUS
 10
4.660480
 20
2.396680
  0
VERTEX
  8
0
  6
CONTINUOUS
 10
4.689080
 20
2.374680
  0
VERTEX
  8
0
  6
CONTINUOUS
 10
4.705360
 20
2.357080
  0
VERTEX
  8
0
  6
CONTINUOUS
 10
4.821080
 20
2.468840
  0
VERTEX
  8
0
  6
CONTINUOUS
 10
4.882240
 20
2.417800
  0
VERTEX
  8
0
  6
CONTINUOUS
 10
4.917440
 20
2.394040
  0
VERTEX
  8
0
  6
CONTINUOUS
 10
4.950440
 20
2.379080
  0
VERTEX
  8
0
  6
CONTINUOUS
 10
4.966720
 20
2.374680
  0
VERTEX
  8
0
  6
CONTINUOUS
 10
4.982560
 20
2.372480
  0
VERTEX
  8
0
  6
CONTINUOUS
 10
4.999280
 20
2.372480
  0
VERTEX
  8
0
  6
CONTINUOUS
 10
5.033600
 20
2.379520
  0
VERTEX
  8
0
  6
CONTINUOUS
 10
5.071880
 20
2.395800
  0
VERTEX
  8
0
  6
CONTINUOUS
 10
5.157680
 20
2.446400
  0
VERTEX
  8
0
  6
CONTINUOUS
 10
5.193320
 20
2.461800
  0
VERTEX
  8
0
  6
CONTINUOUS
 10
5.223240
 20
2.468840
  0
VERTEX
  8
0
  6
CONTINUOUS
 10
5.236440
 20
2.469280
  0
VERTEX
  8
0
  6
CONTINUOUS
 10
5.259760
 20
2.466200
  0
VERTEX
  8
0
  6
CONTINUOUS
 10
5.279560
 20
2.458280
  0
VERTEX
  8
0
  6
CONTINUOUS
 10
5.288800
 20
2.453000
  0
VERTEX
  8
0
  6
CONTINUOUS
 10
5.323120
 20
2.425720
  0
VERTEX
  8
0
  6
CONTINUOUS
 10
5.409360
 20
2.509760
  0
VERTEX
  8
0
  6
CONTINUOUS
 10
5.582720
 20
2.331560
  0
VERTEX
  8
0
  6
CONTINUOUS
 10
4.863320
 20
1.771880
  0
VERTEX
  8
0
  6
CONTINUOUS
 10
3.535840
 20
1.771880
  0
SEQEND
  8
0
  0
POLYLINE
  8
0
  6
CONTINUOUS
 66
     1
 40
0.000000
 41
0.000000
  0
VERTEX
  8
0
  6
CONTINUOUS
 10
5.071440
 20
0.784520
  0
VERTEX
  8
0
  6
CONTINUOUS
 10
5.562040
 20
1.217920
  0
VERTEX
  8
0
  6
CONTINUOUS
 10
5.492520
 20
1.301080
  0
VERTEX
  8
0
  6
CONTINUOUS
 10
5.603840
 20
1.415920
  0
VERTEX
  8
0
  6
CONTINUOUS
 10
5.483720
 20
1.532080
  0
VERTEX
  8
0
  6
CONTINUOUS
 10
5.447640
 20
1.491160
  0
VERTEX
  8
0
  6
CONTINUOUS
 10
5.405400
 20
1.452440
  0
VERTEX
  8
0
  6
CONTINUOUS
 10
5.358320
 20
1.417240
  0
VERTEX
  8
0
  6
CONTINUOUS
 10
5.305960
 20
1.385560
  0
VERTEX
  8
0
  6
CONTINUOUS
 10
5.250080
 20
1.357400
  0
VERTEX
  8
0
  6
CONTINUOUS
 10
5.190240
 20
1.333200
  0
VERTEX
  8
0
  6
CONTINUOUS
 10
5.128200
 20
1.313840
  0
VERTEX
  8
0
  6
CONTINUOUS
 10
5.096080
 20
1.305480
  0
VERTEX
  8
0
  6
CONTINUOUS
 10
5.030520
 20
1.293160
  0
VERTEX
  8
0
  6
CONTINUOUS
 10
4.997080
 20
1.288760
  0
VERTEX
  8
0
  6
CONTINUOUS
 10
4.929760
 20
1.284360
  0
VERTEX
  8
0
  6
CONTINUOUS
 10
4.895880
 20
1.284360
  0
VERTEX
  8
0
  6
CONTINUOUS
 10
4.862000
 20
1.285680
  0
VERTEX
  8
0
  6
CONTINUOUS
 10
4.794680
 20
1.293160
  0
VERTEX
  8
0
  6
CONTINUOUS
 10
4.727800
 20
1.306800
  0
VERTEX
  8
0
  6
CONTINUOUS
 10
4.695240
 20
1.316040
  0
VERTEX
  8
0
  6
CONTINUOUS
 10
4.662680
 20
1.327040
  0
VERTEX
  8
0
  6
CONTINUOUS
 10
4.599760
 20
1.354760
  0
VERTEX
  8
0
  6
CONTINUOUS
 10
4.568960
 20
1.371040
  0
VERTEX
  8
0
  6
CONTINUOUS
 10
4.509560
 20
1.407560
  0
VERTEX
  8
0
  6
CONTINUOUS
 10
4.480520
 20
1.423840
  0
VERTEX
  8
0
  6
CONTINUOUS
 10
4.451480
 20
1.437920
  0
VERTEX
  8
0
  6
CONTINUOUS
 10
4.394280
 20
1.460360
  0
VERTEX
  8
0
  6
CONTINUOUS
 10
4.338840
 20
1.475760
  0
VERTEX
  8
0
  6
CONTINUOUS
 10
4.311560
 20
1.481040
  0
VERTEX
  8
0
  6
CONTINUOUS
 10
4.258760
 20
1.487200
  0
VERTEX
  8
0
  6
CONTINUOUS
 10
4.208600
 20
1.488080
  0
VERTEX
  8
0
  6
CONTINUOUS
 10
4.160640
 20
1.484120
  0
VERTEX
  8
0
  6
CONTINUOUS
 10
4.115760
 20
1.477080
  0
VERTEX
  8
0
  6
CONTINUOUS
 10
4.073960
 20
1.466520
  0
VERTEX
  8
0
  6
CONTINUOUS
 10
4.018520
 20
1.446720
  0
VERTEX
  8
0
  6
CONTINUOUS
 10
3.986400
 20
1.432200
  0
VERTEX
  8
0
  6
CONTINUOUS
 10
3.946800
 20
1.409320
  0
VERTEX
  8
0
  6
CONTINUOUS
 10
3.918200
 20
1.387320
  0
VERTEX
  8
0
  6
CONTINUOUS
 10
3.901920
 20
1.369720
  0
VERTEX
  8
0
  6
CONTINUOUS
 10
3.786200
 20
1.481480
  0
VERTEX
  8
0
  6
CONTINUOUS
 10
3.725040
 20
1.430440
  0
VERTEX
  8
0
  6
CONTINUOUS
 10
3.689840
 20
1.406680
  0
VERTEX
  8
0
  6
CONTINUOUS
 10
3.656840
 20
1.391720
  0
VERTEX
  8
0
  6
CONTINUOUS
 10
3.640560
 20
1.387320
  0
VERTEX
  8
0
  6
CONTINUOUS
 10
3.624720
 20
1.385120
  0
VERTEX
  8
0
  6
CONTINUOUS
 10
3.608000
 20
1.385120
  0
VERTEX
  8
0
  6
CONTINUOUS
 10
3.573680
 20
1.392160
  0
VERTEX
  8
0
  6
CONTINUOUS
 10
3.535400
 20
1.408440
  0
VERTEX
  8
0
  6
CONTINUOUS
 10
3.459720
 20
1.453760
  0
VERTEX
  8
0
  6
CONTINUOUS
 10
3.431120
 20
1.467840
  0
VERTEX
  8
0
  6
CONTINUOUS
 10
3.398560
 20
1.478840
  0
VERTEX
  8
0
  6
CONTINUOUS
 10
3.384040
 20
1.481480
  0
VERTEX
  8
0
  6
CONTINUOUS
 10
3.371280
 20
1.481920
  0
VERTEX
  8
0
  6
CONTINUOUS
 10
3.347960
 20
1.478840
  0
VERTEX
  8
0
  6
CONTINUOUS
 10
3.327720
 20
1.470920
  0
VERTEX
  8
0
  6
CONTINUOUS
 10
3.318480
 20
1.465640
  0
VERTEX
  8
0
  6
CONTINUOUS
 10
3.284160
 20
1.438360
  0
VERTEX
  8
0
  6
CONTINUOUS
 10
3.198360
 20
1.522400
  0
VERTEX
  8
0
  6
CONTINUOUS
 10
3.025000
 20
1.344200
  0
VERTEX
  8
0
  6
CONTINUOUS
 10
3.744400
 20
0.784520
  0
VERTEX
  8
0
  6
CONTINUOUS
 10
5.071440
 20
0.784520
  0
SEQEND
  8
0
  0
SOLID
  8
0
 62
    15
 10
3.358960
 20
3.197480
 11
4.011920
 21
2.811160
 12
3.457520
 22
4.103880
 13
4.110480
 23
3.717120
  0
POLYLINE
  8
0
  6
CONTINUOUS
 66
     1
 40
0.000000
 41
0.000000
  0
VERTEX
  8
0
  6
CONTINUOUS
 10
3.358960
 20
3.197480
  0
VERTEX
  8
0
  6
CONTINUOUS
 10
4.011920
 20
2.811160
  0
VERTEX
  8
0
  6
CONTINUOUS
 10
4.110480
 20
3.717120
  0
VERTEX
  8
0
  6
CONTINUOUS
 10
3.457520
 20
4.103880
  0
VERTEX
  8
0
  6
CONTINUOUS
 10
3.358960
 20
3.197480
  0
SEQEND
  8
0
  0
SOLID
  8
0
 62
    15
 10
4.381080
 20
5.056920
 11
5.034040
 21
4.670600
 12
5.033600
 22
5.107520
 13
5.687000
 23
4.720760
  0
POLYLINE
  8
0
  6
CONTINUOUS
 66
     1
 40
0.000000
 41
0.000000
  0
VERTEX
  8
0
  6
CONTINUOUS
 10
4.381080
 20
5.056920
  0
VERTEX
  8
0
  6
CONTINUOUS
 10
5.034040
 20
4.670600
  0
VERTEX
  8
0
  6
CONTINUOUS
 10
5.687000
 20
4.720760
  0
VERTEX
  8
0
  6
CONTINUOUS
 10
5.033600
 20
5.107520
  0
VERTEX
  8
0
  6
CONTINUOUS
 10
4.381080
 20
5.056920
  0
SEQEND
  8
0
  0
SOLID
  8
0
 62
    15
 10
5.033600
 20
5.107520
 11
5.687000
 21
4.720760
 12
5.045040
 22
4.999720
 13
5.698440
 23
4.612960
  0
POLYLINE
  8
0
  6
CONTINUOUS
 66
     1
 40
0.000000
 41
0.000000
  0
VERTEX
  8
0
  6
CONTINUOUS
 10
5.033600
 20
5.107520
  0
VERTEX
  8
0
  6
CONTINUOUS
 10
5.687000
 20
4.720760
  0
VERTEX
  8
0
  6
CONTINUOUS
 10
5.698440
 20
4.612960
  0
VERTEX
  8
0
  6
CONTINUOUS
 10
5.045040
 20
4.999720
  0
VERTEX
  8
0
  6
CONTINUOUS
 10
5.033600
 20
5.107520
  0
SEQEND
  8
0
  0
SOLID
  8
0
 62
    15
 10
5.045040
 20
4.999720
 11
5.698440
 21
4.612960
 12
5.205200
 22
4.999720
 13
5.858160
 23
4.612960
  0
POLYLINE
  8
0
  6
CONTINUOUS
 66
     1
 40
0.000000
 41
0.000000
  0
VERTEX
  8
0
  6
CONTINUOUS
 10
5.045040
 20
4.999720
  0
VERTEX
  8
0
  6
CONTINUOUS
 10
5.698440
 20
4.612960
  0
VERTEX
  8
0
  6
CONTINUOUS
 10
5.858160
 20
4.612960
  0
VERTEX
  8
0
  6
CONTINUOUS
 10
5.205200
 20
4.999720
  0
VERTEX
  8
0
  6
CONTINUOUS
 10
5.045040
 20
4.999720
  0
SEQEND
  8
0
  0
SOLID
  8
0
 62
    15
 10
5.204760
 20
4.832520
 11
5.858160
 21
4.445760
 12
5.093440
 22
4.831640
 13
5.746400
 23
4.444880
  0
POLYLINE
  8
0
  6
CONTINUOUS
 66
     1
 40
0.000000
 41
0.000000
  0
VERTEX
  8
0
  6
CONTINUOUS
 10
5.204760
 20
4.832520
  0
VERTEX
  8
0
  6
CONTINUOUS
 10
5.858160
 20
4.445760
  0
VERTEX
  8
0
  6
CONTINUOUS
 10
5.746400
 20
4.444880
  0
VERTEX
  8
0
  6
CONTINUOUS
 10
5.093440
 20
4.831640
  0
VERTEX
  8
0
  6
CONTINUOUS
 10
5.204760
 20
4.832520
  0
SEQEND
  8
0
  0
SOLID
  8
0
 62
    15
 10
5.093440
 20
4.831640
 11
5.746400
 21
4.444880
 12
4.975960
 22
4.807000
 13
5.629360
 23
4.420240
  0
POLYLINE
  8
0
  6
CONTINUOUS
 66
     1
 40
0.000000
 41
0.000000
  0
VERTEX
  8
0
  6
CONTINUOUS
 10
5.093440
 20
4.831640
  0
VERTEX
  8
0
  6
CONTINUOUS
 10
5.746400
 20
4.444880
  0
VERTEX
  8
0
  6
CONTINUOUS
 10
5.629360
 20
4.420240
  0
VERTEX
  8
0
  6
CONTINUOUS
 10
4.975960
 20
4.807000
  0
VERTEX
  8
0
  6
CONTINUOUS
 10
5.093440
 20
4.831640
  0
SEQEND
  8
0
  0
SOLID
  8
0
 62
    15
 10
4.337960
 20
5.012480
 11
4.990920
 21
4.625720
 12
4.381080
 22
5.056920
 13
5.034040
 23
4.670600
  0
POLYLINE
  8
0
  6
CONTINUOUS
 66
     1
 40
0.000000
 41
0.000000
  0
VERTEX
  8
0
  6
CONTINUOUS
 10
4.337960
 20
5.012480
  0
VERTEX
  8
0
  6
CONTINUOUS
 10
4.990920
 20
4.625720
  0
VERTEX
  8
0
  6
CONTINUOUS
 10
5.034040
 20
4.670600
  0
VERTEX
  8
0
  6
CONTINUOUS
 10
4.381080
 20
5.056920
  0
VERTEX
  8
0
  6
CONTINUOUS
 10
4.337960
 20
5.012480
  0
SEQEND
  8
0
  0
SOLID
  8
0
 62
    15
 10
3.457520
 20
4.103880
 11
4.110480
 21
3.717120
 12
4.337960
 22
5.012480
 13
4.990920
 23
4.625720
  0
POLYLINE
  8
0
  6
CONTINUOUS
 66
     1
 40
0.000000
 41
0.000000
  0
VERTEX
  8
0
  6
CONTINUOUS
 10
3.457520
 20
4.103880
  0
VERTEX
  8
0
  6
CONTINUOUS
 10
4.110480
 20
3.717120
  0
VERTEX
  8
0
  6
CONTINUOUS
 10
4.990920
 20
4.625720
  0
VERTEX
  8
0
  6
CONTINUOUS
 10
4.337960
 20
5.012480
  0
VERTEX
  8
0
  6
CONTINUOUS
 10
3.457520
 20
4.103880
  0
SEQEND
  8
0
  0
SOLID
  8
0
 62
    15
 10
4.744960
 20
4.693040
 11
5.397920
 21
4.306280
 12
4.641560
 22
4.607240
 13
5.294520
 23
4.220480
  0
POLYLINE
  8
0
  6
CONTINUOUS
 66
     1
 40
0.000000
 41
0.000000
  0
VERTEX
  8
0
  6
CONTINUOUS
 10
4.744960
 20
4.693040
  0
VERTEX
  8
0
  6
CONTINUOUS
 10
5.397920
 20
4.306280
  0
VERTEX
  8
0
  6
CONTINUOUS
 10
5.294520
 20
4.220480
  0
VERTEX
  8
0
  6
CONTINUOUS
 10
4.641560
 20
4.607240
  0
VERTEX
  8
0
  6
CONTINUOUS
 10
4.744960
 20
4.693040
  0
SEQEND
  8
0
  0
SOLID
  8
0
 62
    15
 10
4.641560
 20
4.607240
 11
5.294520
 21
4.220480
 12
4.553560
 22
4.504280
 13
5.206960
 23
4.117520
  0
POLYLINE
  8
0
  6
CONTINUOUS
 66
     1
 40
0.000000
 41
0.000000
  0
VERTEX
  8
0
  6
CONTINUOUS
 10
4.641560
 20
4.607240
  0
VERTEX
  8
0
  6
CONTINUOUS
 10
5.294520
 20
4.220480
  0
VERTEX
  8
0
  6
CONTINUOUS
 10
5.206960
 20
4.117520
  0
VERTEX
  8
0
  6
CONTINUOUS
 10
4.553560
 20
4.504280
  0
VERTEX
  8
0
  6
CONTINUOUS
 10
4.641560
 20
4.607240
  0
SEQEND
  8
0
  0
SOLID
  8
0
 62
    15
 10
4.553560
 20
4.504280
 11
5.206960
 21
4.117520
 12
4.486240
 22
4.385480
 13
5.139640
 23
3.999160
  0
POLYLINE
  8
0
  6
CONTINUOUS
 66
     1
 40
0.000000
 41
0.000000
  0
VERTEX
  8
0
  6
CONTINUOUS
 10
4.553560
 20
4.504280
  0
VERTEX
  8
0
  6
CONTINUOUS
 10
5.206960
 20
4.117520
  0
VERTEX
  8
0
  6
CONTINUOUS
 10
5.139640
 20
3.999160
  0
VERTEX
  8
0
  6
CONTINUOUS
 10
4.486240
 20
4.385480
  0
VERTEX
  8
0
  6
CONTINUOUS
 10
4.553560
 20
4.504280
  0
SEQEND
  8
0
  0
SOLID
  8
0
 62
    15
 10
4.486240
 20
4.385480
 11
5.139640
 21
3.999160
 12
4.444880
 22
4.253480
 13
5.098280
 23
3.866720
  0
POLYLINE
  8
0
  6
CONTINUOUS
 66
     1
 40
0.000000
 41
0.000000
  0
VERTEX
  8
0
  6
CONTINUOUS
 10
4.486240
 20
4.385480
  0
VERTEX
  8
0
  6
CONTINUOUS
 10
5.139640
 20
3.999160
  0
VERTEX
  8
0
  6
CONTINUOUS
 10
5.098280
 20
3.866720
  0
VERTEX
  8
0
  6
CONTINUOUS
 10
4.444880
 20
4.253480
  0
VERTEX
  8
0
  6
CONTINUOUS
 10
4.486240
 20
4.385480
  0
SEQEND
  8
0
  0
SOLID
  8
0
 62
    15
 10
4.444880
 20
4.253480
 11
5.098280
 21
3.866720
 12
4.407480
 22
4.127640
 13
5.060440
 23
3.741320
  0
POLYLINE
  8
0
  6
CONTINUOUS
 66
     1
 40
0.000000
 41
0.000000
  0
VERTEX
  8
0
  6
CONTINUOUS
 10
4.444880
 20
4.253480
  0
VERTEX
  8
0
  6
CONTINUOUS
 10
5.098280
 20
3.866720
  0
VERTEX
  8
0
  6
CONTINUOUS
 10
5.060440
 20
3.741320
  0
VERTEX
  8
0
  6
CONTINUOUS
 10
4.407480
 20
4.127640
  0
VERTEX
  8
0
  6
CONTINUOUS
 10
4.444880
 20
4.253480
  0
SEQEND
  8
0
  0
SOLID
  8
0
 62
    15
 10
4.407480
 20
4.127640
 11
5.060440
 21
3.741320
 12
4.352480
 22
4.026440
 13
5.005440
 23
3.640120
  0
POLYLINE
  8
0
  6
CONTINUOUS
 66
     1
 40
0.000000
 41
0.000000
  0
VERTEX
  8
0
  6
CONTINUOUS
 10
4.407480
 20
4.127640
  0
VERTEX
  8
0
  6
CONTINUOUS
 10
5.060440
 20
3.741320
  0
VERTEX
  8
0
  6
CONTINUOUS
 10
5.005440
 20
3.640120
  0
VERTEX
  8
0
  6
CONTINUOUS
 10
4.352480
 20
4.026440
  0
VERTEX
  8
0
  6
CONTINUOUS
 10
4.407480
 20
4.127640
  0
SEQEND
  8
0
  0
SOLID
  8
0
 62
    15
 10
4.352480
 20
4.026440
 11
5.005440
 21
3.640120
 12
4.285600
 22
3.947680
 13
4.938560
 23
3.560920
  0
POLYLINE
  8
0
  6
CONTINUOUS
 66
     1
 40
0.000000
 41
0.000000
  0
VERTEX
  8
0
  6
CONTINUOUS
 10
4.352480
 20
4.026440
  0
VERTEX
  8
0
  6
CONTINUOUS
 10
5.005440
 20
3.640120
  0
VERTEX
  8
0
  6
CONTINUOUS
 10
4.938560
 20
3.560920
  0
VERTEX
  8
0
  6
CONTINUOUS
 10
4.285600
 20
3.947680
  0
VERTEX
  8
0
  6
CONTINUOUS
 10
4.352480
 20
4.026440
  0
SEQEND
  8
0
  0
SOLID
  8
0
 62
    15
 10
4.285600
 20
3.947680
 11
4.938560
 21
3.560920
 12
4.213440
 22
3.888720
 13
4.866400
 23
3.501960
  0
POLYLINE
  8
0
  6
CONTINUOUS
 66
     1
 40
0.000000
 41
0.000000
  0
VERTEX
  8
0
  6
CONTINUOUS
 10
4.285600
 20
3.947680
  0
VERTEX
  8
0
  6
CONTINUOUS
 10
4.938560
 20
3.560920
  0
VERTEX
  8
0
  6
CONTINUOUS
 10
4.866400
 20
3.501960
  0
VERTEX
  8
0
  6
CONTINUOUS
 10
4.213440
 20
3.888720
  0
VERTEX
  8
0
  6
CONTINUOUS
 10
4.285600
 20
3.947680
  0
SEQEND
  8
0
  0
SOLID
  8
0
 62
    15
 10
4.213440
 20
3.888720
 11
4.866400
 21
3.501960
 12
4.141280
 22
3.847360
 13
4.794240
 23
3.460600
  0
POLYLINE
  8
0
  6
CONTINUOUS
 66
     1
 40
0.000000
 41
0.000000
  0
VERTEX
  8
0
  6
CONTINUOUS
 10
4.213440
 20
3.888720
  0
VERTEX
  8
0
  6
CONTINUOUS
 10
4.866400
 20
3.501960
  0
VERTEX
  8
0
  6
CONTINUOUS
 10
4.794240
 20
3.460600
  0
VERTEX
  8
0
  6
CONTINUOUS
 10
4.141280
 20
3.847360
  0
VERTEX
  8
0
  6
CONTINUOUS
 10
4.213440
 20
3.888720
  0
SEQEND
  8
0
  0
SOLID
  8
0
 62
    15
 10
4.141280
 20
3.847360
 11
4.794240
 21
3.460600
 12
4.075720
 22
3.821840
 13
4.728680
 23
3.435520
  0
POLYLINE
  8
0
  6
CONTINUOUS
 66
     1
 40
0.000000
 41
0.000000
  0
VERTEX
  8
0
  6
CONTINUOUS
 10
4.141280
 20
3.847360
  0
VERTEX
  8
0
  6
CONTINUOUS
 10
4.794240
 20
3.460600
  0
VERTEX
  8
0
  6
CONTINUOUS
 10
4.728680
 20
3.435520
  0
VERTEX
  8
0
  6
CONTINUOUS
 10
4.075720
 20
3.821840
  0
VERTEX
  8
0
  6
CONTINUOUS
 10
4.141280
 20
3.847360
  0
SEQEND
  8
0
  0
SOLID
  8
0
 62
    15
 10
4.075720
 20
3.821840
 11
4.728680
 21
3.435520
 12
4.022480
 22
3.810400
 13
4.675440
 23
3.423640
  0
POLYLINE
  8
0
  6
CONTINUOUS
 66
     1
 40
0.000000
 41
0.000000
  0
VERTEX
  8
0
  6
CONTINUOUS
 10
4.075720
 20
3.821840
  0
VERTEX
  8
0
  6
CONTINUOUS
 10
4.728680
 20
3.435520
  0
VERTEX
  8
0
  6
CONTINUOUS
 10
4.675440
 20
3.423640
  0
VERTEX
  8
0
  6
CONTINUOUS
 10
4.022480
 20
3.810400
  0
VERTEX
  8
0
  6
CONTINUOUS
 10
4.075720
 20
3.821840
  0
SEQEND
  8
0
  0
SOLID
  8
0
 62
    15
 10
4.022480
 20
3.810400
 11
4.675440
 21
3.423640
 12
3.987280
 22
3.809960
 13
4.640680
 23
3.423200
  0
POLYLINE
  8
0
  6
CONTINUOUS
 66
     1
 40
0.000000
 41
0.000000
  0
VERTEX
  8
0
  6
CONTINUOUS
 10
4.022480
 20
3.810400
  0
VERTEX
  8
0
  6
CONTINUOUS
 10
4.675440
 20
3.423640
  0
VERTEX
  8
0
  6
CONTINUOUS
 10
4.640680
 20
3.423200
  0
VERTEX
  8
0
  6
CONTINUOUS
 10
3.987280
 20
3.809960
  0
VERTEX
  8
0
  6
CONTINUOUS
 10
4.022480
 20
3.810400
  0
SEQEND
  8
0
  0
SOLID
  8
0
 62
    15
 10
5.205200
 20
4.999720
 11
5.858160
 21
4.612960
 12
5.204760
 22
4.832520
 13
5.858160
 23
4.445760
  0
POLYLINE
  8
0
  6
CONTINUOUS
 66
     1
 40
0.000000
 41
0.000000
  0
VERTEX
  8
0
  6
CONTINUOUS
 10
5.205200
 20
4.999720
  0
VERTEX
  8
0
  6
CONTINUOUS
 10
5.858160
 20
4.612960
  0
VERTEX
  8
0
  6
CONTINUOUS
 10
5.858160
 20
4.445760
  0
VERTEX
  8
0
  6
CONTINUOUS
 10
5.204760
 20
4.832520
  0
VERTEX
  8
0
  6
CONTINUOUS
 10
5.205200
 20
4.999720
  0
SEQEND
  8
0
  0
SOLID
  8
0
 62
    15
 10
3.987280
 20
3.648920
 11
4.640680
 21
3.262160
 12
3.932280
 22
3.643640
 13
4.585680
 23
3.257320
  0
POLYLINE
  8
0
  6
CONTINUOUS
 66
     1
 40
0.000000
 41
0.000000
  0
VERTEX
  8
0
  6
CONTINUOUS
 10
3.987280
 20
3.648920
  0
VERTEX
  8
0
  6
CONTINUOUS
 10
4.640680
 20
3.262160
  0
VERTEX
  8
0
  6
CONTINUOUS
 10
4.585680
 20
3.257320
  0
VERTEX
  8
0
  6
CONTINUOUS
 10
3.932280
 20
3.643640
  0
VERTEX
  8
0
  6
CONTINUOUS
 10
3.987280
 20
3.648920
  0
SEQEND
  8
0
  0
SOLID
  8
0
 62
    15
 10
3.932280
 20
3.643640
 11
4.585680
 21
3.257320
 12
3.886520
 22
3.636600
 13
4.539480
 23
3.249840
  0
POLYLINE
  8
0
  6
CONTINUOUS
 66
     1
 40
0.000000
 41
0.000000
  0
VERTEX
  8
0
  6
CONTINUOUS
 10
3.932280
 20
3.643640
  0
VERTEX
  8
0
  6
CONTINUOUS
 10
4.585680
 20
3.257320
  0
VERTEX
  8
0
  6
CONTINUOUS
 10
4.539480
 20
3.249840
  0
VERTEX
  8
0
  6
CONTINUOUS
 10
3.886520
 20
3.636600
  0
VERTEX
  8
0
  6
CONTINUOUS
 10
3.932280
 20
3.643640
  0
SEQEND
  8
0
  0
SOLID
  8
0
 62
    15
 10
3.886520
 20
3.636600
 11
4.539480
 21
3.249840
 12
3.848680
 22
3.625600
 13
4.502080
 23
3.238840
  0
POLYLINE
  8
0
  6
CONTINUOUS
 66
     1
 40
0.000000
 41
0.000000
  0
VERTEX
  8
0
  6
CONTINUOUS
 10
3.886520
 20
3.636600
  0
VERTEX
  8
0
  6
CONTINUOUS
 10
4.539480
 20
3.249840
  0
VERTEX
  8
0
  6
CONTINUOUS
 10
4.502080
 20
3.238840
  0
VERTEX
  8
0
  6
CONTINUOUS
 10
3.848680
 20
3.625600
  0
VERTEX
  8
0
  6
CONTINUOUS
 10
3.886520
 20
3.636600
  0
SEQEND
  8
0
  0
SOLID
  8
0
 62
    15
 10
3.848680
 20
3.625600
 11
4.502080
 21
3.238840
 12
3.818320
 22
3.609760
 13
4.471720
 23
3.223000
  0
POLYLINE
  8
0
  6
CONTINUOUS
 66
     1
 40
0.000000
 41
0.000000
  0
VERTEX
  8
0
  6
CONTINUOUS
 10
3.848680
 20
3.625600
  0
VERTEX
  8
0
  6
CONTINUOUS
 10
4.502080
 20
3.238840
  0
VERTEX
  8
0
  6
CONTINUOUS
 10
4.471720
 20
3.223000
  0
VERTEX
  8
0
  6
CONTINUOUS
 10
3.818320
 20
3.609760
  0
VERTEX
  8
0
  6
CONTINUOUS
 10
3.848680
 20
3.625600
  0
SEQEND
  8
0
  0
SOLID
  8
0
 62
    15
 10
3.818320
 20
3.609760
 11
4.471720
 21
3.223000
 12
3.794120
 22
3.587760
 13
4.447520
 23
3.201000
  0
POLYLINE
  8
0
  6
CONTINUOUS
 66
     1
 40
0.000000
 41
0.000000
  0
VERTEX
  8
0
  6
CONTINUOUS
 10
3.818320
 20
3.609760
  0
VERTEX
  8
0
  6
CONTINUOUS
 10
4.471720
 20
3.223000
  0
VERTEX
  8
0
  6
CONTINUOUS
 10
4.447520
 20
3.201000
  0
VERTEX
  8
0
  6
CONTINUOUS
 10
3.794120
 20
3.587760
  0
VERTEX
  8
0
  6
CONTINUOUS
 10
3.818320
 20
3.609760
  0
SEQEND
  8
0
  0
SOLID
  8
0
 62
    15
 10
3.794120
 20
3.587760
 11
4.447520
 21
3.201000
 12
3.775200
 22
3.557840
 13
4.428600
 23
3.171520
  0
POLYLINE
  8
0
  6
CONTINUOUS
 66
     1
 40
0.000000
 41
0.000000
  0
VERTEX
  8
0
  6
CONTINUOUS
 10
3.794120
 20
3.587760
  0
VERTEX
  8
0
  6
CONTINUOUS
 10
4.447520
 20
3.201000
  0
VERTEX
  8
0
  6
CONTINUOUS
 10
4.428600
 20
3.171520
  0
VERTEX
  8
0
  6
CONTINUOUS
 10
3.775200
 20
3.557840
  0
VERTEX
  8
0
  6
CONTINUOUS
 10
3.794120
 20
3.587760
  0
SEQEND
  8
0
  0
SOLID
  8
0
 62
    15
 10
3.775200
 20
3.557840
 11
4.428600
 21
3.171520
 12
3.760240
 22
3.519560
 13
4.413640
 23
3.132800
  0
POLYLINE
  8
0
  6
CONTINUOUS
 66
     1
 40
0.000000
 41
0.000000
  0
VERTEX
  8
0
  6
CONTINUOUS
 10
3.775200
 20
3.557840
  0
VERTEX
  8
0
  6
CONTINUOUS
 10
4.428600
 20
3.171520
  0
VERTEX
  8
0
  6
CONTINUOUS
 10
4.413640
 20
3.132800
  0
VERTEX
  8
0
  6
CONTINUOUS
 10
3.760240
 20
3.519560
  0
VERTEX
  8
0
  6
CONTINUOUS
 10
3.775200
 20
3.557840
  0
SEQEND
  8
0
  0
SOLID
  8
0
 62
    15
 10
3.760240
 20
3.519560
 11
4.413640
 21
3.132800
 12
3.748800
 22
3.470720
 13
4.401760
 23
3.083960
  0
POLYLINE
  8
0
  6
CONTINUOUS
 66
     1
 40
0.000000
 41
0.000000
  0
VERTEX
  8
0
  6
CONTINUOUS
 10
3.760240
 20
3.519560
  0
VERTEX
  8
0
  6
CONTINUOUS
 10
4.413640
 20
3.132800
  0
VERTEX
  8
0
  6
CONTINUOUS
 10
4.401760
 20
3.083960
  0
VERTEX
  8
0
  6
CONTINUOUS
 10
3.748800
 20
3.470720
  0
VERTEX
  8
0
  6
CONTINUOUS
 10
3.760240
 20
3.519560
  0
SEQEND
  8
0
  0
SOLID
  8
0
 62
    15
 10
3.748800
 20
3.470720
 11
4.401760
 21
3.083960
 12
3.736920
 22
3.422760
 13
4.390320
 23
3.036000
  0
POLYLINE
  8
0
  6
CONTINUOUS
 66
     1
 40
0.000000
 41
0.000000
  0
VERTEX
  8
0
  6
CONTINUOUS
 10
3.748800
 20
3.470720
  0
VERTEX
  8
0
  6
CONTINUOUS
 10
4.401760
 20
3.083960
  0
VERTEX
  8
0
  6
CONTINUOUS
 10
4.390320
 20
3.036000
  0
VERTEX
  8
0
  6
CONTINUOUS
 10
3.736920
 20
3.422760
  0
VERTEX
  8
0
  6
CONTINUOUS
 10
3.748800
 20
3.470720
  0
SEQEND
  8
0
  0
SOLID
  8
0
 62
    15
 10
3.736920
 20
3.422760
 11
4.390320
 21
3.036000
 12
3.723280
 22
3.386240
 13
4.376240
 23
2.999920
  0
POLYLINE
  8
0
  6
CONTINUOUS
 66
     1
 40
0.000000
 41
0.000000
  0
VERTEX
  8
0
  6
CONTINUOUS
 10
3.736920
 20
3.422760
  0
VERTEX
  8
0
  6
CONTINUOUS
 10
4.390320
 20
3.036000
  0
VERTEX
  8
0
  6
CONTINUOUS
 10
4.376240
 20
2.999920
  0
VERTEX
  8
0
  6
CONTINUOUS
 10
3.723280
 20
3.386240
  0
VERTEX
  8
0
  6
CONTINUOUS
 10
3.736920
 20
3.422760
  0
SEQEND
  8
0
  0
SOLID
  8
0
 62
    15
 10
3.723280
 20
3.386240
 11
4.376240
 21
2.999920
 12
3.689840
 22
3.342240
 13
4.342800
 23
2.955480
  0
POLYLINE
  8
0
  6
CONTINUOUS
 66
     1
 40
0.000000
 41
0.000000
  0
VERTEX
  8
0
  6
CONTINUOUS
 10
3.723280
 20
3.386240
  0
VERTEX
  8
0
  6
CONTINUOUS
 10
4.376240
 20
2.999920
  0
VERTEX
  8
0
  6
CONTINUOUS
 10
4.342800
 20
2.955480
  0
VERTEX
  8
0
  6
CONTINUOUS
 10
3.689840
 20
3.342240
  0
VERTEX
  8
0
  6
CONTINUOUS
 10
3.723280
 20
3.386240
  0
SEQEND
  8
0
  0
SOLID
  8
0
 62
    15
 10
3.689840
 20
3.342240
 11
4.342800
 21
2.955480
 12
3.650240
 22
3.324200
 13
4.303640
 23
2.937440
  0
POLYLINE
  8
0
  6
CONTINUOUS
 66
     1
 40
0.000000
 41
0.000000
  0
VERTEX
  8
0
  6
CONTINUOUS
 10
3.689840
 20
3.342240
  0
VERTEX
  8
0
  6
CONTINUOUS
 10
4.342800
 20
2.955480
  0
VERTEX
  8
0
  6
CONTINUOUS
 10
4.303640
 20
2.937440
  0
VERTEX
  8
0
  6
CONTINUOUS
 10
3.650240
 20
3.324200
  0
VERTEX
  8
0
  6
CONTINUOUS
 10
3.689840
 20
3.342240
  0
SEQEND
  8
0
  0
SOLID
  8
0
 62
    15
 10
3.650240
 20
3.324200
 11
4.303640
 21
2.937440
 12
3.629120
 22
3.320680
 13
4.282080
 23
2.933920
  0
POLYLINE
  8
0
  6
CONTINUOUS
 66
     1
 40
0.000000
 41
0.000000
  0
VERTEX
  8
0
  6
CONTINUOUS
 10
3.650240
 20
3.324200
  0
VERTEX
  8
0
  6
CONTINUOUS
 10
4.303640
 20
2.937440
  0
VERTEX
  8
0
  6
CONTINUOUS
 10
4.282080
 20
2.933920
  0
VERTEX
  8
0
  6
CONTINUOUS
 10
3.629120
 20
3.320680
  0
VERTEX
  8
0
  6
CONTINUOUS
 10
3.650240
 20
3.324200
  0
SEQEND
  8
0
  0
SOLID
  8
0
 62
    15
 10
3.629120
 20
3.320680
 11
4.282080
 21
2.933920
 12
3.618120
 22
3.319360
 13
4.271520
 23
2.932600
  0
POLYLINE
  8
0
  6
CONTINUOUS
 66
     1
 40
0.000000
 41
0.000000
  0
VERTEX
  8
0
  6
CONTINUOUS
 10
3.629120
 20
3.320680
  0
VERTEX
  8
0
  6
CONTINUOUS
 10
4.282080
 20
2.933920
  0
VERTEX
  8
0
  6
CONTINUOUS
 10
4.271520
 20
2.932600
  0
VERTEX
  8
0
  6
CONTINUOUS
 10
3.618120
 20
3.319360
  0
VERTEX
  8
0
  6
CONTINUOUS
 10
3.629120
 20
3.320680
  0
SEQEND
  8
0
  0
SOLID
  8
0
 62
    15
 10
3.618120
 20
3.319360
 11
4.271520
 21
2.932600
 12
3.607120
 22
3.318040
 13
4.260080
 23
2.931720
  0
POLYLINE
  8
0
  6
CONTINUOUS
 66
     1
 40
0.000000
 41
0.000000
  0
VERTEX
  8
0
  6
CONTINUOUS
 10
3.618120
 20
3.319360
  0
VERTEX
  8
0
  6
CONTINUOUS
 10
4.271520
 20
2.932600
  0
VERTEX
  8
0
  6
CONTINUOUS
 10
4.260080
 20
2.931720
  0
VERTEX
  8
0
  6
CONTINUOUS
 10
3.607120
 20
3.318040
  0
VERTEX
  8
0
  6
CONTINUOUS
 10
3.618120
 20
3.319360
  0
SEQEND
  8
0
  0
SOLID
  8
0
 62
    15
 10
3.607120
 20
3.318040
 11
4.260080
 21
2.931720
 12
3.607120
 22
3.197920
 13
4.260520
 23
2.811600
  0
POLYLINE
  8
0
  6
CONTINUOUS
 66
     1
 40
0.000000
 41
0.000000
  0
VERTEX
  8
0
  6
CONTINUOUS
 10
3.607120
 20
3.318040
  0
VERTEX
  8
0
  6
CONTINUOUS
 10
4.260080
 20
2.931720
  0
VERTEX
  8
0
  6
CONTINUOUS
 10
4.260520
 20
2.811600
  0
VERTEX
  8
0
  6
CONTINUOUS
 10
3.607120
 20
3.197920
  0
VERTEX
  8
0
  6
CONTINUOUS
 10
3.607120
 20
3.318040
  0
SEQEND
  8
0
  0
SOLID
  8
0
 62
    15
 10
3.607120
 20
3.197920
 11
4.260520
 21
2.811600
 12
3.358960
 22
3.197480
 13
4.011920
 23
2.811160
  0
POLYLINE
  8
0
  6
CONTINUOUS
 66
     1
 40
0.000000
 41
0.000000
  0
VERTEX
  8
0
  6
CONTINUOUS
 10
3.607120
 20
3.197920
  0
VERTEX
  8
0
  6
CONTINUOUS
 10
4.260520
 20
2.811600
  0
VERTEX
  8
0
  6
CONTINUOUS
 10
4.011920
 20
2.811160
  0
VERTEX
  8
0
  6
CONTINUOUS
 10
3.358960
 20
3.197480
  0
VERTEX
  8
0
  6
CONTINUOUS
 10
3.607120
 20
3.197920
  0
SEQEND
  8
0
  0
SOLID
  8
0
 62
    15
 10
3.987280
 20
3.809960
 11
4.640680
 21
3.423200
 12
3.987280
 22
3.648920
 13
4.640680
 23
3.262160
  0
POLYLINE
  8
0
  6
CONTINUOUS
 66
     1
 40
0.000000
 41
0.000000
  0
VERTEX
  8
0
  6
CONTINUOUS
 10
3.987280
 20
3.809960
  0
VERTEX
  8
0
  6
CONTINUOUS
 10
4.640680
 20
3.423200
  0
VERTEX
  8
0
  6
CONTINUOUS
 10
4.640680
 20
3.262160
  0
VERTEX
  8
0
  6
CONTINUOUS
 10
3.987280
 20
3.648920
  0
VERTEX
  8
0
  6
CONTINUOUS
 10
3.987280
 20
3.809960
  0
SEQEND
  8
0
  0
SOLID
  8
0
 62
    15
 10
4.858040
 20
4.760360
 11
5.511440
 21
4.373600
 12
4.744960
 22
4.693040
 13
5.397920
 23
4.306280
  0
POLYLINE
  8
0
  6
CONTINUOUS
 66
     1
 40
0.000000
 41
0.000000
  0
VERTEX
  8
0
  6
CONTINUOUS
 10
4.858040
 20
4.760360
  0
VERTEX
  8
0
  6
CONTINUOUS
 10
5.511440
 20
4.373600
  0
VERTEX
  8
0
  6
CONTINUOUS
 10
5.397920
 20
4.306280
  0
VERTEX
  8
0
  6
CONTINUOUS
 10
4.744960
 20
4.693040
  0
VERTEX
  8
0
  6
CONTINUOUS
 10
4.858040
 20
4.760360
  0
SEQEND
  8
0
  0
SOLID
  8
0
 62
    15
 10
4.975960
 20
4.807000
 11
5.629360
 21
4.420240
 12
4.858040
 22
4.760360
 13
5.511440
 23
4.373600
  0
POLYLINE
  8
0
  6
CONTINUOUS
 66
     1
 40
0.000000
 41
0.000000
  0
VERTEX
  8
0
  6
CONTINUOUS
 10
4.975960
 20
4.807000
  0
VERTEX
  8
0
  6
CONTINUOUS
 10
5.629360
 20
4.420240
  0
VERTEX
  8
0
  6
CONTINUOUS
 10
5.511440
 20
4.373600
  0
VERTEX
  8
0
  6
CONTINUOUS
 10
4.858040
 20
4.760360
  0
VERTEX
  8
0
  6
CONTINUOUS
 10
4.975960
 20
4.807000
  0
SEQEND
  8
0
  0
POLYLINE
  8
0
  6
CONTINUOUS
 66
     1
 40
0.000000
 41
0.000000
  0
VERTEX
  8
0
  6
CONTINUOUS
 10
4.381080
 20
5.056920
  0
VERTEX
  8
0
  6
CONTINUOUS
 10
5.033600
 20
5.107520
  0
VERTEX
  8
0
  6
CONTINUOUS
 10
5.045040
 20
4.999720
  0
VERTEX
  8
0
  6
CONTINUOUS
 10
5.205200
 20
4.999720
  0
VERTEX
  8
0
  6
CONTINUOUS
 10
5.204760
 20
4.832520
  0
VERTEX
  8
0
  6
CONTINUOUS
 10
5.093440
 20
4.831640
  0
VERTEX
  8
0
  6
CONTINUOUS
 10
4.975960
 20
4.807000
  0
VERTEX
  8
0
  6
CONTINUOUS
 10
4.858040
 20
4.760360
  0
VERTEX
  8
0
  6
CONTINUOUS
 10
4.744960
 20
4.693040
  0
VERTEX
  8
0
  6
CONTINUOUS
 10
4.641560
 20
4.607240
  0
VERTEX
  8
0
  6
CONTINUOUS
 10
4.553560
 20
4.504280
  0
VERTEX
  8
0
  6
CONTINUOUS
 10
4.486240
 20
4.385480
  0
VERTEX
  8
0
  6
CONTINUOUS
 10
4.444880
 20
4.253480
  0
VERTEX
  8
0
  6
CONTINUOUS
 10
4.407480
 20
4.127640
  0
VERTEX
  8
0
  6
CONTINUOUS
 10
4.352480
 20
4.026440
  0
VERTEX
  8
0
  6
CONTINUOUS
 10
4.285600
 20
3.947680
  0
VERTEX
  8
0
  6
CONTINUOUS
 10
4.213440
 20
3.888720
  0
VERTEX
  8
0
  6
CONTINUOUS
 10
4.141280
 20
3.847360
  0
VERTEX
  8
0
  6
CONTINUOUS
 10
4.075720
 20
3.821840
  0
VERTEX
  8
0
  6
CONTINUOUS
 10
4.022480
 20
3.810400
  0
VERTEX
  8
0
  6
CONTINUOUS
 10
3.987280
 20
3.809960
  0
VERTEX
  8
0
  6
CONTINUOUS
 10
3.987280
 20
3.648920
  0
VERTEX
  8
0
  6
CONTINUOUS
 10
3.932280
 20
3.643640
  0
VERTEX
  8
0
  6
CONTINUOUS
 10
3.886520
 20
3.636600
  0
VERTEX
  8
0
  6
CONTINUOUS
 10
3.848680
 20
3.625600
  0
VERTEX
  8
0
  6
CONTINUOUS
 10
3.818320
 20
3.609760
  0
VERTEX
  8
0
  6
CONTINUOUS
 10
3.794120
 20
3.587760
  0
VERTEX
  8
0
  6
CONTINUOUS
 10
3.775200
 20
3.557840
  0
VERTEX
  8
0
  6
CONTINUOUS
 10
3.760240
 20
3.519560
  0
VERTEX
  8
0
  6
CONTINUOUS
 10
3.748800
 20
3.470720
  0
VERTEX
  8
0
  6
CONTINUOUS
 10
3.736920
 20
3.422760
  0
VERTEX
  8
0
  6
CONTINUOUS
 10
3.723280
 20
3.386240
  0
VERTEX
  8
0
  6
CONTINUOUS
 10
3.689840
 20
3.342240
  0
VERTEX
  8
0
  6
CONTINUOUS
 10
3.650240
 20
3.324200
  0
VERTEX
  8
0
  6
CONTINUOUS
 10
3.629120
 20
3.320680
  0
VERTEX
  8
0
  6
CONTINUOUS
 10
3.618120
 20
3.319360
  0
VERTEX
  8
0
  6
CONTINUOUS
 10
3.607120
 20
3.318040
  0
VERTEX
  8
0
  6
CONTINUOUS
 10
3.607120
 20
3.197920
  0
VERTEX
  8
0
  6
CONTINUOUS
 10
3.358960
 20
3.197480
  0
VERTEX
  8
0
  6
CONTINUOUS
 10
3.457520
 20
4.103880
  0
VERTEX
  8
0
  6
CONTINUOUS
 10
4.337960
 20
5.012480
  0
VERTEX
  8
0
  6
CONTINUOUS
 10
4.381080
 20
5.056920
  0
SEQEND
  8
0
  0
TEXT
  8
0
 10
4.765200
 20
3.030720
 40
0.138159
  1
BA  1224
 41
1.000000
  7
SN0
 71
     0
 72
     5
 11
5.448118
 21
3.030720
  0
TEXT
  8
0
 10
4.765200
 20
2.838880
 40
0.138159
  1
3/4" x 2-9/16"
 41
1.000000
  7
SN0
 71
     0
 72
     5
 11
5.758687
 21
2.838880
  0
TEXT
  8
0
 10
3.947240
 20
5.885000
 40
0.138159
  1
BA  1224
 41
1.000000
  7
SN0
 71
     0
 72
     5
 11
4.630158
 21
5.885000
  0
TEXT
  8
0
 10
3.947240
 20
5.693160
 40
0.138159
  1
3/4" x 2-9/16"
 41
1.000000
  7
SN0
 71
     0
 72
     5
 11
4.940727
 21
5.693160
  0
ENDSEC
  0
EOF
