  0
SECTION
  2
HEADER
  9
$ACADVER
  1
AC1006
  9
$EXTMIN
 10
0.824120
 20
0.194480
  9
$EXTMAX
 10
7.968400
 20
10.325040
  9
$LTSCALE
 40
0.044000
  9
$PDMODE
 70
    35
  9
$PDSIZE
 40
0.035200
  0
ENDSEC
  0
SECTION
  2
TABLES
  0
TABLE
  2
LTYPE
 70
     9
  0
LTYPE
  2
CONTINUOUS
 70
    64
  3
Solid line
 72
    65
 73
     0
 40
0.000000
  0
LTYPE
  2
DASHED
 70
    64
  3
__ __ __ __ __ __ __ __ __ __ __ __ __ __ __
 72
    65
 73
     2
 40
0.000330
 49
0.000220
 49
-0.000110
  0
LTYPE
  2
HIDDEN
 70
    64
  3
 _ _ _ _ _ _ _ _ _ _ _ _ _ _ _ _ _ _ _ _ _ _
 72
    65
 73
     2
 40
0.000165
 49
0.000110
 49
-0.000055
  0
LTYPE
  2
CENTER
 70
    64
  3
____ _ ____ _ ____ _ ____ _ ____ _ ____ _ ____
 72
    65
 73
     4
 40
0.000880
 49
0.000550
 49
-0.000110
 49
0.000110
 49
-0.000110
  0
LTYPE
  2
PHANTOM
 70
    64
  3
_____ _ _ _____ _ _ _____ _ _ _____ _ _ ____
 72
    65
 73
     6
 40
0.001100
 49
0.000550
 49
-0.000110
 49
0.000110
 49
-0.000110
 49
0.000110
 49
-0.000110
  0
LTYPE
  2
DOT
 70
    64
  3
...............................................
 72
    65
 73
     2
 40
0.000110
 49
0.000000
 49
-0.000110
  0
LTYPE
  2
DASHDOT
 70
    64
  3
__ . __ . __ . __ . __ . __ . __ . __ . __ . __
 72
    65
 73
     4
 40
0.000440
 49
0.000220
 49
-0.000110
 49
0.000000
 49
-0.000110
  0
LTYPE
  2
BORDER
 70
    64
  3
__ __ . __ __ . __ __ . __ __ . __ __ . __ __
 72
    65
 73
     6
 40
0.000770
 49
0.000220
 49
-0.000110
 49
0.000220
 49
-0.000110
 49
0.000000
 49
-0.000110
  0
LTYPE
  2
DIVIDE
 70
    64
  3
__ . . __ . . __ . . __ . . __ . . __ . . __
 72
    65
 73
     6
 40
0.000550
 49
0.000220
 49
-0.000110
 49
0.000000
 49
-0.000110
 49
0.000000
 49
-0.000110
  0
LTYPE
  2
DOTDOT
 70
    64
  3
 . .  . .  . .  . .  . .  . . 
 72
    65
 73
     5
 40
0.000242
 49
-0.000110
 49
0.000000
 49
-0.000110
 49
0.000000
 49
-0.000110
  0
ENDTAB
  0
TABLE
  2
STYLE
 70
     2
  0
STYLE
 70
     0
  2
SN0
 40
0.000000
 41
0.000440
 50
0.000000
 71
     0
 42
0.000000
  3
ROMAND
  0
STYLE
 70
    68
  2
SV0
 40
0.000000
 41
0.000440
 50
0.000000
 71
     0
 42
0.000000
  3
ROMAND
  0
ENDTAB
  0
TABLE
  2
LAYER
 70
     3
  0
LAYER
  2
FOREGROUND
 70
    64
 62
     7
  6
CONTINUOUS
  0
LAYER
  2
BACKGROUND
 70
    65
 62
    -7
  6
CONTINUOUS
  0
LAYER
  2
0
 70
    64
 62
     7
  6
CONTINUOUS
  0
ENDTAB
  0
ENDSEC
  0
SECTION
  2
ENTITIES
  0
POLYLINE
  8
FOREGROUND
  6
CONTINUOUS
 66
     1
 40
0.000000
 41
0.000000
  0
VERTEX
  8
FOREGROUND
  6
CONTINUOUS
 10
0.000000
 20
10.519520
  0
VERTEX
  8
FOREGROUND
  6
CONTINUOUS
 10
8.499920
 20
10.519520
  0
VERTEX
  8
FOREGROUND
  6
CONTINUOUS
 10
8.499920
 20
-0.480480
  0
VERTEX
  8
FOREGROUND
  6
CONTINUOUS
 10
0.000000
 20
-0.480480
  0
VERTEX
  8
FOREGROUND
  6
CONTINUOUS
 10
0.000000
 20
10.519520
  0
SEQEND
  8
0
  0
POLYLINE
  8
FOREGROUND
  6
CONTINUOUS
 66
     1
 40
0.000000
 41
0.000000
  0
VERTEX
  8
FOREGROUND
  6
CONTINUOUS
 10
0.000000
 20
10.519520
  0
VERTEX
  8
FOREGROUND
  6
CONTINUOUS
 10
8.499920
 20
10.519520
  0
VERTEX
  8
FOREGROUND
  6
CONTINUOUS
 10
8.499920
 20
-0.480480
  0
VERTEX
  8
FOREGROUND
  6
CONTINUOUS
 10
0.000000
 20
-0.480480
  0
VERTEX
  8
FOREGROUND
  6
CONTINUOUS
 10
0.000000
 20
10.519520
  0
SEQEND
  8
0
  0
POLYLINE
  8
0
  6
CONTINUOUS
 66
     1
 40
0.014080
 41
0.014080
  0
VERTEX
  8
0
  6
CONTINUOUS
 10
1.795200
 20
7.200160
  0
VERTEX
  8
0
  6
CONTINUOUS
 10
1.769680
 20
7.202800
  0
VERTEX
  8
0
  6
CONTINUOUS
 10
1.747240
 20
7.210280
  0
VERTEX
  8
0
  6
CONTINUOUS
 10
1.728760
 20
7.221720
  0
VERTEX
  8
0
  6
CONTINUOUS
 10
1.713360
 20
7.236680
  0
VERTEX
  8
0
  6
CONTINUOUS
 10
1.701480
 20
7.254280
  0
VERTEX
  8
0
  6
CONTINUOUS
 10
1.692680
 20
7.274080
  0
VERTEX
  8
0
  6
CONTINUOUS
 10
1.687840
 20
7.295200
  0
VERTEX
  8
0
  6
CONTINUOUS
 10
1.686080
 20
7.316760
  0
VERTEX
  8
0
  6
CONTINUOUS
 10
1.687840
 20
7.338760
  0
VERTEX
  8
0
  6
CONTINUOUS
 10
1.692680
 20
7.359880
  0
VERTEX
  8
0
  6
CONTINUOUS
 10
1.706760
 20
7.388920
  0
VERTEX
  8
0
  6
CONTINUOUS
 10
1.720400
 20
7.405200
  0
VERTEX
  8
0
  6
CONTINUOUS
 10
1.737560
 20
7.418400
  0
VERTEX
  8
0
  6
CONTINUOUS
 10
1.758240
 20
7.428080
  0
VERTEX
  8
0
  6
CONTINUOUS
 10
1.782000
 20
7.432920
  0
VERTEX
  8
0
  6
CONTINUOUS
 10
1.795200
 20
7.433800
  0
VERTEX
  8
0
  6
CONTINUOUS
 10
1.795200
 20
7.457120
  0
VERTEX
  8
0
  6
CONTINUOUS
 10
1.770120
 20
7.466800
  0
VERTEX
  8
0
  6
CONTINUOUS
 10
1.759120
 20
7.472960
  0
VERTEX
  8
0
  6
CONTINUOUS
 10
1.741520
 20
7.488800
  0
VERTEX
  8
0
  6
CONTINUOUS
 10
1.727880
 20
7.508600
  0
VERTEX
  8
0
  6
CONTINUOUS
 10
1.718200
 20
7.532360
  0
VERTEX
  8
0
  6
CONTINUOUS
 10
1.712040
 20
7.560520
  0
VERTEX
  8
0
  6
CONTINUOUS
 10
1.708080
 20
7.592200
  0
VERTEX
  8
0
  6
CONTINUOUS
 10
1.706320
 20
7.647200
  0
VERTEX
  8
0
  6
CONTINUOUS
 10
1.706320
 20
8.087640
  0
VERTEX
  8
0
  6
CONTINUOUS
 10
1.605560
 20
8.087640
  0
VERTEX
  8
0
  6
CONTINUOUS
 10
1.606000
 20
8.242960
  0
VERTEX
  8
0
  6
CONTINUOUS
 10
1.628000
 20
8.269800
  0
VERTEX
  8
0
  6
CONTINUOUS
 10
1.644720
 20
8.301040
  0
VERTEX
  8
0
  6
CONTINUOUS
 10
1.653960
 20
8.323920
  0
VERTEX
  8
0
  6
CONTINUOUS
 10
1.666720
 20
8.372760
  0
VERTEX
  8
0
  6
CONTINUOUS
 10
1.674200
 20
8.424680
  0
VERTEX
  8
0
  6
CONTINUOUS
 10
1.677720
 20
8.476600
  0
VERTEX
  8
0
  6
CONTINUOUS
 10
1.678600
 20
8.550520
  0
VERTEX
  8
0
  6
CONTINUOUS
 10
1.677720
 20
8.612120
  0
VERTEX
  8
0
  6
CONTINUOUS
 10
1.603360
 20
8.612120
  0
VERTEX
  8
0
  6
CONTINUOUS
 10
1.602920
 20
8.629280
  0
VERTEX
  8
0
  6
CONTINUOUS
 10
1.597640
 20
8.664480
  0
VERTEX
  8
0
  6
CONTINUOUS
 10
1.587520
 20
8.700120
  0
VERTEX
  8
0
  6
CONTINUOUS
 10
1.580480
 20
8.717720
  0
VERTEX
  8
0
  6
CONTINUOUS
 10
1.562000
 20
8.750280
  0
VERTEX
  8
0
  6
CONTINUOUS
 10
1.538680
 20
8.778880
  0
VERTEX
  8
0
  6
CONTINUOUS
 10
1.525040
 20
8.791200
  0
VERTEX
  8
0
  6
CONTINUOUS
 10
1.502160
 20
8.806160
  0
VERTEX
  8
0
  6
CONTINUOUS
 10
1.475760
 20
8.816720
  0
VERTEX
  8
0
  6
CONTINUOUS
 10
1.456840
 20
8.820680
  0
VERTEX
  8
0
  6
CONTINUOUS
 10
1.436160
 20
8.822000
  0
VERTEX
  8
0
  6
CONTINUOUS
 10
1.436160
 20
8.921440
  0
VERTEX
  8
0
  6
CONTINUOUS
 10
1.361800
 20
8.979520
  0
VERTEX
  8
0
  6
CONTINUOUS
 10
1.321760
 20
9.017800
  0
VERTEX
  8
0
  6
CONTINUOUS
 10
1.296240
 20
9.049920
  0
VERTEX
  8
0
  6
CONTINUOUS
 10
1.283920
 20
9.072800
  0
VERTEX
  8
0
  6
CONTINUOUS
 10
1.276440
 20
9.094360
  0
VERTEX
  8
0
  6
CONTINUOUS
 10
1.263240
 20
9.160800
  0
VERTEX
  8
0
  6
CONTINUOUS
 10
1.252680
 20
9.254520
  0
VERTEX
  8
0
  6
CONTINUOUS
 10
1.244320
 20
9.300720
  0
VERTEX
  8
0
  6
CONTINUOUS
 10
1.231560
 20
9.344280
  0
VERTEX
  8
0
  6
CONTINUOUS
 10
1.217920
 20
9.372000
  0
VERTEX
  8
0
  6
CONTINUOUS
 10
1.199880
 20
9.394440
  0
VERTEX
  8
0
  6
CONTINUOUS
 10
1.184920
 20
9.405000
  0
VERTEX
  8
0
  6
CONTINUOUS
 10
1.167760
 20
9.411600
  0
VERTEX
  8
0
  6
CONTINUOUS
 10
1.158080
 20
9.413800
  0
VERTEX
  8
0
  6
CONTINUOUS
 10
1.147960
 20
9.414240
  0
VERTEX
  8
0
  6
CONTINUOUS
 10
1.147960
 20
9.989320
  0
VERTEX
  8
0
  6
CONTINUOUS
 10
2.096160
 20
10.072040
  0
VERTEX
  8
0
  6
CONTINUOUS
 10
2.108920
 20
10.079520
  0
VERTEX
  8
0
  6
CONTINUOUS
 10
2.128280
 20
10.105920
  0
VERTEX
  8
0
  6
CONTINUOUS
 10
2.154240
 20
10.150800
  0
VERTEX
  8
0
  6
CONTINUOUS
 10
2.177560
 20
10.182920
  0
VERTEX
  8
0
  6
CONTINUOUS
 10
2.199560
 20
10.205800
  0
VERTEX
  8
0
  6
CONTINUOUS
 10
2.226400
 20
10.225600
  0
VERTEX
  8
0
  6
CONTINUOUS
 10
2.247960
 20
10.236600
  0
VERTEX
  8
0
  6
CONTINUOUS
 10
2.272600
 20
10.244960
  0
VERTEX
  8
0
  6
CONTINUOUS
 10
2.300760
 20
10.250240
  0
VERTEX
  8
0
  6
CONTINUOUS
 10
2.332440
 20
10.252000
  0
VERTEX
  8
0
  6
CONTINUOUS
 10
2.332440
 20
10.324600
  0
VERTEX
  8
0
  6
CONTINUOUS
 10
6.460520
 20
10.324600
  0
VERTEX
  8
0
  6
CONTINUOUS
 10
6.460520
 20
10.252000
  0
VERTEX
  8
0
  6
CONTINUOUS
 10
6.492200
 20
10.250240
  0
VERTEX
  8
0
  6
CONTINUOUS
 10
6.520360
 20
10.244960
  0
VERTEX
  8
0
  6
CONTINUOUS
 10
6.545000
 20
10.236600
  0
VERTEX
  8
0
  6
CONTINUOUS
 10
6.576240
 20
10.219440
  0
VERTEX
  8
0
  6
CONTINUOUS
 10
6.601320
 20
10.198320
  0
VERTEX
  8
0
  6
CONTINUOUS
 10
6.627720
 20
10.167080
  0
VERTEX
  8
0
  6
CONTINUOUS
 10
6.672600
 20
10.093600
  0
VERTEX
  8
0
  6
CONTINUOUS
 10
6.684040
 20
10.079520
  0
VERTEX
  8
0
  6
CONTINUOUS
 10
6.696800
 20
10.072040
  0
VERTEX
  8
0
  6
CONTINUOUS
 10
7.645000
 20
9.989320
  0
VERTEX
  8
0
  6
CONTINUOUS
 10
7.645000
 20
9.414240
  0
VERTEX
  8
0
  6
CONTINUOUS
 10
7.634880
 20
9.413800
  0
VERTEX
  8
0
  6
CONTINUOUS
 10
7.616400
 20
9.408960
  0
VERTEX
  8
0
  6
CONTINUOUS
 10
7.600120
 20
9.400160
  0
VERTEX
  8
0
  6
CONTINUOUS
 10
7.593080
 20
9.394440
  0
VERTEX
  8
0
  6
CONTINUOUS
 10
7.575040
 20
9.372000
  0
VERTEX
  8
0
  6
CONTINUOUS
 10
7.561400
 20
9.344280
  0
VERTEX
  8
0
  6
CONTINUOUS
 10
7.548640
 20
9.300720
  0
VERTEX
  8
0
  6
CONTINUOUS
 10
7.540280
 20
9.254520
  0
VERTEX
  8
0
  6
CONTINUOUS
 10
7.527520
 20
9.145840
  0
VERTEX
  8
0
  6
CONTINUOUS
 10
7.516520
 20
9.094360
  0
VERTEX
  8
0
  6
CONTINUOUS
 10
7.509040
 20
9.072800
  0
VERTEX
  8
0
  6
CONTINUOUS
 10
7.496720
 20
9.049920
  0
VERTEX
  8
0
  6
CONTINUOUS
 10
7.471200
 20
9.017800
  0
VERTEX
  8
0
  6
CONTINUOUS
 10
7.430720
 20
8.979520
  0
VERTEX
  8
0
  6
CONTINUOUS
 10
7.370880
 20
8.932000
  0
VERTEX
  8
0
  6
CONTINUOUS
 10
7.356360
 20
8.921440
  0
VERTEX
  8
0
  6
CONTINUOUS
 10
7.356800
 20
8.822000
  0
VERTEX
  8
0
  6
CONTINUOUS
 10
7.336120
 20
8.820680
  0
VERTEX
  8
0
  6
CONTINUOUS
 10
7.307960
 20
8.813640
  0
VERTEX
  8
0
  6
CONTINUOUS
 10
7.282880
 20
8.801760
  0
VERTEX
  8
0
  6
CONTINUOUS
 10
7.267920
 20
8.791200
  0
VERTEX
  8
0
  6
CONTINUOUS
 10
7.241960
 20
8.765240
  0
VERTEX
  8
0
  6
CONTINUOUS
 10
7.221280
 20
8.734440
  0
VERTEX
  8
0
  6
CONTINUOUS
 10
7.212480
 20
8.717720
  0
VERTEX
  8
0
  6
CONTINUOUS
 10
7.199720
 20
8.682520
  0
VERTEX
  8
0
  6
CONTINUOUS
 10
7.192240
 20
8.646440
  0
VERTEX
  8
0
  6
CONTINUOUS
 10
7.190040
 20
8.629280
  0
VERTEX
  8
0
  6
CONTINUOUS
 10
7.189600
 20
8.612120
  0
VERTEX
  8
0
  6
CONTINUOUS
 10
7.115240
 20
8.612120
  0
VERTEX
  8
0
  6
CONTINUOUS
 10
7.114360
 20
8.502120
  0
VERTEX
  8
0
  6
CONTINUOUS
 10
7.116560
 20
8.450640
  0
VERTEX
  8
0
  6
CONTINUOUS
 10
7.121840
 20
8.398720
  0
VERTEX
  8
0
  6
CONTINUOUS
 10
7.131960
 20
8.348120
  0
VERTEX
  8
0
  6
CONTINUOUS
 10
7.139000
 20
8.323920
  0
VERTEX
  8
0
  6
CONTINUOUS
 10
7.148240
 20
8.301040
  0
VERTEX
  8
0
  6
CONTINUOUS
 10
7.164960
 20
8.269800
  0
VERTEX
  8
0
  6
CONTINUOUS
 10
7.186960
 20
8.242960
  0
VERTEX
  8
0
  6
CONTINUOUS
 10
7.187400
 20
8.087640
  0
VERTEX
  8
0
  6
CONTINUOUS
 10
7.086640
 20
8.087640
  0
VERTEX
  8
0
  6
CONTINUOUS
 10
7.086640
 20
7.627840
  0
VERTEX
  8
0
  6
CONTINUOUS
 10
7.083120
 20
7.575920
  0
VERTEX
  8
0
  6
CONTINUOUS
 10
7.078280
 20
7.546000
  0
VERTEX
  8
0
  6
CONTINUOUS
 10
7.070360
 20
7.520040
  0
VERTEX
  8
0
  6
CONTINUOUS
 10
7.058920
 20
7.498480
  0
VERTEX
  8
0
  6
CONTINUOUS
 10
7.043080
 20
7.480440
  0
VERTEX
  8
0
  6
CONTINUOUS
 10
7.033840
 20
7.472960
  0
VERTEX
  8
0
  6
CONTINUOUS
 10
7.010960
 20
7.461520
  0
VERTEX
  8
0
  6
CONTINUOUS
 10
6.997760
 20
7.457120
  0
VERTEX
  8
0
  6
CONTINUOUS
 10
6.997760
 20
7.433800
  0
VERTEX
  8
0
  6
CONTINUOUS
 10
7.023280
 20
7.431160
  0
VERTEX
  8
0
  6
CONTINUOUS
 10
7.045720
 20
7.423680
  0
VERTEX
  8
0
  6
CONTINUOUS
 10
7.064200
 20
7.412240
  0
VERTEX
  8
0
  6
CONTINUOUS
 10
7.079600
 20
7.397280
  0
VERTEX
  8
0
  6
CONTINUOUS
 10
7.091480
 20
7.379680
  0
VERTEX
  8
0
  6
CONTINUOUS
 10
7.100280
 20
7.359880
  0
VERTEX
  8
0
  6
CONTINUOUS
 10
7.105120
 20
7.338760
  0
VERTEX
  8
0
  6
CONTINUOUS
 10
7.106880
 20
7.316760
  0
VERTEX
  8
0
  6
CONTINUOUS
 10
7.103360
 20
7.284640
  0
VERTEX
  8
0
  6
CONTINUOUS
 10
7.096320
 20
7.263960
  0
VERTEX
  8
0
  6
CONTINUOUS
 10
7.086200
 20
7.245040
  0
VERTEX
  8
0
  6
CONTINUOUS
 10
7.072560
 20
7.228760
  0
VERTEX
  8
0
  6
CONTINUOUS
 10
7.055400
 20
7.215560
  0
VERTEX
  8
0
  6
CONTINUOUS
 10
7.034720
 20
7.205880
  0
VERTEX
  8
0
  6
CONTINUOUS
 10
7.010960
 20
7.201040
  0
VERTEX
  8
0
  6
CONTINUOUS
 10
6.997760
 20
7.200160
  0
VERTEX
  8
0
  6
CONTINUOUS
 10
1.795200
 20
7.200160
  0
SEQEND
  8
0
  0
POLYLINE
  8
0
  6
CONTINUOUS
 66
     1
 40
0.000000
 41
0.000000
  0
VERTEX
  8
0
  6
CONTINUOUS
 10
1.795200
 20
0.194480
  0
VERTEX
  8
0
  6
CONTINUOUS
 10
1.769680
 20
0.197120
  0
VERTEX
  8
0
  6
CONTINUOUS
 10
1.747240
 20
0.204600
  0
VERTEX
  8
0
  6
CONTINUOUS
 10
1.728760
 20
0.216040
  0
VERTEX
  8
0
  6
CONTINUOUS
 10
1.713360
 20
0.231000
  0
VERTEX
  8
0
  6
CONTINUOUS
 10
1.701480
 20
0.248600
  0
VERTEX
  8
0
  6
CONTINUOUS
 10
1.692680
 20
0.268400
  0
VERTEX
  8
0
  6
CONTINUOUS
 10
1.687840
 20
0.289520
  0
VERTEX
  8
0
  6
CONTINUOUS
 10
1.686080
 20
0.311520
  0
VERTEX
  8
0
  6
CONTINUOUS
 10
1.687840
 20
0.333080
  0
VERTEX
  8
0
  6
CONTINUOUS
 10
1.692680
 20
0.354200
  0
VERTEX
  8
0
  6
CONTINUOUS
 10
1.706760
 20
0.383240
  0
VERTEX
  8
0
  6
CONTINUOUS
 10
1.720400
 20
0.399520
  0
VERTEX
  8
0
  6
CONTINUOUS
 10
1.737560
 20
0.412720
  0
VERTEX
  8
0
  6
CONTINUOUS
 10
1.758240
 20
0.422400
  0
VERTEX
  8
0
  6
CONTINUOUS
 10
1.782000
 20
0.427680
  0
VERTEX
  8
0
  6
CONTINUOUS
 10
1.795200
 20
0.428120
  0
VERTEX
  8
0
  6
CONTINUOUS
 10
1.795200
 20
0.451880
  0
VERTEX
  8
0
  6
CONTINUOUS
 10
1.770120
 20
0.461560
  0
VERTEX
  8
0
  6
CONTINUOUS
 10
1.759120
 20
0.467720
  0
VERTEX
  8
0
  6
CONTINUOUS
 10
1.741520
 20
0.483560
  0
VERTEX
  8
0
  6
CONTINUOUS
 10
1.727880
 20
0.502920
  0
VERTEX
  8
0
  6
CONTINUOUS
 10
1.718200
 20
0.527120
  0
VERTEX
  8
0
  6
CONTINUOUS
 10
1.712040
 20
0.554840
  0
VERTEX
  8
0
  6
CONTINUOUS
 10
1.708080
 20
0.586520
  0
VERTEX
  8
0
  6
CONTINUOUS
 10
1.706320
 20
0.641520
  0
VERTEX
  8
0
  6
CONTINUOUS
 10
1.706320
 20
1.082400
  0
VERTEX
  8
0
  6
CONTINUOUS
 10
1.605560
 20
1.082400
  0
VERTEX
  8
0
  6
CONTINUOUS
 10
1.606000
 20
1.237280
  0
VERTEX
  8
0
  6
CONTINUOUS
 10
1.628000
 20
1.264120
  0
VERTEX
  8
0
  6
CONTINUOUS
 10
1.644720
 20
1.295360
  0
VERTEX
  8
0
  6
CONTINUOUS
 10
1.653960
 20
1.318240
  0
VERTEX
  8
0
  6
CONTINUOUS
 10
1.666720
 20
1.367080
  0
VERTEX
  8
0
  6
CONTINUOUS
 10
1.674200
 20
1.419000
  0
VERTEX
  8
0
  6
CONTINUOUS
 10
1.677720
 20
1.470920
  0
VERTEX
  8
0
  6
CONTINUOUS
 10
1.678600
 20
1.544840
  0
VERTEX
  8
0
  6
CONTINUOUS
 10
1.677720
 20
1.606880
  0
VERTEX
  8
0
  6
CONTINUOUS
 10
1.603360
 20
1.606880
  0
VERTEX
  8
0
  6
CONTINUOUS
 10
1.602920
 20
1.624040
  0
VERTEX
  8
0
  6
CONTINUOUS
 10
1.597640
 20
1.659240
  0
VERTEX
  8
0
  6
CONTINUOUS
 10
1.587520
 20
1.694880
  0
VERTEX
  8
0
  6
CONTINUOUS
 10
1.580480
 20
1.712480
  0
VERTEX
  8
0
  6
CONTINUOUS
 10
1.562000
 20
1.745040
  0
VERTEX
  8
0
  6
CONTINUOUS
 10
1.538680
 20
1.773640
  0
VERTEX
  8
0
  6
CONTINUOUS
 10
1.525040
 20
1.785960
  0
VERTEX
  8
0
  6
CONTINUOUS
 10
1.502160
 20
1.800920
  0
VERTEX
  8
0
  6
CONTINUOUS
 10
1.475760
 20
1.811480
  0
VERTEX
  8
0
  6
CONTINUOUS
 10
1.456840
 20
1.815440
  0
VERTEX
  8
0
  6
CONTINUOUS
 10
1.436160
 20
1.816760
  0
VERTEX
  8
0
  6
CONTINUOUS
 10
1.436160
 20
1.915760
  0
VERTEX
  8
0
  6
CONTINUOUS
 10
1.361800
 20
1.973840
  0
VERTEX
  8
0
  6
CONTINUOUS
 10
1.321760
 20
2.012120
  0
VERTEX
  8
0
  6
CONTINUOUS
 10
1.296240
 20
2.044680
  0
VERTEX
  8
0
  6
CONTINUOUS
 10
1.283920
 20
2.067560
  0
VERTEX
  8
0
  6
CONTINUOUS
 10
1.276440
 20
2.089120
  0
VERTEX
  8
0
  6
CONTINUOUS
 10
1.263240
 20
2.155560
  0
VERTEX
  8
0
  6
CONTINUOUS
 10
1.252680
 20
2.248840
  0
VERTEX
  8
0
  6
CONTINUOUS
 10
1.244320
 20
2.295040
  0
VERTEX
  8
0
  6
CONTINUOUS
 10
1.231560
 20
2.338600
  0
VERTEX
  8
0
  6
CONTINUOUS
 10
1.217920
 20
2.366760
  0
VERTEX
  8
0
  6
CONTINUOUS
 10
1.199880
 20
2.388760
  0
VERTEX
  8
0
  6
CONTINUOUS
 10
1.184920
 20
2.399760
  0
VERTEX
  8
0
  6
CONTINUOUS
 10
1.167760
 20
2.406360
  0
VERTEX
  8
0
  6
CONTINUOUS
 10
1.147960
 20
2.409000
  0
VERTEX
  8
0
  6
CONTINUOUS
 10
1.147960
 20
2.984080
  0
VERTEX
  8
0
  6
CONTINUOUS
 10
2.096160
 20
3.066800
  0
VERTEX
  8
0
  6
CONTINUOUS
 10
2.108920
 20
3.074280
  0
VERTEX
  8
0
  6
CONTINUOUS
 10
2.128280
 20
3.100240
  0
VERTEX
  8
0
  6
CONTINUOUS
 10
2.154240
 20
3.145120
  0
VERTEX
  8
0
  6
CONTINUOUS
 10
2.177560
 20
3.177680
  0
VERTEX
  8
0
  6
CONTINUOUS
 10
2.199560
 20
3.200120
  0
VERTEX
  8
0
  6
CONTINUOUS
 10
2.226400
 20
3.219920
  0
VERTEX
  8
0
  6
CONTINUOUS
 10
2.247960
 20
3.230920
  0
VERTEX
  8
0
  6
CONTINUOUS
 10
2.272600
 20
3.239280
  0
VERTEX
  8
0
  6
CONTINUOUS
 10
2.300760
 20
3.244560
  0
VERTEX
  8
0
  6
CONTINUOUS
 10
2.332440
 20
3.246320
  0
VERTEX
  8
0
  6
CONTINUOUS
 10
2.332440
 20
3.318920
  0
VERTEX
  8
0
  6
CONTINUOUS
 10
6.460520
 20
3.318920
  0
VERTEX
  8
0
  6
CONTINUOUS
 10
6.460520
 20
3.246320
  0
VERTEX
  8
0
  6
CONTINUOUS
 10
6.492200
 20
3.244560
  0
VERTEX
  8
0
  6
CONTINUOUS
 10
6.520360
 20
3.239280
  0
VERTEX
  8
0
  6
CONTINUOUS
 10
6.545000
 20
3.230920
  0
VERTEX
  8
0
  6
CONTINUOUS
 10
6.576240
 20
3.213760
  0
VERTEX
  8
0
  6
CONTINUOUS
 10
6.601320
 20
3.193080
  0
VERTEX
  8
0
  6
CONTINUOUS
 10
6.615400
 20
3.177680
  0
VERTEX
  8
0
  6
CONTINUOUS
 10
6.638720
 20
3.145120
  0
VERTEX
  8
0
  6
CONTINUOUS
 10
6.672600
 20
3.088360
  0
VERTEX
  8
0
  6
CONTINUOUS
 10
6.684040
 20
3.074280
  0
VERTEX
  8
0
  6
CONTINUOUS
 10
6.696800
 20
3.066800
  0
VERTEX
  8
0
  6
CONTINUOUS
 10
7.645000
 20
2.984080
  0
VERTEX
  8
0
  6
CONTINUOUS
 10
7.645000
 20
2.409000
  0
VERTEX
  8
0
  6
CONTINUOUS
 10
7.625200
 20
2.406360
  0
VERTEX
  8
0
  6
CONTINUOUS
 10
7.608040
 20
2.399760
  0
VERTEX
  8
0
  6
CONTINUOUS
 10
7.593080
 20
2.388760
  0
VERTEX
  8
0
  6
CONTINUOUS
 10
7.575040
 20
2.366760
  0
VERTEX
  8
0
  6
CONTINUOUS
 10
7.561400
 20
2.338600
  0
VERTEX
  8
0
  6
CONTINUOUS
 10
7.548640
 20
2.295040
  0
VERTEX
  8
0
  6
CONTINUOUS
 10
7.540280
 20
2.248840
  0
VERTEX
  8
0
  6
CONTINUOUS
 10
7.527520
 20
2.140600
  0
VERTEX
  8
0
  6
CONTINUOUS
 10
7.516520
 20
2.089120
  0
VERTEX
  8
0
  6
CONTINUOUS
 10
7.509040
 20
2.067560
  0
VERTEX
  8
0
  6
CONTINUOUS
 10
7.496720
 20
2.044680
  0
VERTEX
  8
0
  6
CONTINUOUS
 10
7.471200
 20
2.012120
  0
VERTEX
  8
0
  6
CONTINUOUS
 10
7.430720
 20
1.973840
  0
VERTEX
  8
0
  6
CONTINUOUS
 10
7.370880
 20
1.926320
  0
VERTEX
  8
0
  6
CONTINUOUS
 10
7.356360
 20
1.915760
  0
VERTEX
  8
0
  6
CONTINUOUS
 10
7.356800
 20
1.816760
  0
VERTEX
  8
0
  6
CONTINUOUS
 10
7.336120
 20
1.815440
  0
VERTEX
  8
0
  6
CONTINUOUS
 10
7.307960
 20
1.808400
  0
VERTEX
  8
0
  6
CONTINUOUS
 10
7.282880
 20
1.796520
  0
VERTEX
  8
0
  6
CONTINUOUS
 10
7.267920
 20
1.785960
  0
VERTEX
  8
0
  6
CONTINUOUS
 10
7.241960
 20
1.760000
  0
VERTEX
  8
0
  6
CONTINUOUS
 10
7.221280
 20
1.729200
  0
VERTEX
  8
0
  6
CONTINUOUS
 10
7.212480
 20
1.712480
  0
VERTEX
  8
0
  6
CONTINUOUS
 10
7.199720
 20
1.677280
  0
VERTEX
  8
0
  6
CONTINUOUS
 10
7.192240
 20
1.641200
  0
VERTEX
  8
0
  6
CONTINUOUS
 10
7.190040
 20
1.624040
  0
VERTEX
  8
0
  6
CONTINUOUS
 10
7.189600
 20
1.606880
  0
VERTEX
  8
0
  6
CONTINUOUS
 10
7.115240
 20
1.606880
  0
VERTEX
  8
0
  6
CONTINUOUS
 10
7.114360
 20
1.496440
  0
VERTEX
  8
0
  6
CONTINUOUS
 10
7.116560
 20
1.444960
  0
VERTEX
  8
0
  6
CONTINUOUS
 10
7.121840
 20
1.393040
  0
VERTEX
  8
0
  6
CONTINUOUS
 10
7.131960
 20
1.342440
  0
VERTEX
  8
0
  6
CONTINUOUS
 10
7.139000
 20
1.318240
  0
VERTEX
  8
0
  6
CONTINUOUS
 10
7.148240
 20
1.295360
  0
VERTEX
  8
0
  6
CONTINUOUS
 10
7.164960
 20
1.264120
  0
VERTEX
  8
0
  6
CONTINUOUS
 10
7.186960
 20
1.237280
  0
VERTEX
  8
0
  6
CONTINUOUS
 10
7.187400
 20
1.082400
  0
VERTEX
  8
0
  6
CONTINUOUS
 10
7.086640
 20
1.082400
  0
VERTEX
  8
0
  6
CONTINUOUS
 10
7.086640
 20
0.622160
  0
VERTEX
  8
0
  6
CONTINUOUS
 10
7.083120
 20
0.570240
  0
VERTEX
  8
0
  6
CONTINUOUS
 10
7.078280
 20
0.540320
  0
VERTEX
  8
0
  6
CONTINUOUS
 10
7.070360
 20
0.514360
  0
VERTEX
  8
0
  6
CONTINUOUS
 10
7.058920
 20
0.492800
  0
VERTEX
  8
0
  6
CONTINUOUS
 10
7.043080
 20
0.475200
  0
VERTEX
  8
0
  6
CONTINUOUS
 10
7.033840
 20
0.467720
  0
VERTEX
  8
0
  6
CONTINUOUS
 10
7.010960
 20
0.456280
  0
VERTEX
  8
0
  6
CONTINUOUS
 10
6.997760
 20
0.451880
  0
VERTEX
  8
0
  6
CONTINUOUS
 10
6.997760
 20
0.428120
  0
VERTEX
  8
0
  6
CONTINUOUS
 10
7.010960
 20
0.427680
  0
VERTEX
  8
0
  6
CONTINUOUS
 10
7.034720
 20
0.422400
  0
VERTEX
  8
0
  6
CONTINUOUS
 10
7.055400
 20
0.412720
  0
VERTEX
  8
0
  6
CONTINUOUS
 10
7.072560
 20
0.399520
  0
VERTEX
  8
0
  6
CONTINUOUS
 10
7.086200
 20
0.383240
  0
VERTEX
  8
0
  6
CONTINUOUS
 10
7.100280
 20
0.354200
  0
VERTEX
  8
0
  6
CONTINUOUS
 10
7.105120
 20
0.333080
  0
VERTEX
  8
0
  6
CONTINUOUS
 10
7.106880
 20
0.311520
  0
VERTEX
  8
0
  6
CONTINUOUS
 10
7.105120
 20
0.289520
  0
VERTEX
  8
0
  6
CONTINUOUS
 10
7.100280
 20
0.268400
  0
VERTEX
  8
0
  6
CONTINUOUS
 10
7.091480
 20
0.248600
  0
VERTEX
  8
0
  6
CONTINUOUS
 10
7.079600
 20
0.231000
  0
VERTEX
  8
0
  6
CONTINUOUS
 10
7.064200
 20
0.216040
  0
VERTEX
  8
0
  6
CONTINUOUS
 10
7.045720
 20
0.204600
  0
VERTEX
  8
0
  6
CONTINUOUS
 10
7.023280
 20
0.197120
  0
VERTEX
  8
0
  6
CONTINUOUS
 10
6.997760
 20
0.194480
  0
VERTEX
  8
0
  6
CONTINUOUS
 10
1.795200
 20
0.194480
  0
SEQEND
  8
0
  0
SOLID
  8
0
 62
    15
 10
6.959920
 20
5.209160
 11
7.605840
 21
5.580080
 12
6.908000
 22
5.158120
 13
7.553920
 23
5.528600
  0
POLYLINE
  8
0
  6
CONTINUOUS
 66
     1
 40
0.000000
 41
0.000000
  0
VERTEX
  8
0
  6
CONTINUOUS
 10
6.959920
 20
5.209160
  0
VERTEX
  8
0
  6
CONTINUOUS
 10
7.605840
 20
5.580080
  0
VERTEX
  8
0
  6
CONTINUOUS
 10
7.553920
 20
5.528600
  0
VERTEX
  8
0
  6
CONTINUOUS
 10
6.908000
 20
5.158120
  0
VERTEX
  8
0
  6
CONTINUOUS
 10
6.959920
 20
5.209160
  0
SEQEND
  8
0
  0
SOLID
  8
0
 62
    15
 10
0.825000
 20
6.397160
 11
1.470920
 21
6.767640
 12
1.773200
 22
6.479880
 13
2.419120
 23
6.850360
  0
POLYLINE
  8
0
  6
CONTINUOUS
 66
     1
 40
0.000000
 41
0.000000
  0
VERTEX
  8
0
  6
CONTINUOUS
 10
0.825000
 20
6.397160
  0
VERTEX
  8
0
  6
CONTINUOUS
 10
1.470920
 20
6.767640
  0
VERTEX
  8
0
  6
CONTINUOUS
 10
2.419120
 20
6.850360
  0
VERTEX
  8
0
  6
CONTINUOUS
 10
1.773200
 20
6.479880
  0
VERTEX
  8
0
  6
CONTINUOUS
 10
0.825000
 20
6.397160
  0
SEQEND
  8
0
  0
SOLID
  8
0
 62
    15
 10
1.903440
 20
6.633000
 11
2.549360
 21
7.003920
 12
1.949640
 22
6.652360
 13
2.595560
 23
7.022840
  0
POLYLINE
  8
0
  6
CONTINUOUS
 66
     1
 40
0.000000
 41
0.000000
  0
VERTEX
  8
0
  6
CONTINUOUS
 10
1.903440
 20
6.633000
  0
VERTEX
  8
0
  6
CONTINUOUS
 10
2.549360
 20
7.003920
  0
VERTEX
  8
0
  6
CONTINUOUS
 10
2.595560
 20
7.022840
  0
VERTEX
  8
0
  6
CONTINUOUS
 10
1.949640
 20
6.652360
  0
VERTEX
  8
0
  6
CONTINUOUS
 10
1.903440
 20
6.633000
  0
SEQEND
  8
0
  0
SOLID
  8
0
 62
    15
 10
1.949640
 20
6.652360
 11
2.595560
 21
7.022840
 12
2.009480
 22
6.659400
 13
2.655400
 23
7.029880
  0
POLYLINE
  8
0
  6
CONTINUOUS
 66
     1
 40
0.000000
 41
0.000000
  0
VERTEX
  8
0
  6
CONTINUOUS
 10
1.949640
 20
6.652360
  0
VERTEX
  8
0
  6
CONTINUOUS
 10
2.595560
 20
7.022840
  0
VERTEX
  8
0
  6
CONTINUOUS
 10
2.655400
 20
7.029880
  0
VERTEX
  8
0
  6
CONTINUOUS
 10
2.009480
 20
6.659400
  0
VERTEX
  8
0
  6
CONTINUOUS
 10
1.949640
 20
6.652360
  0
SEQEND
  8
0
  0
SOLID
  8
0
 62
    15
 10
2.009480
 20
6.732000
 11
2.655400
 21
7.102480
 12
6.137560
 22
6.732000
 13
6.783480
 23
7.102480
  0
POLYLINE
  8
0
  6
CONTINUOUS
 66
     1
 40
0.000000
 41
0.000000
  0
VERTEX
  8
0
  6
CONTINUOUS
 10
2.009480
 20
6.732000
  0
VERTEX
  8
0
  6
CONTINUOUS
 10
2.655400
 20
7.102480
  0
VERTEX
  8
0
  6
CONTINUOUS
 10
6.783480
 20
7.102480
  0
VERTEX
  8
0
  6
CONTINUOUS
 10
6.137560
 20
6.732000
  0
VERTEX
  8
0
  6
CONTINUOUS
 10
2.009480
 20
6.732000
  0
SEQEND
  8
0
  0
SOLID
  8
0
 62
    15
 10
6.137560
 20
6.732000
 11
6.783480
 21
7.102480
 12
6.137560
 22
6.659400
 13
6.783480
 23
7.029880
  0
POLYLINE
  8
0
  6
CONTINUOUS
 66
     1
 40
0.000000
 41
0.000000
  0
VERTEX
  8
0
  6
CONTINUOUS
 10
6.137560
 20
6.732000
  0
VERTEX
  8
0
  6
CONTINUOUS
 10
6.783480
 20
7.102480
  0
VERTEX
  8
0
  6
CONTINUOUS
 10
6.783480
 20
7.029880
  0
VERTEX
  8
0
  6
CONTINUOUS
 10
6.137560
 20
6.659400
  0
VERTEX
  8
0
  6
CONTINUOUS
 10
6.137560
 20
6.732000
  0
SEQEND
  8
0
  0
SOLID
  8
0
 62
    15
 10
6.137560
 20
6.659400
 11
6.783480
 21
7.029880
 12
6.197400
 22
6.652360
 13
6.843320
 23
7.022840
  0
POLYLINE
  8
0
  6
CONTINUOUS
 66
     1
 40
0.000000
 41
0.000000
  0
VERTEX
  8
0
  6
CONTINUOUS
 10
6.137560
 20
6.659400
  0
VERTEX
  8
0
  6
CONTINUOUS
 10
6.783480
 20
7.029880
  0
VERTEX
  8
0
  6
CONTINUOUS
 10
6.843320
 20
7.022840
  0
VERTEX
  8
0
  6
CONTINUOUS
 10
6.197400
 20
6.652360
  0
VERTEX
  8
0
  6
CONTINUOUS
 10
6.137560
 20
6.659400
  0
SEQEND
  8
0
  0
SOLID
  8
0
 62
    15
 10
6.197400
 20
6.652360
 11
6.843320
 21
7.022840
 12
6.243600
 22
6.633000
 13
6.889520
 23
7.003920
  0
POLYLINE
  8
0
  6
CONTINUOUS
 66
     1
 40
0.000000
 41
0.000000
  0
VERTEX
  8
0
  6
CONTINUOUS
 10
6.197400
 20
6.652360
  0
VERTEX
  8
0
  6
CONTINUOUS
 10
6.843320
 20
7.022840
  0
VERTEX
  8
0
  6
CONTINUOUS
 10
6.889520
 20
7.003920
  0
VERTEX
  8
0
  6
CONTINUOUS
 10
6.243600
 20
6.633000
  0
VERTEX
  8
0
  6
CONTINUOUS
 10
6.197400
 20
6.652360
  0
SEQEND
  8
0
  0
SOLID
  8
0
 62
    15
 10
6.243600
 20
6.633000
 11
6.889520
 21
7.003920
 12
6.304760
 22
6.574480
 13
6.950680
 23
6.944960
  0
POLYLINE
  8
0
  6
CONTINUOUS
 66
     1
 40
0.000000
 41
0.000000
  0
VERTEX
  8
0
  6
CONTINUOUS
 10
6.243600
 20
6.633000
  0
VERTEX
  8
0
  6
CONTINUOUS
 10
6.889520
 20
7.003920
  0
VERTEX
  8
0
  6
CONTINUOUS
 10
6.950680
 20
6.944960
  0
VERTEX
  8
0
  6
CONTINUOUS
 10
6.304760
 20
6.574480
  0
VERTEX
  8
0
  6
CONTINUOUS
 10
6.243600
 20
6.633000
  0
SEQEND
  8
0
  0
SOLID
  8
0
 62
    15
 10
6.304760
 20
6.574480
 11
6.950680
 21
6.944960
 12
6.341720
 22
6.513320
 13
6.987640
 23
6.883800
  0
POLYLINE
  8
0
  6
CONTINUOUS
 66
     1
 40
0.000000
 41
0.000000
  0
VERTEX
  8
0
  6
CONTINUOUS
 10
6.304760
 20
6.574480
  0
VERTEX
  8
0
  6
CONTINUOUS
 10
6.950680
 20
6.944960
  0
VERTEX
  8
0
  6
CONTINUOUS
 10
6.987640
 20
6.883800
  0
VERTEX
  8
0
  6
CONTINUOUS
 10
6.341720
 20
6.513320
  0
VERTEX
  8
0
  6
CONTINUOUS
 10
6.304760
 20
6.574480
  0
SEQEND
  8
0
  0
SOLID
  8
0
 62
    15
 10
6.341720
 20
6.513320
 11
6.987640
 21
6.883800
 12
6.373840
 22
6.479880
 13
7.019760
 23
6.850360
  0
POLYLINE
  8
0
  6
CONTINUOUS
 66
     1
 40
0.000000
 41
0.000000
  0
VERTEX
  8
0
  6
CONTINUOUS
 10
6.341720
 20
6.513320
  0
VERTEX
  8
0
  6
CONTINUOUS
 10
6.987640
 20
6.883800
  0
VERTEX
  8
0
  6
CONTINUOUS
 10
7.019760
 20
6.850360
  0
VERTEX
  8
0
  6
CONTINUOUS
 10
6.373840
 20
6.479880
  0
VERTEX
  8
0
  6
CONTINUOUS
 10
6.341720
 20
6.513320
  0
SEQEND
  8
0
  0
SOLID
  8
0
 62
    15
 10
7.322040
 20
6.397160
 11
7.967960
 21
6.767640
 12
7.322040
 22
5.821640
 13
7.967960
 23
6.192560
  0
POLYLINE
  8
0
  6
CONTINUOUS
 66
     1
 40
0.000000
 41
0.000000
  0
VERTEX
  8
0
  6
CONTINUOUS
 10
7.322040
 20
6.397160
  0
VERTEX
  8
0
  6
CONTINUOUS
 10
7.967960
 20
6.767640
  0
VERTEX
  8
0
  6
CONTINUOUS
 10
7.967960
 20
6.192560
  0
VERTEX
  8
0
  6
CONTINUOUS
 10
7.322040
 20
5.821640
  0
VERTEX
  8
0
  6
CONTINUOUS
 10
7.322040
 20
6.397160
  0
SEQEND
  8
0
  0
SOLID
  8
0
 62
    15
 10
6.373840
 20
6.479880
 11
7.019760
 21
6.850360
 12
7.322040
 22
6.397160
 13
7.967960
 23
6.767640
  0
POLYLINE
  8
0
  6
CONTINUOUS
 66
     1
 40
0.000000
 41
0.000000
  0
VERTEX
  8
0
  6
CONTINUOUS
 10
6.373840
 20
6.479880
  0
VERTEX
  8
0
  6
CONTINUOUS
 10
7.019760
 20
6.850360
  0
VERTEX
  8
0
  6
CONTINUOUS
 10
7.967960
 20
6.767640
  0
VERTEX
  8
0
  6
CONTINUOUS
 10
7.322040
 20
6.397160
  0
VERTEX
  8
0
  6
CONTINUOUS
 10
6.373840
 20
6.479880
  0
SEQEND
  8
0
  0
SOLID
  8
0
 62
    15
 10
7.285080
 20
5.812400
 11
7.931000
 21
6.183320
 12
7.257800
 22
5.787760
 13
7.903720
 23
6.158240
  0
POLYLINE
  8
0
  6
CONTINUOUS
 66
     1
 40
0.000000
 41
0.000000
  0
VERTEX
  8
0
  6
CONTINUOUS
 10
7.285080
 20
5.812400
  0
VERTEX
  8
0
  6
CONTINUOUS
 10
7.931000
 20
6.183320
  0
VERTEX
  8
0
  6
CONTINUOUS
 10
7.903720
 20
6.158240
  0
VERTEX
  8
0
  6
CONTINUOUS
 10
7.257800
 20
5.787760
  0
VERTEX
  8
0
  6
CONTINUOUS
 10
7.285080
 20
5.812400
  0
SEQEND
  8
0
  0
SOLID
  8
0
 62
    15
 10
7.257800
 20
5.787760
 11
7.903720
 21
6.158240
 12
7.225680
 22
5.708120
 13
7.871160
 23
6.079040
  0
POLYLINE
  8
0
  6
CONTINUOUS
 66
     1
 40
0.000000
 41
0.000000
  0
VERTEX
  8
0
  6
CONTINUOUS
 10
7.257800
 20
5.787760
  0
VERTEX
  8
0
  6
CONTINUOUS
 10
7.903720
 20
6.158240
  0
VERTEX
  8
0
  6
CONTINUOUS
 10
7.871160
 20
6.079040
  0
VERTEX
  8
0
  6
CONTINUOUS
 10
7.225680
 20
5.708120
  0
VERTEX
  8
0
  6
CONTINUOUS
 10
7.257800
 20
5.787760
  0
SEQEND
  8
0
  0
SOLID
  8
0
 62
    15
 10
7.225680
 20
5.708120
 11
7.871160
 21
6.079040
 12
7.211600
 22
5.617040
 13
7.857520
 23
5.987520
  0
POLYLINE
  8
0
  6
CONTINUOUS
 66
     1
 40
0.000000
 41
0.000000
  0
VERTEX
  8
0
  6
CONTINUOUS
 10
7.225680
 20
5.708120
  0
VERTEX
  8
0
  6
CONTINUOUS
 10
7.871160
 20
6.079040
  0
VERTEX
  8
0
  6
CONTINUOUS
 10
7.857520
 20
5.987520
  0
VERTEX
  8
0
  6
CONTINUOUS
 10
7.211600
 20
5.617040
  0
VERTEX
  8
0
  6
CONTINUOUS
 10
7.225680
 20
5.708120
  0
SEQEND
  8
0
  0
SOLID
  8
0
 62
    15
 10
7.211600
 20
5.617040
 11
7.857520
 21
5.987520
 12
7.203240
 22
5.546640
 13
7.849160
 23
5.917560
  0
POLYLINE
  8
0
  6
CONTINUOUS
 66
     1
 40
0.000000
 41
0.000000
  0
VERTEX
  8
0
  6
CONTINUOUS
 10
7.211600
 20
5.617040
  0
VERTEX
  8
0
  6
CONTINUOUS
 10
7.857520
 20
5.987520
  0
VERTEX
  8
0
  6
CONTINUOUS
 10
7.849160
 20
5.917560
  0
VERTEX
  8
0
  6
CONTINUOUS
 10
7.203240
 20
5.546640
  0
VERTEX
  8
0
  6
CONTINUOUS
 10
7.211600
 20
5.617040
  0
SEQEND
  8
0
  0
SOLID
  8
0
 62
    15
 10
7.203240
 20
5.546640
 11
7.849160
 21
5.917560
 12
7.173760
 22
5.457320
 13
7.819240
 23
5.828240
  0
POLYLINE
  8
0
  6
CONTINUOUS
 66
     1
 40
0.000000
 41
0.000000
  0
VERTEX
  8
0
  6
CONTINUOUS
 10
7.203240
 20
5.546640
  0
VERTEX
  8
0
  6
CONTINUOUS
 10
7.849160
 20
5.917560
  0
VERTEX
  8
0
  6
CONTINUOUS
 10
7.819240
 20
5.828240
  0
VERTEX
  8
0
  6
CONTINUOUS
 10
7.173760
 20
5.457320
  0
VERTEX
  8
0
  6
CONTINUOUS
 10
7.203240
 20
5.546640
  0
SEQEND
  8
0
  0
SOLID
  8
0
 62
    15
 10
7.173760
 20
5.457320
 11
7.819240
 21
5.828240
 12
7.126240
 22
5.403200
 13
7.772160
 23
5.773680
  0
POLYLINE
  8
0
  6
CONTINUOUS
 66
     1
 40
0.000000
 41
0.000000
  0
VERTEX
  8
0
  6
CONTINUOUS
 10
7.173760
 20
5.457320
  0
VERTEX
  8
0
  6
CONTINUOUS
 10
7.819240
 20
5.828240
  0
VERTEX
  8
0
  6
CONTINUOUS
 10
7.772160
 20
5.773680
  0
VERTEX
  8
0
  6
CONTINUOUS
 10
7.126240
 20
5.403200
  0
VERTEX
  8
0
  6
CONTINUOUS
 10
7.173760
 20
5.457320
  0
SEQEND
  8
0
  0
SOLID
  8
0
 62
    15
 10
7.126240
 20
5.403200
 11
7.772160
 21
5.773680
 12
7.086640
 22
5.369320
 13
7.732560
 23
5.739800
  0
POLYLINE
  8
0
  6
CONTINUOUS
 66
     1
 40
0.000000
 41
0.000000
  0
VERTEX
  8
0
  6
CONTINUOUS
 10
7.126240
 20
5.403200
  0
VERTEX
  8
0
  6
CONTINUOUS
 10
7.772160
 20
5.773680
  0
VERTEX
  8
0
  6
CONTINUOUS
 10
7.732560
 20
5.739800
  0
VERTEX
  8
0
  6
CONTINUOUS
 10
7.086640
 20
5.369320
  0
VERTEX
  8
0
  6
CONTINUOUS
 10
7.126240
 20
5.403200
  0
SEQEND
  8
0
  0
SOLID
  8
0
 62
    15
 10
7.033840
 20
5.328840
 11
7.679320
 21
5.699320
 12
7.033840
 22
5.229840
 13
7.679760
 23
5.600320
  0
POLYLINE
  8
0
  6
CONTINUOUS
 66
     1
 40
0.000000
 41
0.000000
  0
VERTEX
  8
0
  6
CONTINUOUS
 10
7.033840
 20
5.328840
  0
VERTEX
  8
0
  6
CONTINUOUS
 10
7.679320
 20
5.699320
  0
VERTEX
  8
0
  6
CONTINUOUS
 10
7.679760
 20
5.600320
  0
VERTEX
  8
0
  6
CONTINUOUS
 10
7.033840
 20
5.229840
  0
VERTEX
  8
0
  6
CONTINUOUS
 10
7.033840
 20
5.328840
  0
SEQEND
  8
0
  0
SOLID
  8
0
 62
    15
 10
1.424720
 20
3.831080
 11
2.070640
 21
4.202000
 12
1.472240
 22
3.841200
 13
2.118160
 23
4.211680
  0
POLYLINE
  8
0
  6
CONTINUOUS
 66
     1
 40
0.000000
 41
0.000000
  0
VERTEX
  8
0
  6
CONTINUOUS
 10
1.424720
 20
3.831080
  0
VERTEX
  8
0
  6
CONTINUOUS
 10
2.070640
 20
4.202000
  0
VERTEX
  8
0
  6
CONTINUOUS
 10
2.118160
 20
4.211680
  0
VERTEX
  8
0
  6
CONTINUOUS
 10
1.472240
 20
3.841200
  0
VERTEX
  8
0
  6
CONTINUOUS
 10
1.424720
 20
3.831080
  0
SEQEND
  8
0
  0
SOLID
  8
0
 62
    15
 10
7.086640
 20
5.369320
 11
7.732560
 21
5.739800
 12
7.033840
 22
5.328840
 13
7.679320
 23
5.699320
  0
POLYLINE
  8
0
  6
CONTINUOUS
 66
     1
 40
0.000000
 41
0.000000
  0
VERTEX
  8
0
  6
CONTINUOUS
 10
7.086640
 20
5.369320
  0
VERTEX
  8
0
  6
CONTINUOUS
 10
7.732560
 20
5.739800
  0
VERTEX
  8
0
  6
CONTINUOUS
 10
7.679320
 20
5.699320
  0
VERTEX
  8
0
  6
CONTINUOUS
 10
7.033840
 20
5.328840
  0
VERTEX
  8
0
  6
CONTINUOUS
 10
7.086640
 20
5.369320
  0
SEQEND
  8
0
  0
SOLID
  8
0
 62
    15
 10
6.792280
 20
5.019520
 11
7.438200
 21
5.390440
 12
6.790960
 22
4.934160
 13
7.436880
 23
5.305080
  0
POLYLINE
  8
0
  6
CONTINUOUS
 66
     1
 40
0.000000
 41
0.000000
  0
VERTEX
  8
0
  6
CONTINUOUS
 10
6.792280
 20
5.019520
  0
VERTEX
  8
0
  6
CONTINUOUS
 10
7.438200
 20
5.390440
  0
VERTEX
  8
0
  6
CONTINUOUS
 10
7.436880
 20
5.305080
  0
VERTEX
  8
0
  6
CONTINUOUS
 10
6.790960
 20
4.934160
  0
VERTEX
  8
0
  6
CONTINUOUS
 10
6.792280
 20
5.019520
  0
SEQEND
  8
0
  0
SOLID
  8
0
 62
    15
 10
6.876760
 20
5.089920
 11
7.522680
 21
5.460840
 12
6.866640
 22
5.019520
 13
7.512560
 23
5.390440
  0
POLYLINE
  8
0
  6
CONTINUOUS
 66
     1
 40
0.000000
 41
0.000000
  0
VERTEX
  8
0
  6
CONTINUOUS
 10
6.876760
 20
5.089920
  0
VERTEX
  8
0
  6
CONTINUOUS
 10
7.522680
 20
5.460840
  0
VERTEX
  8
0
  6
CONTINUOUS
 10
7.512560
 20
5.390440
  0
VERTEX
  8
0
  6
CONTINUOUS
 10
6.866640
 20
5.019520
  0
VERTEX
  8
0
  6
CONTINUOUS
 10
6.876760
 20
5.089920
  0
SEQEND
  8
0
  0
SOLID
  8
0
 62
    15
 10
6.908000
 20
5.158120
 11
7.553920
 21
5.528600
 12
6.876760
 22
5.089920
 13
7.522680
 23
5.460840
  0
POLYLINE
  8
0
  6
CONTINUOUS
 66
     1
 40
0.000000
 41
0.000000
  0
VERTEX
  8
0
  6
CONTINUOUS
 10
6.908000
 20
5.158120
  0
VERTEX
  8
0
  6
CONTINUOUS
 10
7.553920
 20
5.528600
  0
VERTEX
  8
0
  6
CONTINUOUS
 10
7.522680
 20
5.460840
  0
VERTEX
  8
0
  6
CONTINUOUS
 10
6.876760
 20
5.089920
  0
VERTEX
  8
0
  6
CONTINUOUS
 10
6.908000
 20
5.158120
  0
SEQEND
  8
0
  0
SOLID
  8
0
 62
    15
 10
6.790960
 20
4.934160
 11
7.436880
 21
5.305080
 12
6.795360
 22
4.832080
 13
7.441280
 23
5.202560
  0
POLYLINE
  8
0
  6
CONTINUOUS
 66
     1
 40
0.000000
 41
0.000000
  0
VERTEX
  8
0
  6
CONTINUOUS
 10
6.790960
 20
4.934160
  0
VERTEX
  8
0
  6
CONTINUOUS
 10
7.436880
 20
5.305080
  0
VERTEX
  8
0
  6
CONTINUOUS
 10
7.441280
 20
5.202560
  0
VERTEX
  8
0
  6
CONTINUOUS
 10
6.795360
 20
4.832080
  0
VERTEX
  8
0
  6
CONTINUOUS
 10
6.790960
 20
4.934160
  0
SEQEND
  8
0
  0
SOLID
  8
0
 62
    15
 10
6.795360
 20
4.832080
 11
7.441280
 21
5.202560
 12
6.816040
 22
4.731320
 13
7.461960
 23
5.101800
  0
POLYLINE
  8
0
  6
CONTINUOUS
 66
     1
 40
0.000000
 41
0.000000
  0
VERTEX
  8
0
  6
CONTINUOUS
 10
6.795360
 20
4.832080
  0
VERTEX
  8
0
  6
CONTINUOUS
 10
7.441280
 20
5.202560
  0
VERTEX
  8
0
  6
CONTINUOUS
 10
7.461960
 20
5.101800
  0
VERTEX
  8
0
  6
CONTINUOUS
 10
6.816040
 20
4.731320
  0
VERTEX
  8
0
  6
CONTINUOUS
 10
6.795360
 20
4.832080
  0
SEQEND
  8
0
  0
SOLID
  8
0
 62
    15
 10
6.816040
 20
4.731320
 11
7.461960
 21
5.101800
 12
6.864000
 22
4.650360
 13
7.509920
 23
5.020840
  0
POLYLINE
  8
0
  6
CONTINUOUS
 66
     1
 40
0.000000
 41
0.000000
  0
VERTEX
  8
0
  6
CONTINUOUS
 10
6.816040
 20
4.731320
  0
VERTEX
  8
0
  6
CONTINUOUS
 10
7.461960
 20
5.101800
  0
VERTEX
  8
0
  6
CONTINUOUS
 10
7.509920
 20
5.020840
  0
VERTEX
  8
0
  6
CONTINUOUS
 10
6.864000
 20
4.650360
  0
VERTEX
  8
0
  6
CONTINUOUS
 10
6.816040
 20
4.731320
  0
SEQEND
  8
0
  0
SOLID
  8
0
 62
    15
 10
6.763680
 20
4.495040
 11
7.409600
 21
4.865960
 12
6.763680
 22
4.054600
 13
7.409600
 23
4.425080
  0
POLYLINE
  8
0
  6
CONTINUOUS
 66
     1
 40
0.000000
 41
0.000000
  0
VERTEX
  8
0
  6
CONTINUOUS
 10
6.763680
 20
4.495040
  0
VERTEX
  8
0
  6
CONTINUOUS
 10
7.409600
 20
4.865960
  0
VERTEX
  8
0
  6
CONTINUOUS
 10
7.409600
 20
4.425080
  0
VERTEX
  8
0
  6
CONTINUOUS
 10
6.763680
 20
4.054600
  0
VERTEX
  8
0
  6
CONTINUOUS
 10
6.763680
 20
4.495040
  0
SEQEND
  8
0
  0
SOLID
  8
0
 62
    15
 10
6.864000
 20
4.650360
 11
7.509920
 21
5.020840
 12
6.864440
 22
4.495040
 13
7.510360
 23
4.865960
  0
POLYLINE
  8
0
  6
CONTINUOUS
 66
     1
 40
0.000000
 41
0.000000
  0
VERTEX
  8
0
  6
CONTINUOUS
 10
6.864000
 20
4.650360
  0
VERTEX
  8
0
  6
CONTINUOUS
 10
7.509920
 20
5.020840
  0
VERTEX
  8
0
  6
CONTINUOUS
 10
7.510360
 20
4.865960
  0
VERTEX
  8
0
  6
CONTINUOUS
 10
6.864440
 20
4.495040
  0
VERTEX
  8
0
  6
CONTINUOUS
 10
6.864000
 20
4.650360
  0
SEQEND
  8
0
  0
SOLID
  8
0
 62
    15
 10
6.760160
 20
3.983320
 11
7.406080
 21
4.353800
 12
6.747400
 22
3.927440
 13
7.393320
 23
4.298360
  0
POLYLINE
  8
0
  6
CONTINUOUS
 66
     1
 40
0.000000
 41
0.000000
  0
VERTEX
  8
0
  6
CONTINUOUS
 10
6.760160
 20
3.983320
  0
VERTEX
  8
0
  6
CONTINUOUS
 10
7.406080
 20
4.353800
  0
VERTEX
  8
0
  6
CONTINUOUS
 10
7.393320
 20
4.298360
  0
VERTEX
  8
0
  6
CONTINUOUS
 10
6.747400
 20
3.927440
  0
VERTEX
  8
0
  6
CONTINUOUS
 10
6.760160
 20
3.983320
  0
SEQEND
  8
0
  0
SOLID
  8
0
 62
    15
 10
6.763680
 20
4.054600
 11
7.409600
 21
4.425080
 12
6.760160
 22
3.983320
 13
7.406080
 23
4.353800
  0
POLYLINE
  8
0
  6
CONTINUOUS
 66
     1
 40
0.000000
 41
0.000000
  0
VERTEX
  8
0
  6
CONTINUOUS
 10
6.763680
 20
4.054600
  0
VERTEX
  8
0
  6
CONTINUOUS
 10
7.409600
 20
4.425080
  0
VERTEX
  8
0
  6
CONTINUOUS
 10
7.406080
 20
4.353800
  0
VERTEX
  8
0
  6
CONTINUOUS
 10
6.760160
 20
3.983320
  0
VERTEX
  8
0
  6
CONTINUOUS
 10
6.763680
 20
4.054600
  0
SEQEND
  8
0
  0
SOLID
  8
0
 62
    15
 10
6.747400
 20
3.927440
 11
7.393320
 21
4.298360
 12
6.720120
 22
3.887840
 13
7.366040
 23
4.258760
  0
POLYLINE
  8
0
  6
CONTINUOUS
 66
     1
 40
0.000000
 41
0.000000
  0
VERTEX
  8
0
  6
CONTINUOUS
 10
6.747400
 20
3.927440
  0
VERTEX
  8
0
  6
CONTINUOUS
 10
7.393320
 20
4.298360
  0
VERTEX
  8
0
  6
CONTINUOUS
 10
7.366040
 20
4.258760
  0
VERTEX
  8
0
  6
CONTINUOUS
 10
6.720120
 20
3.887840
  0
VERTEX
  8
0
  6
CONTINUOUS
 10
6.747400
 20
3.927440
  0
SEQEND
  8
0
  0
SOLID
  8
0
 62
    15
 10
6.674800
 20
3.864520
 11
7.320720
 21
4.235440
 12
6.674800
 22
3.841200
 13
7.320720
 23
4.211680
  0
POLYLINE
  8
0
  6
CONTINUOUS
 66
     1
 40
0.000000
 41
0.000000
  0
VERTEX
  8
0
  6
CONTINUOUS
 10
6.674800
 20
3.864520
  0
VERTEX
  8
0
  6
CONTINUOUS
 10
7.320720
 20
4.235440
  0
VERTEX
  8
0
  6
CONTINUOUS
 10
7.320720
 20
4.211680
  0
VERTEX
  8
0
  6
CONTINUOUS
 10
6.674800
 20
3.841200
  0
VERTEX
  8
0
  6
CONTINUOUS
 10
6.674800
 20
3.864520
  0
SEQEND
  8
0
  0
SOLID
  8
0
 62
    15
 10
6.674800
 20
3.841200
 11
7.320720
 21
4.211680
 12
6.722320
 22
3.831080
 13
7.368240
 23
4.202000
  0
POLYLINE
  8
0
  6
CONTINUOUS
 66
     1
 40
0.000000
 41
0.000000
  0
VERTEX
  8
0
  6
CONTINUOUS
 10
6.674800
 20
3.841200
  0
VERTEX
  8
0
  6
CONTINUOUS
 10
7.320720
 20
4.211680
  0
VERTEX
  8
0
  6
CONTINUOUS
 10
7.368240
 20
4.202000
  0
VERTEX
  8
0
  6
CONTINUOUS
 10
6.722320
 20
3.831080
  0
VERTEX
  8
0
  6
CONTINUOUS
 10
6.674800
 20
3.841200
  0
SEQEND
  8
0
  0
SOLID
  8
0
 62
    15
 10
6.722320
 20
3.831080
 11
7.368240
 21
4.202000
 12
6.756640
 22
3.804680
 13
7.402560
 23
4.175600
  0
POLYLINE
  8
0
  6
CONTINUOUS
 66
     1
 40
0.000000
 41
0.000000
  0
VERTEX
  8
0
  6
CONTINUOUS
 10
6.722320
 20
3.831080
  0
VERTEX
  8
0
  6
CONTINUOUS
 10
7.368240
 20
4.202000
  0
VERTEX
  8
0
  6
CONTINUOUS
 10
7.402560
 20
4.175600
  0
VERTEX
  8
0
  6
CONTINUOUS
 10
6.756640
 20
3.804680
  0
VERTEX
  8
0
  6
CONTINUOUS
 10
6.722320
 20
3.831080
  0
SEQEND
  8
0
  0
SOLID
  8
0
 62
    15
 10
6.756640
 20
3.804680
 11
7.402560
 21
4.175600
 12
6.776880
 22
3.767280
 13
7.422800
 23
4.138200
  0
POLYLINE
  8
0
  6
CONTINUOUS
 66
     1
 40
0.000000
 41
0.000000
  0
VERTEX
  8
0
  6
CONTINUOUS
 10
6.756640
 20
3.804680
  0
VERTEX
  8
0
  6
CONTINUOUS
 10
7.402560
 20
4.175600
  0
VERTEX
  8
0
  6
CONTINUOUS
 10
7.422800
 20
4.138200
  0
VERTEX
  8
0
  6
CONTINUOUS
 10
6.776880
 20
3.767280
  0
VERTEX
  8
0
  6
CONTINUOUS
 10
6.756640
 20
3.804680
  0
SEQEND
  8
0
  0
SOLID
  8
0
 62
    15
 10
6.783920
 20
3.724600
 11
7.429840
 21
4.095080
 12
6.776880
 22
3.681480
 13
7.422800
 23
4.052400
  0
POLYLINE
  8
0
  6
CONTINUOUS
 66
     1
 40
0.000000
 41
0.000000
  0
VERTEX
  8
0
  6
CONTINUOUS
 10
6.783920
 20
3.724600
  0
VERTEX
  8
0
  6
CONTINUOUS
 10
7.429840
 20
4.095080
  0
VERTEX
  8
0
  6
CONTINUOUS
 10
7.422800
 20
4.052400
  0
VERTEX
  8
0
  6
CONTINUOUS
 10
6.776880
 20
3.681480
  0
VERTEX
  8
0
  6
CONTINUOUS
 10
6.783920
 20
3.724600
  0
SEQEND
  8
0
  0
SOLID
  8
0
 62
    15
 10
6.776880
 20
3.767280
 11
7.422800
 21
4.138200
 12
6.783920
 22
3.724600
 13
7.429840
 23
4.095080
  0
POLYLINE
  8
0
  6
CONTINUOUS
 66
     1
 40
0.000000
 41
0.000000
  0
VERTEX
  8
0
  6
CONTINUOUS
 10
6.776880
 20
3.767280
  0
VERTEX
  8
0
  6
CONTINUOUS
 10
7.422800
 20
4.138200
  0
VERTEX
  8
0
  6
CONTINUOUS
 10
7.429840
 20
4.095080
  0
VERTEX
  8
0
  6
CONTINUOUS
 10
6.783920
 20
3.724600
  0
VERTEX
  8
0
  6
CONTINUOUS
 10
6.776880
 20
3.767280
  0
SEQEND
  8
0
  0
SOLID
  8
0
 62
    15
 10
6.776880
 20
3.681480
 11
7.422800
 21
4.052400
 12
6.756640
 22
3.644080
 13
7.402560
 23
4.014560
  0
POLYLINE
  8
0
  6
CONTINUOUS
 66
     1
 40
0.000000
 41
0.000000
  0
VERTEX
  8
0
  6
CONTINUOUS
 10
6.776880
 20
3.681480
  0
VERTEX
  8
0
  6
CONTINUOUS
 10
7.422800
 20
4.052400
  0
VERTEX
  8
0
  6
CONTINUOUS
 10
7.402560
 20
4.014560
  0
VERTEX
  8
0
  6
CONTINUOUS
 10
6.756640
 20
3.644080
  0
VERTEX
  8
0
  6
CONTINUOUS
 10
6.776880
 20
3.681480
  0
SEQEND
  8
0
  0
SOLID
  8
0
 62
    15
 10
6.756640
 20
3.644080
 11
7.402560
 21
4.014560
 12
6.722320
 22
3.617680
 13
7.368240
 23
3.988160
  0
POLYLINE
  8
0
  6
CONTINUOUS
 66
     1
 40
0.000000
 41
0.000000
  0
VERTEX
  8
0
  6
CONTINUOUS
 10
6.756640
 20
3.644080
  0
VERTEX
  8
0
  6
CONTINUOUS
 10
7.402560
 20
4.014560
  0
VERTEX
  8
0
  6
CONTINUOUS
 10
7.368240
 20
3.988160
  0
VERTEX
  8
0
  6
CONTINUOUS
 10
6.722320
 20
3.617680
  0
VERTEX
  8
0
  6
CONTINUOUS
 10
6.756640
 20
3.644080
  0
SEQEND
  8
0
  0
POLYLINE
  8
0
  6
CONTINUOUS
 66
     1
 40
0.000000
 41
0.000000
  0
VERTEX
  8
0
  6
CONTINUOUS
 10
1.472240
 20
3.607560
  0
VERTEX
  8
0
  6
CONTINUOUS
 10
1.424720
 20
3.617680
  0
VERTEX
  8
0
  6
CONTINUOUS
 10
1.390400
 20
3.644080
  0
VERTEX
  8
0
  6
CONTINUOUS
 10
1.370160
 20
3.681480
  0
VERTEX
  8
0
  6
CONTINUOUS
 10
1.363120
 20
3.724600
  0
VERTEX
  8
0
  6
CONTINUOUS
 10
1.370160
 20
3.767280
  0
VERTEX
  8
0
  6
CONTINUOUS
 10
1.390400
 20
3.804680
  0
VERTEX
  8
0
  6
CONTINUOUS
 10
1.424720
 20
3.831080
  0
VERTEX
  8
0
  6
CONTINUOUS
 10
1.472240
 20
3.841200
  0
VERTEX
  8
0
  6
CONTINUOUS
 10
1.472240
 20
3.864520
  0
VERTEX
  8
0
  6
CONTINUOUS
 10
1.426920
 20
3.887840
  0
VERTEX
  8
0
  6
CONTINUOUS
 10
1.399640
 20
3.927440
  0
VERTEX
  8
0
  6
CONTINUOUS
 10
1.386880
 20
3.983320
  0
VERTEX
  8
0
  6
CONTINUOUS
 10
1.383360
 20
4.054600
  0
VERTEX
  8
0
  6
CONTINUOUS
 10
1.383360
 20
4.495040
  0
VERTEX
  8
0
  6
CONTINUOUS
 10
1.282600
 20
4.495040
  0
VERTEX
  8
0
  6
CONTINUOUS
 10
1.283040
 20
4.650360
  0
VERTEX
  8
0
  6
CONTINUOUS
 10
1.330560
 20
4.731320
  0
VERTEX
  8
0
  6
CONTINUOUS
 10
1.351240
 20
4.832080
  0
VERTEX
  8
0
  6
CONTINUOUS
 10
1.356080
 20
4.934160
  0
VERTEX
  8
0
  6
CONTINUOUS
 10
1.354760
 20
5.019520
  0
VERTEX
  8
0
  6
CONTINUOUS
 10
1.280400
 20
5.019520
  0
VERTEX
  8
0
  6
CONTINUOUS
 10
1.270280
 20
5.089920
  0
VERTEX
  8
0
  6
CONTINUOUS
 10
1.239040
 20
5.158120
  0
VERTEX
  8
0
  6
CONTINUOUS
 10
1.187120
 20
5.209160
  0
VERTEX
  8
0
  6
CONTINUOUS
 10
1.113200
 20
5.229840
  0
VERTEX
  8
0
  6
CONTINUOUS
 10
1.113640
 20
5.328840
  0
VERTEX
  8
0
  6
CONTINUOUS
 10
1.060400
 20
5.369320
  0
VERTEX
  8
0
  6
CONTINUOUS
 10
1.020800
 20
5.403200
  0
VERTEX
  8
0
  6
CONTINUOUS
 10
0.973280
 20
5.457320
  0
VERTEX
  8
0
  6
CONTINUOUS
 10
0.943800
 20
5.546640
  0
VERTEX
  8
0
  6
CONTINUOUS
 10
0.935440
 20
5.617040
  0
VERTEX
  8
0
  6
CONTINUOUS
 10
0.921360
 20
5.708120
  0
VERTEX
  8
0
  6
CONTINUOUS
 10
0.889240
 20
5.787760
  0
VERTEX
  8
0
  6
CONTINUOUS
 10
0.861960
 20
5.812400
  0
VERTEX
  8
0
  6
CONTINUOUS
 10
0.825000
 20
5.821640
  0
VERTEX
  8
0
  6
CONTINUOUS
 10
0.825000
 20
6.397160
  0
VERTEX
  8
0
  6
CONTINUOUS
 10
1.773200
 20
6.479880
  0
VERTEX
  8
0
  6
CONTINUOUS
 10
1.805320
 20
6.513320
  0
VERTEX
  8
0
  6
CONTINUOUS
 10
1.842280
 20
6.574480
  0
VERTEX
  8
0
  6
CONTINUOUS
 10
1.903440
 20
6.633000
  0
VERTEX
  8
0
  6
CONTINUOUS
 10
1.949640
 20
6.652360
  0
VERTEX
  8
0
  6
CONTINUOUS
 10
2.009480
 20
6.659400
  0
VERTEX
  8
0
  6
CONTINUOUS
 10
2.009480
 20
6.732000
  0
VERTEX
  8
0
  6
CONTINUOUS
 10
6.137560
 20
6.732000
  0
VERTEX
  8
0
  6
CONTINUOUS
 10
6.137560
 20
6.659400
  0
VERTEX
  8
0
  6
CONTINUOUS
 10
6.197400
 20
6.652360
  0
VERTEX
  8
0
  6
CONTINUOUS
 10
6.243600
 20
6.633000
  0
VERTEX
  8
0
  6
CONTINUOUS
 10
6.304760
 20
6.574480
  0
VERTEX
  8
0
  6
CONTINUOUS
 10
6.341720
 20
6.513320
  0
VERTEX
  8
0
  6
CONTINUOUS
 10
6.373840
 20
6.479880
  0
VERTEX
  8
0
  6
CONTINUOUS
 10
7.322040
 20
6.397160
  0
VERTEX
  8
0
  6
CONTINUOUS
 10
7.322040
 20
5.821640
  0
VERTEX
  8
0
  6
CONTINUOUS
 10
7.285080
 20
5.812400
  0
VERTEX
  8
0
  6
CONTINUOUS
 10
7.257800
 20
5.787760
  0
VERTEX
  8
0
  6
CONTINUOUS
 10
7.225680
 20
5.708120
  0
VERTEX
  8
0
  6
CONTINUOUS
 10
7.211600
 20
5.617040
  0
VERTEX
  8
0
  6
CONTINUOUS
 10
7.203240
 20
5.546640
  0
VERTEX
  8
0
  6
CONTINUOUS
 10
7.173760
 20
5.457320
  0
VERTEX
  8
0
  6
CONTINUOUS
 10
7.126240
 20
5.403200
  0
VERTEX
  8
0
  6
CONTINUOUS
 10
7.086640
 20
5.369320
  0
VERTEX
  8
0
  6
CONTINUOUS
 10
7.033840
 20
5.328840
  0
VERTEX
  8
0
  6
CONTINUOUS
 10
7.033840
 20
5.229840
  0
VERTEX
  8
0
  6
CONTINUOUS
 10
6.959920
 20
5.209160
  0
VERTEX
  8
0
  6
CONTINUOUS
 10
6.908000
 20
5.158120
  0
VERTEX
  8
0
  6
CONTINUOUS
 10
6.876760
 20
5.089920
  0
VERTEX
  8
0
  6
CONTINUOUS
 10
6.866640
 20
5.019520
  0
VERTEX
  8
0
  6
CONTINUOUS
 10
6.792280
 20
5.019520
  0
VERTEX
  8
0
  6
CONTINUOUS
 10
6.790960
 20
4.934160
  0
VERTEX
  8
0
  6
CONTINUOUS
 10
6.795360
 20
4.832080
  0
VERTEX
  8
0
  6
CONTINUOUS
 10
6.816040
 20
4.731320
  0
VERTEX
  8
0
  6
CONTINUOUS
 10
6.864000
 20
4.650360
  0
VERTEX
  8
0
  6
CONTINUOUS
 10
6.864440
 20
4.495040
  0
VERTEX
  8
0
  6
CONTINUOUS
 10
6.763680
 20
4.495040
  0
VERTEX
  8
0
  6
CONTINUOUS
 10
6.763680
 20
4.054600
  0
VERTEX
  8
0
  6
CONTINUOUS
 10
6.760160
 20
3.983320
  0
VERTEX
  8
0
  6
CONTINUOUS
 10
6.747400
 20
3.927440
  0
VERTEX
  8
0
  6
CONTINUOUS
 10
6.720120
 20
3.887840
  0
VERTEX
  8
0
  6
CONTINUOUS
 10
6.674800
 20
3.864520
  0
VERTEX
  8
0
  6
CONTINUOUS
 10
6.674800
 20
3.841200
  0
VERTEX
  8
0
  6
CONTINUOUS
 10
6.722320
 20
3.831080
  0
VERTEX
  8
0
  6
CONTINUOUS
 10
6.756640
 20
3.804680
  0
VERTEX
  8
0
  6
CONTINUOUS
 10
6.776880
 20
3.767280
  0
VERTEX
  8
0
  6
CONTINUOUS
 10
6.783920
 20
3.724600
  0
VERTEX
  8
0
  6
CONTINUOUS
 10
6.776880
 20
3.681480
  0
VERTEX
  8
0
  6
CONTINUOUS
 10
6.756640
 20
3.644080
  0
VERTEX
  8
0
  6
CONTINUOUS
 10
6.722320
 20
3.617680
  0
VERTEX
  8
0
  6
CONTINUOUS
 10
6.674800
 20
3.607560
  0
VERTEX
  8
0
  6
CONTINUOUS
 10
1.472240
 20
3.607560
  0
SEQEND
  8
0
  0
TEXT
  8
0
 10
4.054600
 20
3.285920
 40
0.138372
  1
BA  1223
 41
1.000000
  7
SN0
 71
     0
 72
     5
 11
4.739426
 21
3.285920
  0
TEXT
  8
0
 10
3.871120
 20
3.094080
 40
0.138372
  1
3-1/8" x 6-1/2"
 41
1.000000
  7
SN0
 71
     0
 72
     5
 11
4.925205
 21
3.094080
  0
TEXT
  8
0
 10
4.054600
 20
7.556120
 40
0.138372
  1
BA  1223
 41
1.000000
  7
SN0
 71
     0
 72
     5
 11
4.739426
 21
7.556120
  0
TEXT
  8
0
 10
3.871120
 20
7.364720
 40
0.138372
  1
3-1/8" x 6-1/2"
 41
1.000000
  7
SN0
 71
     0
 72
     5
 11
4.925205
 21
7.364720
  0
ENDSEC
  0
EOF
