  0
SECTION
  2
HEADER
  9
$ACADVER
  1
AC1006
  9
$EXTMIN
 10
2.624600
 20
0.958320
  9
$EXTMAX
 10
6.519040
 20
10.163120
  9
$LTSCALE
 40
0.044000
  9
$PDMODE
 70
    35
  9
$PDSIZE
 40
0.035200
  0
ENDSEC
  0
SECTION
  2
TABLES
  0
TABLE
  2
LTYPE
 70
     9
  0
LTYPE
  2
CONTINUOUS
 70
    64
  3
Solid line
 72
    65
 73
     0
 40
0.000000
  0
LTYPE
  2
DASHED
 70
    64
  3
__ __ __ __ __ __ __ __ __ __ __ __ __ __ __
 72
    65
 73
     2
 40
0.000330
 49
0.000220
 49
-0.000110
  0
LTYPE
  2
HIDDEN
 70
    64
  3
 _ _ _ _ _ _ _ _ _ _ _ _ _ _ _ _ _ _ _ _ _ _
 72
    65
 73
     2
 40
0.000165
 49
0.000110
 49
-0.000055
  0
LTYPE
  2
CENTER
 70
    64
  3
____ _ ____ _ ____ _ ____ _ ____ _ ____ _ ____
 72
    65
 73
     4
 40
0.000880
 49
0.000550
 49
-0.000110
 49
0.000110
 49
-0.000110
  0
LTYPE
  2
PHANTOM
 70
    64
  3
_____ _ _ _____ _ _ _____ _ _ _____ _ _ ____
 72
    65
 73
     6
 40
0.001100
 49
0.000550
 49
-0.000110
 49
0.000110
 49
-0.000110
 49
0.000110
 49
-0.000110
  0
LTYPE
  2
DOT
 70
    64
  3
...............................................
 72
    65
 73
     2
 40
0.000110
 49
0.000000
 49
-0.000110
  0
LTYPE
  2
DASHDOT
 70
    64
  3
__ . __ . __ . __ . __ . __ . __ . __ . __ . __
 72
    65
 73
     4
 40
0.000440
 49
0.000220
 49
-0.000110
 49
0.000000
 49
-0.000110
  0
LTYPE
  2
BORDER
 70
    64
  3
__ __ . __ __ . __ __ . __ __ . __ __ . __ __
 72
    65
 73
     6
 40
0.000770
 49
0.000220
 49
-0.000110
 49
0.000220
 49
-0.000110
 49
0.000000
 49
-0.000110
  0
LTYPE
  2
DIVIDE
 70
    64
  3
__ . . __ . . __ . . __ . . __ . . __ . . __
 72
    65
 73
     6
 40
0.000550
 49
0.000220
 49
-0.000110
 49
0.000000
 49
-0.000110
 49
0.000000
 49
-0.000110
  0
LTYPE
  2
DOTDOT
 70
    64
  3
 . .  . .  . .  . .  . .  . . 
 72
    65
 73
     5
 40
0.000242
 49
-0.000110
 49
0.000000
 49
-0.000110
 49
0.000000
 49
-0.000110
  0
ENDTAB
  0
TABLE
  2
STYLE
 70
     2
  0
STYLE
 70
     0
  2
SN0
 40
0.000000
 41
0.000440
 50
0.000000
 71
     0
 42
0.000000
  3
ROMAND
  0
STYLE
 70
    68
  2
SV0
 40
0.000000
 41
0.000440
 50
0.000000
 71
     0
 42
0.000000
  3
ROMAND
  0
ENDTAB
  0
TABLE
  2
LAYER
 70
     3
  0
LAYER
  2
FOREGROUND
 70
    64
 62
     7
  6
CONTINUOUS
  0
LAYER
  2
BACKGROUND
 70
    65
 62
    -7
  6
CONTINUOUS
  0
LAYER
  2
0
 70
    64
 62
     7
  6
CONTINUOUS
  0
ENDTAB
  0
ENDSEC
  0
SECTION
  2
ENTITIES
  0
POLYLINE
  8
FOREGROUND
  6
CONTINUOUS
 66
     1
 40
0.000000
 41
0.000000
  0
VERTEX
  8
FOREGROUND
  6
CONTINUOUS
 10
0.000000
 20
11.121440
  0
VERTEX
  8
FOREGROUND
  6
CONTINUOUS
 10
8.499920
 20
11.121440
  0
VERTEX
  8
FOREGROUND
  6
CONTINUOUS
 10
8.499920
 20
0.121440
  0
VERTEX
  8
FOREGROUND
  6
CONTINUOUS
 10
0.000000
 20
0.121440
  0
VERTEX
  8
FOREGROUND
  6
CONTINUOUS
 10
0.000000
 20
11.121440
  0
SEQEND
  8
0
  0
POLYLINE
  8
FOREGROUND
  6
CONTINUOUS
 66
     1
 40
0.000000
 41
0.000000
  0
VERTEX
  8
FOREGROUND
  6
CONTINUOUS
 10
0.000000
 20
11.121440
  0
VERTEX
  8
FOREGROUND
  6
CONTINUOUS
 10
8.499920
 20
11.121440
  0
VERTEX
  8
FOREGROUND
  6
CONTINUOUS
 10
8.499920
 20
0.121440
  0
VERTEX
  8
FOREGROUND
  6
CONTINUOUS
 10
0.000000
 20
0.121440
  0
VERTEX
  8
FOREGROUND
  6
CONTINUOUS
 10
0.000000
 20
11.121440
  0
SEQEND
  8
0
  0
POLYLINE
  8
0
  6
CONTINUOUS
 66
     1
 40
0.014080
 41
0.014080
  0
VERTEX
  8
0
  6
CONTINUOUS
 10
3.300880
 20
7.655560
  0
VERTEX
  8
0
  6
CONTINUOUS
 10
3.275800
 20
7.657760
  0
VERTEX
  8
0
  6
CONTINUOUS
 10
3.254240
 20
7.663480
  0
VERTEX
  8
0
  6
CONTINUOUS
 10
3.235760
 20
7.672720
  0
VERTEX
  8
0
  6
CONTINUOUS
 10
3.220800
 20
7.684160
  0
VERTEX
  8
0
  6
CONTINUOUS
 10
3.204520
 20
7.705720
  0
VERTEX
  8
0
  6
CONTINUOUS
 10
3.197920
 20
7.722000
  0
VERTEX
  8
0
  6
CONTINUOUS
 10
3.194840
 20
7.738720
  0
VERTEX
  8
0
  6
CONTINUOUS
 10
3.194840
 20
7.756320
  0
VERTEX
  8
0
  6
CONTINUOUS
 10
3.197920
 20
7.773040
  0
VERTEX
  8
0
  6
CONTINUOUS
 10
3.204520
 20
7.789320
  0
VERTEX
  8
0
  6
CONTINUOUS
 10
3.220800
 20
7.810880
  0
VERTEX
  8
0
  6
CONTINUOUS
 10
3.235760
 20
7.822320
  0
VERTEX
  8
0
  6
CONTINUOUS
 10
3.254240
 20
7.831560
  0
VERTEX
  8
0
  6
CONTINUOUS
 10
3.275800
 20
7.837280
  0
VERTEX
  8
0
  6
CONTINUOUS
 10
3.300880
 20
7.839480
  0
VERTEX
  8
0
  6
CONTINUOUS
 10
3.300880
 20
7.859720
  0
VERTEX
  8
0
  6
CONTINUOUS
 10
3.266120
 20
7.862360
  0
VERTEX
  8
0
  6
CONTINUOUS
 10
3.238400
 20
7.869400
  0
VERTEX
  8
0
  6
CONTINUOUS
 10
3.216840
 20
7.880400
  0
VERTEX
  8
0
  6
CONTINUOUS
 10
3.201000
 20
7.894920
  0
VERTEX
  8
0
  6
CONTINUOUS
 10
3.193080
 20
7.905920
  0
VERTEX
  8
0
  6
CONTINUOUS
 10
3.186920
 20
7.917800
  0
VERTEX
  8
0
  6
CONTINUOUS
 10
3.179440
 20
7.943320
  0
VERTEX
  8
0
  6
CONTINUOUS
 10
3.176360
 20
7.970160
  0
VERTEX
  8
0
  6
CONTINUOUS
 10
3.175920
 20
8.020760
  0
VERTEX
  8
0
  6
CONTINUOUS
 10
3.175920
 20
8.739280
  0
VERTEX
  8
0
  6
CONTINUOUS
 10
3.119600
 20
8.739280
  0
VERTEX
  8
0
  6
CONTINUOUS
 10
3.117840
 20
8.775800
  0
VERTEX
  8
0
  6
CONTINUOUS
 10
3.115200
 20
8.792960
  0
VERTEX
  8
0
  6
CONTINUOUS
 10
3.105960
 20
8.823760
  0
VERTEX
  8
0
  6
CONTINUOUS
 10
3.091440
 20
8.849720
  0
VERTEX
  8
0
  6
CONTINUOUS
 10
3.072520
 20
8.871720
  0
VERTEX
  8
0
  6
CONTINUOUS
 10
3.048760
 20
8.888440
  0
VERTEX
  8
0
  6
CONTINUOUS
 10
3.020160
 20
8.900320
  0
VERTEX
  8
0
  6
CONTINUOUS
 10
3.003880
 20
8.904280
  0
VERTEX
  8
0
  6
CONTINUOUS
 10
2.968240
 20
8.907800
  0
VERTEX
  8
0
  6
CONTINUOUS
 10
2.968240
 20
9.011200
  0
VERTEX
  8
0
  6
CONTINUOUS
 10
2.938320
 20
9.024840
  0
VERTEX
  8
0
  6
CONTINUOUS
 10
2.910600
 20
9.039800
  0
VERTEX
  8
0
  6
CONTINUOUS
 10
2.884640
 20
9.056520
  0
VERTEX
  8
0
  6
CONTINUOUS
 10
2.860440
 20
9.075000
  0
VERTEX
  8
0
  6
CONTINUOUS
 10
2.838000
 20
9.094800
  0
VERTEX
  8
0
  6
CONTINUOUS
 10
2.817760
 20
9.115920
  0
VERTEX
  8
0
  6
CONTINUOUS
 10
2.799280
 20
9.137920
  0
VERTEX
  8
0
  6
CONTINUOUS
 10
2.768480
 20
9.185000
  0
VERTEX
  8
0
  6
CONTINUOUS
 10
2.756160
 20
9.210080
  0
VERTEX
  8
0
  6
CONTINUOUS
 10
2.745600
 20
9.235600
  0
VERTEX
  8
0
  6
CONTINUOUS
 10
2.737240
 20
9.261560
  0
VERTEX
  8
0
  6
CONTINUOUS
 10
2.730640
 20
9.288400
  0
VERTEX
  8
0
  6
CONTINUOUS
 10
2.726240
 20
9.315240
  0
VERTEX
  8
0
  6
CONTINUOUS
 10
2.723600
 20
9.342520
  0
VERTEX
  8
0
  6
CONTINUOUS
 10
2.723600
 20
9.369800
  0
VERTEX
  8
0
  6
CONTINUOUS
 10
2.724920
 20
9.397080
  0
VERTEX
  8
0
  6
CONTINUOUS
 10
2.728880
 20
9.423920
  0
VERTEX
  8
0
  6
CONTINUOUS
 10
2.734600
 20
9.450760
  0
VERTEX
  8
0
  6
CONTINUOUS
 10
2.742520
 20
9.477160
  0
VERTEX
  8
0
  6
CONTINUOUS
 10
2.752640
 20
9.503120
  0
VERTEX
  8
0
  6
CONTINUOUS
 10
2.764960
 20
9.528640
  0
VERTEX
  8
0
  6
CONTINUOUS
 10
2.779040
 20
9.553280
  0
VERTEX
  8
0
  6
CONTINUOUS
 10
2.795760
 20
9.577040
  0
VERTEX
  8
0
  6
CONTINUOUS
 10
2.824360
 20
9.610480
  0
VERTEX
  8
0
  6
CONTINUOUS
 10
2.858240
 20
9.641720
  0
VERTEX
  8
0
  6
CONTINUOUS
 10
2.896960
 20
9.670320
  0
VERTEX
  8
0
  6
CONTINUOUS
 10
2.940520
 20
9.694960
  0
VERTEX
  8
0
  6
CONTINUOUS
 10
2.989360
 20
9.716080
  0
VERTEX
  8
0
  6
CONTINUOUS
 10
3.006520
 20
9.722240
  0
VERTEX
  8
0
  6
CONTINUOUS
 10
3.006520
 20
9.852040
  0
VERTEX
  8
0
  6
CONTINUOUS
 10
3.102440
 20
9.854680
  0
VERTEX
  8
0
  6
CONTINUOUS
 10
3.190000
 20
9.862160
  0
VERTEX
  8
0
  6
CONTINUOUS
 10
3.270080
 20
9.874040
  0
VERTEX
  8
0
  6
CONTINUOUS
 10
3.344440
 20
9.889440
  0
VERTEX
  8
0
  6
CONTINUOUS
 10
3.435520
 20
9.914080
  0
VERTEX
  8
0
  6
CONTINUOUS
 10
3.521320
 20
9.942240
  0
VERTEX
  8
0
  6
CONTINUOUS
 10
3.727680
 20
10.017920
  0
VERTEX
  8
0
  6
CONTINUOUS
 10
3.849120
 20
10.058840
  0
VERTEX
  8
0
  6
CONTINUOUS
 10
3.998280
 20
10.114720
  0
VERTEX
  8
0
  6
CONTINUOUS
 10
4.054600
 20
10.131000
  0
VERTEX
  8
0
  6
CONTINUOUS
 10
4.101240
 20
10.141120
  0
VERTEX
  8
0
  6
CONTINUOUS
 10
4.154480
 20
10.148600
  0
VERTEX
  8
0
  6
CONTINUOUS
 10
4.216960
 20
10.153440
  0
VERTEX
  8
0
  6
CONTINUOUS
 10
4.290880
 20
10.155640
  0
VERTEX
  8
0
  6
CONTINUOUS
 10
4.431680
 20
10.155200
  0
VERTEX
  8
0
  6
CONTINUOUS
 10
4.501640
 20
10.152120
  0
VERTEX
  8
0
  6
CONTINUOUS
 10
4.560600
 20
10.146400
  0
VERTEX
  8
0
  6
CONTINUOUS
 10
4.611200
 20
10.138040
  0
VERTEX
  8
0
  6
CONTINUOUS
 10
4.670600
 20
10.123080
  0
VERTEX
  8
0
  6
CONTINUOUS
 10
4.725600
 20
10.105040
  0
VERTEX
  8
0
  6
CONTINUOUS
 10
4.865520
 20
10.052240
  0
VERTEX
  8
0
  6
CONTINUOUS
 10
5.010720
 20
10.002960
  0
VERTEX
  8
0
  6
CONTINUOUS
 10
5.217520
 20
9.927720
  0
VERTEX
  8
0
  6
CONTINUOUS
 10
5.305520
 20
9.901320
  0
VERTEX
  8
0
  6
CONTINUOUS
 10
5.376360
 20
9.883720
  0
VERTEX
  8
0
  6
CONTINUOUS
 10
5.452480
 20
9.869640
  0
VERTEX
  8
0
  6
CONTINUOUS
 10
5.534760
 20
9.859080
  0
VERTEX
  8
0
  6
CONTINUOUS
 10
5.624960
 20
9.853360
  0
VERTEX
  8
0
  6
CONTINUOUS
 10
5.690080
 20
9.852040
  0
VERTEX
  8
0
  6
CONTINUOUS
 10
5.690080
 20
9.722240
  0
VERTEX
  8
0
  6
CONTINUOUS
 10
5.740240
 20
9.702440
  0
VERTEX
  8
0
  6
CONTINUOUS
 10
5.785560
 20
9.678680
  0
VERTEX
  8
0
  6
CONTINUOUS
 10
5.826040
 20
9.651840
  0
VERTEX
  8
0
  6
CONTINUOUS
 10
5.861240
 20
9.621480
  0
VERTEX
  8
0
  6
CONTINUOUS
 10
5.900840
 20
9.577040
  0
VERTEX
  8
0
  6
CONTINUOUS
 10
5.917120
 20
9.553280
  0
VERTEX
  8
0
  6
CONTINUOUS
 10
5.931640
 20
9.528640
  0
VERTEX
  8
0
  6
CONTINUOUS
 10
5.943520
 20
9.503120
  0
VERTEX
  8
0
  6
CONTINUOUS
 10
5.953640
 20
9.477160
  0
VERTEX
  8
0
  6
CONTINUOUS
 10
5.961560
 20
9.450760
  0
VERTEX
  8
0
  6
CONTINUOUS
 10
5.967720
 20
9.423920
  0
VERTEX
  8
0
  6
CONTINUOUS
 10
5.971240
 20
9.397080
  0
VERTEX
  8
0
  6
CONTINUOUS
 10
5.973000
 20
9.369800
  0
VERTEX
  8
0
  6
CONTINUOUS
 10
5.972560
 20
9.342520
  0
VERTEX
  8
0
  6
CONTINUOUS
 10
5.970360
 20
9.315240
  0
VERTEX
  8
0
  6
CONTINUOUS
 10
5.965960
 20
9.288400
  0
VERTEX
  8
0
  6
CONTINUOUS
 10
5.959360
 20
9.261560
  0
VERTEX
  8
0
  6
CONTINUOUS
 10
5.951000
 20
9.235600
  0
VERTEX
  8
0
  6
CONTINUOUS
 10
5.940440
 20
9.210080
  0
VERTEX
  8
0
  6
CONTINUOUS
 10
5.928120
 20
9.185000
  0
VERTEX
  8
0
  6
CONTINUOUS
 10
5.897320
 20
9.137920
  0
VERTEX
  8
0
  6
CONTINUOUS
 10
5.878840
 20
9.115920
  0
VERTEX
  8
0
  6
CONTINUOUS
 10
5.858600
 20
9.094800
  0
VERTEX
  8
0
  6
CONTINUOUS
 10
5.836160
 20
9.075000
  0
VERTEX
  8
0
  6
CONTINUOUS
 10
5.811960
 20
9.056520
  0
VERTEX
  8
0
  6
CONTINUOUS
 10
5.786000
 20
9.039800
  0
VERTEX
  8
0
  6
CONTINUOUS
 10
5.743320
 20
9.017800
  0
VERTEX
  8
0
  6
CONTINUOUS
 10
5.728360
 20
9.011200
  0
VERTEX
  8
0
  6
CONTINUOUS
 10
5.728360
 20
8.907800
  0
VERTEX
  8
0
  6
CONTINUOUS
 10
5.692280
 20
8.904280
  0
VERTEX
  8
0
  6
CONTINUOUS
 10
5.661480
 20
8.895040
  0
VERTEX
  8
0
  6
CONTINUOUS
 10
5.635080
 20
8.880520
  0
VERTEX
  8
0
  6
CONTINUOUS
 10
5.623640
 20
8.871720
  0
VERTEX
  8
0
  6
CONTINUOUS
 10
5.604720
 20
8.849720
  0
VERTEX
  8
0
  6
CONTINUOUS
 10
5.590640
 20
8.823760
  0
VERTEX
  8
0
  6
CONTINUOUS
 10
5.581400
 20
8.792960
  0
VERTEX
  8
0
  6
CONTINUOUS
 10
5.578320
 20
8.775800
  0
VERTEX
  8
0
  6
CONTINUOUS
 10
5.576560
 20
8.739280
  0
VERTEX
  8
0
  6
CONTINUOUS
 10
5.520680
 20
8.739280
  0
VERTEX
  8
0
  6
CONTINUOUS
 10
5.521120
 20
7.996560
  0
VERTEX
  8
0
  6
CONTINUOUS
 10
5.519360
 20
7.956520
  0
VERTEX
  8
0
  6
CONTINUOUS
 10
5.514080
 20
7.930120
  0
VERTEX
  8
0
  6
CONTINUOUS
 10
5.509680
 20
7.917800
  0
VERTEX
  8
0
  6
CONTINUOUS
 10
5.503520
 20
7.905920
  0
VERTEX
  8
0
  6
CONTINUOUS
 10
5.490760
 20
7.889640
  0
VERTEX
  8
0
  6
CONTINUOUS
 10
5.473160
 20
7.876440
  0
VERTEX
  8
0
  6
CONTINUOUS
 10
5.458200
 20
7.869400
  0
VERTEX
  8
0
  6
CONTINUOUS
 10
5.430480
 20
7.862360
  0
VERTEX
  8
0
  6
CONTINUOUS
 10
5.395720
 20
7.859720
  0
VERTEX
  8
0
  6
CONTINUOUS
 10
5.395720
 20
7.839480
  0
VERTEX
  8
0
  6
CONTINUOUS
 10
5.420800
 20
7.837280
  0
VERTEX
  8
0
  6
CONTINUOUS
 10
5.442360
 20
7.831560
  0
VERTEX
  8
0
  6
CONTINUOUS
 10
5.460400
 20
7.822320
  0
VERTEX
  8
0
  6
CONTINUOUS
 10
5.475360
 20
7.810880
  0
VERTEX
  8
0
  6
CONTINUOUS
 10
5.487240
 20
7.796800
  0
VERTEX
  8
0
  6
CONTINUOUS
 10
5.498240
 20
7.773040
  0
VERTEX
  8
0
  6
CONTINUOUS
 10
5.501760
 20
7.756320
  0
VERTEX
  8
0
  6
CONTINUOUS
 10
5.501760
 20
7.738720
  0
VERTEX
  8
0
  6
CONTINUOUS
 10
5.498240
 20
7.722000
  0
VERTEX
  8
0
  6
CONTINUOUS
 10
5.487240
 20
7.698240
  0
VERTEX
  8
0
  6
CONTINUOUS
 10
5.475360
 20
7.684160
  0
VERTEX
  8
0
  6
CONTINUOUS
 10
5.460400
 20
7.672720
  0
VERTEX
  8
0
  6
CONTINUOUS
 10
5.442360
 20
7.663480
  0
VERTEX
  8
0
  6
CONTINUOUS
 10
5.420800
 20
7.657760
  0
VERTEX
  8
0
  6
CONTINUOUS
 10
5.395720
 20
7.655560
  0
VERTEX
  8
0
  6
CONTINUOUS
 10
3.300880
 20
7.655560
  0
SEQEND
  8
0
  0
POLYLINE
  8
0
  6
CONTINUOUS
 66
     1
 40
0.000000
 41
0.000000
  0
VERTEX
  8
0
  6
CONTINUOUS
 10
3.460160
 20
0.958320
  0
VERTEX
  8
0
  6
CONTINUOUS
 10
3.435080
 20
0.960520
  0
VERTEX
  8
0
  6
CONTINUOUS
 10
3.413520
 20
0.966240
  0
VERTEX
  8
0
  6
CONTINUOUS
 10
3.395480
 20
0.975480
  0
VERTEX
  8
0
  6
CONTINUOUS
 10
3.380520
 20
0.986920
  0
VERTEX
  8
0
  6
CONTINUOUS
 10
3.368640
 20
1.001000
  0
VERTEX
  8
0
  6
CONTINUOUS
 10
3.357640
 20
1.024760
  0
VERTEX
  8
0
  6
CONTINUOUS
 10
3.354120
 20
1.041920
  0
VERTEX
  8
0
  6
CONTINUOUS
 10
3.354120
 20
1.059080
  0
VERTEX
  8
0
  6
CONTINUOUS
 10
3.357640
 20
1.076240
  0
VERTEX
  8
0
  6
CONTINUOUS
 10
3.368640
 20
1.100000
  0
VERTEX
  8
0
  6
CONTINUOUS
 10
3.380520
 20
1.114080
  0
VERTEX
  8
0
  6
CONTINUOUS
 10
3.395480
 20
1.125520
  0
VERTEX
  8
0
  6
CONTINUOUS
 10
3.413520
 20
1.134760
  0
VERTEX
  8
0
  6
CONTINUOUS
 10
3.435080
 20
1.140480
  0
VERTEX
  8
0
  6
CONTINUOUS
 10
3.460160
 20
1.142680
  0
VERTEX
  8
0
  6
CONTINUOUS
 10
3.460160
 20
1.162480
  0
VERTEX
  8
0
  6
CONTINUOUS
 10
3.425400
 20
1.165120
  0
VERTEX
  8
0
  6
CONTINUOUS
 10
3.397680
 20
1.172160
  0
VERTEX
  8
0
  6
CONTINUOUS
 10
3.376560
 20
1.183160
  0
VERTEX
  8
0
  6
CONTINUOUS
 10
3.360280
 20
1.197680
  0
VERTEX
  8
0
  6
CONTINUOUS
 10
3.352360
 20
1.208680
  0
VERTEX
  8
0
  6
CONTINUOUS
 10
3.346200
 20
1.220560
  0
VERTEX
  8
0
  6
CONTINUOUS
 10
3.338720
 20
1.246080
  0
VERTEX
  8
0
  6
CONTINUOUS
 10
3.335640
 20
1.272920
  0
VERTEX
  8
0
  6
CONTINUOUS
 10
3.335200
 20
1.323960
  0
VERTEX
  8
0
  6
CONTINUOUS
 10
3.335200
 20
2.042040
  0
VERTEX
  8
0
  6
CONTINUOUS
 10
3.279320
 20
2.042040
  0
VERTEX
  8
0
  6
CONTINUOUS
 10
3.277560
 20
2.079000
  0
VERTEX
  8
0
  6
CONTINUOUS
 10
3.270520
 20
2.111560
  0
VERTEX
  8
0
  6
CONTINUOUS
 10
3.258640
 20
2.140160
  0
VERTEX
  8
0
  6
CONTINUOUS
 10
3.242360
 20
2.164360
  0
VERTEX
  8
0
  6
CONTINUOUS
 10
3.220800
 20
2.183720
  0
VERTEX
  8
0
  6
CONTINUOUS
 10
3.194400
 20
2.198240
  0
VERTEX
  8
0
  6
CONTINUOUS
 10
3.163600
 20
2.207040
  0
VERTEX
  8
0
  6
CONTINUOUS
 10
3.127520
 20
2.211000
  0
VERTEX
  8
0
  6
CONTINUOUS
 10
3.127520
 20
2.314400
  0
VERTEX
  8
0
  6
CONTINUOUS
 10
3.097600
 20
2.328040
  0
VERTEX
  8
0
  6
CONTINUOUS
 10
3.069880
 20
2.343000
  0
VERTEX
  8
0
  6
CONTINUOUS
 10
3.043920
 20
2.359720
  0
VERTEX
  8
0
  6
CONTINUOUS
 10
3.019720
 20
2.378200
  0
VERTEX
  8
0
  6
CONTINUOUS
 10
2.997280
 20
2.398000
  0
VERTEX
  8
0
  6
CONTINUOUS
 10
2.977040
 20
2.418680
  0
VERTEX
  8
0
  6
CONTINUOUS
 10
2.958560
 20
2.441120
  0
VERTEX
  8
0
  6
CONTINUOUS
 10
2.942280
 20
2.464000
  0
VERTEX
  8
0
  6
CONTINUOUS
 10
2.927760
 20
2.488200
  0
VERTEX
  8
0
  6
CONTINUOUS
 10
2.915440
 20
2.513280
  0
VERTEX
  8
0
  6
CONTINUOUS
 10
2.904880
 20
2.538800
  0
VERTEX
  8
0
  6
CONTINUOUS
 10
2.896520
 20
2.564760
  0
VERTEX
  8
0
  6
CONTINUOUS
 10
2.889920
 20
2.591600
  0
VERTEX
  8
0
  6
CONTINUOUS
 10
2.885520
 20
2.618440
  0
VERTEX
  8
0
  6
CONTINUOUS
 10
2.883320
 20
2.645280
  0
VERTEX
  8
0
  6
CONTINUOUS
 10
2.882880
 20
2.672560
  0
VERTEX
  8
0
  6
CONTINUOUS
 10
2.884640
 20
2.699840
  0
VERTEX
  8
0
  6
CONTINUOUS
 10
2.888160
 20
2.727120
  0
VERTEX
  8
0
  6
CONTINUOUS
 10
2.894320
 20
2.753960
  0
VERTEX
  8
0
  6
CONTINUOUS
 10
2.902240
 20
2.780360
  0
VERTEX
  8
0
  6
CONTINUOUS
 10
2.912360
 20
2.806320
  0
VERTEX
  8
0
  6
CONTINUOUS
 10
2.924240
 20
2.831400
  0
VERTEX
  8
0
  6
CONTINUOUS
 10
2.938760
 20
2.856040
  0
VERTEX
  8
0
  6
CONTINUOUS
 10
2.955040
 20
2.879800
  0
VERTEX
  8
0
  6
CONTINUOUS
 10
2.984080
 20
2.913680
  0
VERTEX
  8
0
  6
CONTINUOUS
 10
3.017520
 20
2.944920
  0
VERTEX
  8
0
  6
CONTINUOUS
 10
3.056240
 20
2.973080
  0
VERTEX
  8
0
  6
CONTINUOUS
 10
3.099800
 20
2.998160
  0
VERTEX
  8
0
  6
CONTINUOUS
 10
3.148640
 20
3.019280
  0
VERTEX
  8
0
  6
CONTINUOUS
 10
3.165800
 20
3.025440
  0
VERTEX
  8
0
  6
CONTINUOUS
 10
3.165800
 20
3.155240
  0
VERTEX
  8
0
  6
CONTINUOUS
 10
3.261720
 20
3.157880
  0
VERTEX
  8
0
  6
CONTINUOUS
 10
3.349280
 20
3.165360
  0
VERTEX
  8
0
  6
CONTINUOUS
 10
3.429360
 20
3.177240
  0
VERTEX
  8
0
  6
CONTINUOUS
 10
3.503720
 20
3.192640
  0
VERTEX
  8
0
  6
CONTINUOUS
 10
3.594800
 20
3.217280
  0
VERTEX
  8
0
  6
CONTINUOUS
 10
3.680600
 20
3.245440
  0
VERTEX
  8
0
  6
CONTINUOUS
 10
3.886960
 20
3.320680
  0
VERTEX
  8
0
  6
CONTINUOUS
 10
4.008400
 20
3.361600
  0
VERTEX
  8
0
  6
CONTINUOUS
 10
4.157560
 20
3.417480
  0
VERTEX
  8
0
  6
CONTINUOUS
 10
4.213880
 20
3.433760
  0
VERTEX
  8
0
  6
CONTINUOUS
 10
4.260520
 20
3.443880
  0
VERTEX
  8
0
  6
CONTINUOUS
 10
4.333560
 20
3.453560
  0
VERTEX
  8
0
  6
CONTINUOUS
 10
4.399560
 20
3.457520
  0
VERTEX
  8
0
  6
CONTINUOUS
 10
4.537280
 20
3.458840
  0
VERTEX
  8
0
  6
CONTINUOUS
 10
4.615600
 20
3.457520
  0
VERTEX
  8
0
  6
CONTINUOUS
 10
4.681600
 20
3.453560
  0
VERTEX
  8
0
  6
CONTINUOUS
 10
4.754640
 20
3.443880
  0
VERTEX
  8
0
  6
CONTINUOUS
 10
4.830320
 20
3.426280
  0
VERTEX
  8
0
  6
CONTINUOUS
 10
4.913040
 20
3.397240
  0
VERTEX
  8
0
  6
CONTINUOUS
 10
5.043720
 20
3.348400
  0
VERTEX
  8
0
  6
CONTINUOUS
 10
5.170000
 20
3.305720
  0
VERTEX
  8
0
  6
CONTINUOUS
 10
5.376800
 20
3.230920
  0
VERTEX
  8
0
  6
CONTINUOUS
 10
5.464800
 20
3.204520
  0
VERTEX
  8
0
  6
CONTINUOUS
 10
5.535640
 20
3.186920
  0
VERTEX
  8
0
  6
CONTINUOUS
 10
5.611760
 20
3.172840
  0
VERTEX
  8
0
  6
CONTINUOUS
 10
5.694040
 20
3.162280
  0
VERTEX
  8
0
  6
CONTINUOUS
 10
5.784240
 20
3.156560
  0
VERTEX
  8
0
  6
CONTINUOUS
 10
5.849360
 20
3.155240
  0
VERTEX
  8
0
  6
CONTINUOUS
 10
5.849360
 20
3.025440
  0
VERTEX
  8
0
  6
CONTINUOUS
 10
5.899520
 20
3.005640
  0
VERTEX
  8
0
  6
CONTINUOUS
 10
5.944840
 20
2.981880
  0
VERTEX
  8
0
  6
CONTINUOUS
 10
5.985320
 20
2.954600
  0
VERTEX
  8
0
  6
CONTINUOUS
 10
6.009520
 20
2.934800
  0
VERTEX
  8
0
  6
CONTINUOUS
 10
6.041640
 20
2.902680
  0
VERTEX
  8
0
  6
CONTINUOUS
 10
6.060120
 20
2.879800
  0
VERTEX
  8
0
  6
CONTINUOUS
 10
6.076840
 20
2.856040
  0
VERTEX
  8
0
  6
CONTINUOUS
 10
6.103240
 20
2.806320
  0
VERTEX
  8
0
  6
CONTINUOUS
 10
6.113360
 20
2.780360
  0
VERTEX
  8
0
  6
CONTINUOUS
 10
6.121280
 20
2.753960
  0
VERTEX
  8
0
  6
CONTINUOUS
 10
6.127000
 20
2.727120
  0
VERTEX
  8
0
  6
CONTINUOUS
 10
6.130960
 20
2.699840
  0
VERTEX
  8
0
  6
CONTINUOUS
 10
6.132720
 20
2.672560
  0
VERTEX
  8
0
  6
CONTINUOUS
 10
6.132280
 20
2.645280
  0
VERTEX
  8
0
  6
CONTINUOUS
 10
6.129640
 20
2.618440
  0
VERTEX
  8
0
  6
CONTINUOUS
 10
6.125240
 20
2.591600
  0
VERTEX
  8
0
  6
CONTINUOUS
 10
6.118640
 20
2.564760
  0
VERTEX
  8
0
  6
CONTINUOUS
 10
6.110280
 20
2.538800
  0
VERTEX
  8
0
  6
CONTINUOUS
 10
6.099720
 20
2.513280
  0
VERTEX
  8
0
  6
CONTINUOUS
 10
6.087400
 20
2.488200
  0
VERTEX
  8
0
  6
CONTINUOUS
 10
6.072880
 20
2.464000
  0
VERTEX
  8
0
  6
CONTINUOUS
 10
6.056600
 20
2.441120
  0
VERTEX
  8
0
  6
CONTINUOUS
 10
6.038120
 20
2.418680
  0
VERTEX
  8
0
  6
CONTINUOUS
 10
6.017880
 20
2.398000
  0
VERTEX
  8
0
  6
CONTINUOUS
 10
5.995440
 20
2.378200
  0
VERTEX
  8
0
  6
CONTINUOUS
 10
5.971240
 20
2.359720
  0
VERTEX
  8
0
  6
CONTINUOUS
 10
5.945280
 20
2.343000
  0
VERTEX
  8
0
  6
CONTINUOUS
 10
5.902600
 20
2.321000
  0
VERTEX
  8
0
  6
CONTINUOUS
 10
5.887640
 20
2.314400
  0
VERTEX
  8
0
  6
CONTINUOUS
 10
5.887640
 20
2.211000
  0
VERTEX
  8
0
  6
CONTINUOUS
 10
5.852000
 20
2.207040
  0
VERTEX
  8
0
  6
CONTINUOUS
 10
5.820760
 20
2.198240
  0
VERTEX
  8
0
  6
CONTINUOUS
 10
5.794800
 20
2.183720
  0
VERTEX
  8
0
  6
CONTINUOUS
 10
5.773240
 20
2.164360
  0
VERTEX
  8
0
  6
CONTINUOUS
 10
5.756520
 20
2.140160
  0
VERTEX
  8
0
  6
CONTINUOUS
 10
5.749920
 20
2.126520
  0
VERTEX
  8
0
  6
CONTINUOUS
 10
5.740680
 20
2.095720
  0
VERTEX
  8
0
  6
CONTINUOUS
 10
5.736720
 20
2.060960
  0
VERTEX
  8
0
  6
CONTINUOUS
 10
5.736280
 20
2.042040
  0
VERTEX
  8
0
  6
CONTINUOUS
 10
5.679960
 20
2.042040
  0
VERTEX
  8
0
  6
CONTINUOUS
 10
5.679960
 20
1.272920
  0
VERTEX
  8
0
  6
CONTINUOUS
 10
5.676440
 20
1.246080
  0
VERTEX
  8
0
  6
CONTINUOUS
 10
5.668960
 20
1.220560
  0
VERTEX
  8
0
  6
CONTINUOUS
 10
5.662800
 20
1.208680
  0
VERTEX
  8
0
  6
CONTINUOUS
 10
5.650040
 20
1.192400
  0
VERTEX
  8
0
  6
CONTINUOUS
 10
5.632440
 20
1.179200
  0
VERTEX
  8
0
  6
CONTINUOUS
 10
5.609120
 20
1.169520
  0
VERTEX
  8
0
  6
CONTINUOUS
 10
5.589760
 20
1.165120
  0
VERTEX
  8
0
  6
CONTINUOUS
 10
5.555000
 20
1.162480
  0
VERTEX
  8
0
  6
CONTINUOUS
 10
5.555000
 20
1.142680
  0
VERTEX
  8
0
  6
CONTINUOUS
 10
5.580080
 20
1.140480
  0
VERTEX
  8
0
  6
CONTINUOUS
 10
5.601640
 20
1.134760
  0
VERTEX
  8
0
  6
CONTINUOUS
 10
5.620120
 20
1.125520
  0
VERTEX
  8
0
  6
CONTINUOUS
 10
5.635080
 20
1.114080
  0
VERTEX
  8
0
  6
CONTINUOUS
 10
5.651360
 20
1.092520
  0
VERTEX
  8
0
  6
CONTINUOUS
 10
5.657960
 20
1.076240
  0
VERTEX
  8
0
  6
CONTINUOUS
 10
5.661040
 20
1.059080
  0
VERTEX
  8
0
  6
CONTINUOUS
 10
5.661040
 20
1.041920
  0
VERTEX
  8
0
  6
CONTINUOUS
 10
5.657960
 20
1.024760
  0
VERTEX
  8
0
  6
CONTINUOUS
 10
5.651360
 20
1.008480
  0
VERTEX
  8
0
  6
CONTINUOUS
 10
5.635080
 20
0.986920
  0
VERTEX
  8
0
  6
CONTINUOUS
 10
5.620120
 20
0.975480
  0
VERTEX
  8
0
  6
CONTINUOUS
 10
5.601640
 20
0.966240
  0
VERTEX
  8
0
  6
CONTINUOUS
 10
5.580080
 20
0.960520
  0
VERTEX
  8
0
  6
CONTINUOUS
 10
5.555000
 20
0.958320
  0
VERTEX
  8
0
  6
CONTINUOUS
 10
3.460160
 20
0.958320
  0
SEQEND
  8
0
  0
SOLID
  8
0
 62
    15
 10
5.591960
 20
6.567880
 11
6.235680
 21
6.935720
 12
5.591960
 22
6.438080
 13
6.235680
 23
6.805920
  0
POLYLINE
  8
0
  6
CONTINUOUS
 66
     1
 40
0.000000
 41
0.000000
  0
VERTEX
  8
0
  6
CONTINUOUS
 10
5.591960
 20
6.567880
  0
VERTEX
  8
0
  6
CONTINUOUS
 10
6.235680
 20
6.935720
  0
VERTEX
  8
0
  6
CONTINUOUS
 10
6.235680
 20
6.805920
  0
VERTEX
  8
0
  6
CONTINUOUS
 10
5.591960
 20
6.438080
  0
VERTEX
  8
0
  6
CONTINUOUS
 10
5.591960
 20
6.567880
  0
SEQEND
  8
0
  0
SOLID
  8
0
 62
    15
 10
2.785200
 20
6.376920
 11
3.429360
 21
6.744320
 12
2.908400
 22
6.438080
 13
3.552120
 23
6.805920
  0
POLYLINE
  8
0
  6
CONTINUOUS
 66
     1
 40
0.000000
 41
0.000000
  0
VERTEX
  8
0
  6
CONTINUOUS
 10
2.785200
 20
6.376920
  0
VERTEX
  8
0
  6
CONTINUOUS
 10
3.429360
 20
6.744320
  0
VERTEX
  8
0
  6
CONTINUOUS
 10
3.552120
 20
6.805920
  0
VERTEX
  8
0
  6
CONTINUOUS
 10
2.908400
 20
6.438080
  0
VERTEX
  8
0
  6
CONTINUOUS
 10
2.785200
 20
6.376920
  0
SEQEND
  8
0
  0
SOLID
  8
0
 62
    15
 10
2.908400
 20
6.567880
 11
3.552120
 21
6.935720
 12
3.034240
 22
6.572720
 13
3.678400
 23
6.940560
  0
POLYLINE
  8
0
  6
CONTINUOUS
 66
     1
 40
0.000000
 41
0.000000
  0
VERTEX
  8
0
  6
CONTINUOUS
 10
2.908400
 20
6.567880
  0
VERTEX
  8
0
  6
CONTINUOUS
 10
3.552120
 20
6.935720
  0
VERTEX
  8
0
  6
CONTINUOUS
 10
3.678400
 20
6.940560
  0
VERTEX
  8
0
  6
CONTINUOUS
 10
3.034240
 20
6.572720
  0
VERTEX
  8
0
  6
CONTINUOUS
 10
2.908400
 20
6.567880
  0
SEQEND
  8
0
  0
SOLID
  8
0
 62
    15
 10
3.034240
 20
6.572720
 11
3.678400
 21
6.940560
 12
3.146000
 22
6.585920
 13
3.790160
 23
6.953320
  0
POLYLINE
  8
0
  6
CONTINUOUS
 66
     1
 40
0.000000
 41
0.000000
  0
VERTEX
  8
0
  6
CONTINUOUS
 10
3.034240
 20
6.572720
  0
VERTEX
  8
0
  6
CONTINUOUS
 10
3.678400
 20
6.940560
  0
VERTEX
  8
0
  6
CONTINUOUS
 10
3.790160
 20
6.953320
  0
VERTEX
  8
0
  6
CONTINUOUS
 10
3.146000
 20
6.585920
  0
VERTEX
  8
0
  6
CONTINUOUS
 10
3.034240
 20
6.572720
  0
SEQEND
  8
0
  0
SOLID
  8
0
 62
    15
 10
3.146000
 20
6.585920
 11
3.790160
 21
6.953320
 12
3.337400
 22
6.630360
 13
3.981120
 23
6.997760
  0
POLYLINE
  8
0
  6
CONTINUOUS
 66
     1
 40
0.000000
 41
0.000000
  0
VERTEX
  8
0
  6
CONTINUOUS
 10
3.146000
 20
6.585920
  0
VERTEX
  8
0
  6
CONTINUOUS
 10
3.790160
 20
6.953320
  0
VERTEX
  8
0
  6
CONTINUOUS
 10
3.981120
 20
6.997760
  0
VERTEX
  8
0
  6
CONTINUOUS
 10
3.337400
 20
6.630360
  0
VERTEX
  8
0
  6
CONTINUOUS
 10
3.146000
 20
6.585920
  0
SEQEND
  8
0
  0
SOLID
  8
0
 62
    15
 10
3.337400
 20
6.630360
 11
3.981120
 21
6.997760
 12
3.672680
 22
6.747840
 13
4.316400
 23
7.115240
  0
POLYLINE
  8
0
  6
CONTINUOUS
 66
     1
 40
0.000000
 41
0.000000
  0
VERTEX
  8
0
  6
CONTINUOUS
 10
3.337400
 20
6.630360
  0
VERTEX
  8
0
  6
CONTINUOUS
 10
3.981120
 20
6.997760
  0
VERTEX
  8
0
  6
CONTINUOUS
 10
4.316400
 20
7.115240
  0
VERTEX
  8
0
  6
CONTINUOUS
 10
3.672680
 20
6.747840
  0
VERTEX
  8
0
  6
CONTINUOUS
 10
3.337400
 20
6.630360
  0
SEQEND
  8
0
  0
SOLID
  8
0
 62
    15
 10
3.672680
 20
6.747840
 11
4.316400
 21
7.115240
 12
3.751000
 22
6.774680
 13
4.395160
 23
7.142080
  0
POLYLINE
  8
0
  6
CONTINUOUS
 66
     1
 40
0.000000
 41
0.000000
  0
VERTEX
  8
0
  6
CONTINUOUS
 10
3.672680
 20
6.747840
  0
VERTEX
  8
0
  6
CONTINUOUS
 10
4.316400
 20
7.115240
  0
VERTEX
  8
0
  6
CONTINUOUS
 10
4.395160
 20
7.142080
  0
VERTEX
  8
0
  6
CONTINUOUS
 10
3.751000
 20
6.774680
  0
VERTEX
  8
0
  6
CONTINUOUS
 10
3.672680
 20
6.747840
  0
SEQEND
  8
0
  0
SOLID
  8
0
 62
    15
 10
3.751000
 20
6.774680
 11
4.395160
 21
7.142080
 12
3.815680
 22
6.798880
 13
4.459840
 23
7.166720
  0
POLYLINE
  8
0
  6
CONTINUOUS
 66
     1
 40
0.000000
 41
0.000000
  0
VERTEX
  8
0
  6
CONTINUOUS
 10
3.751000
 20
6.774680
  0
VERTEX
  8
0
  6
CONTINUOUS
 10
4.395160
 20
7.142080
  0
VERTEX
  8
0
  6
CONTINUOUS
 10
4.459840
 20
7.166720
  0
VERTEX
  8
0
  6
CONTINUOUS
 10
3.815680
 20
6.798880
  0
VERTEX
  8
0
  6
CONTINUOUS
 10
3.751000
 20
6.774680
  0
SEQEND
  8
0
  0
SOLID
  8
0
 62
    15
 10
3.815680
 20
6.798880
 11
4.459840
 21
7.166720
 12
3.844720
 22
6.810320
 13
4.488880
 23
7.177720
  0
POLYLINE
  8
0
  6
CONTINUOUS
 66
     1
 40
0.000000
 41
0.000000
  0
VERTEX
  8
0
  6
CONTINUOUS
 10
3.815680
 20
6.798880
  0
VERTEX
  8
0
  6
CONTINUOUS
 10
4.459840
 20
7.166720
  0
VERTEX
  8
0
  6
CONTINUOUS
 10
4.488880
 20
7.177720
  0
VERTEX
  8
0
  6
CONTINUOUS
 10
3.844720
 20
6.810320
  0
VERTEX
  8
0
  6
CONTINUOUS
 10
3.815680
 20
6.798880
  0
SEQEND
  8
0
  0
SOLID
  8
0
 62
    15
 10
3.844720
 20
6.810320
 11
4.488880
 21
7.177720
 12
3.872440
 22
6.820880
 13
4.516600
 23
7.188280
  0
POLYLINE
  8
0
  6
CONTINUOUS
 66
     1
 40
0.000000
 41
0.000000
  0
VERTEX
  8
0
  6
CONTINUOUS
 10
3.844720
 20
6.810320
  0
VERTEX
  8
0
  6
CONTINUOUS
 10
4.488880
 20
7.177720
  0
VERTEX
  8
0
  6
CONTINUOUS
 10
4.516600
 20
7.188280
  0
VERTEX
  8
0
  6
CONTINUOUS
 10
3.872440
 20
6.820880
  0
VERTEX
  8
0
  6
CONTINUOUS
 10
3.844720
 20
6.810320
  0
SEQEND
  8
0
  0
SOLID
  8
0
 62
    15
 10
3.872440
 20
6.820880
 11
4.516600
 21
7.188280
 12
3.927880
 22
6.838920
 13
4.571600
 23
7.206760
  0
POLYLINE
  8
0
  6
CONTINUOUS
 66
     1
 40
0.000000
 41
0.000000
  0
VERTEX
  8
0
  6
CONTINUOUS
 10
3.872440
 20
6.820880
  0
VERTEX
  8
0
  6
CONTINUOUS
 10
4.516600
 20
7.188280
  0
VERTEX
  8
0
  6
CONTINUOUS
 10
4.571600
 20
7.206760
  0
VERTEX
  8
0
  6
CONTINUOUS
 10
3.927880
 20
6.838920
  0
VERTEX
  8
0
  6
CONTINUOUS
 10
3.872440
 20
6.820880
  0
SEQEND
  8
0
  0
SOLID
  8
0
 62
    15
 10
3.927880
 20
6.838920
 11
4.571600
 21
7.206760
 12
4.056360
 22
6.864440
 13
4.700520
 23
7.231840
  0
POLYLINE
  8
0
  6
CONTINUOUS
 66
     1
 40
0.000000
 41
0.000000
  0
VERTEX
  8
0
  6
CONTINUOUS
 10
3.927880
 20
6.838920
  0
VERTEX
  8
0
  6
CONTINUOUS
 10
4.571600
 20
7.206760
  0
VERTEX
  8
0
  6
CONTINUOUS
 10
4.700520
 20
7.231840
  0
VERTEX
  8
0
  6
CONTINUOUS
 10
4.056360
 20
6.864440
  0
VERTEX
  8
0
  6
CONTINUOUS
 10
3.927880
 20
6.838920
  0
SEQEND
  8
0
  0
SOLID
  8
0
 62
    15
 10
4.056360
 20
6.864440
 11
4.700520
 21
7.231840
 12
4.142160
 22
6.870160
 13
4.785880
 23
7.237560
  0
POLYLINE
  8
0
  6
CONTINUOUS
 66
     1
 40
0.000000
 41
0.000000
  0
VERTEX
  8
0
  6
CONTINUOUS
 10
4.056360
 20
6.864440
  0
VERTEX
  8
0
  6
CONTINUOUS
 10
4.700520
 20
7.231840
  0
VERTEX
  8
0
  6
CONTINUOUS
 10
4.785880
 20
7.237560
  0
VERTEX
  8
0
  6
CONTINUOUS
 10
4.142160
 20
6.870160
  0
VERTEX
  8
0
  6
CONTINUOUS
 10
4.056360
 20
6.864440
  0
SEQEND
  8
0
  0
SOLID
  8
0
 62
    15
 10
4.142160
 20
6.870160
 11
4.785880
 21
7.237560
 12
4.250400
 22
6.871040
 13
4.894120
 23
7.238440
  0
POLYLINE
  8
0
  6
CONTINUOUS
 66
     1
 40
0.000000
 41
0.000000
  0
VERTEX
  8
0
  6
CONTINUOUS
 10
4.142160
 20
6.870160
  0
VERTEX
  8
0
  6
CONTINUOUS
 10
4.785880
 20
7.237560
  0
VERTEX
  8
0
  6
CONTINUOUS
 10
4.894120
 20
7.238440
  0
VERTEX
  8
0
  6
CONTINUOUS
 10
4.250400
 20
6.871040
  0
VERTEX
  8
0
  6
CONTINUOUS
 10
4.142160
 20
6.870160
  0
SEQEND
  8
0
  0
SOLID
  8
0
 62
    15
 10
4.250400
 20
6.871040
 11
4.894120
 21
7.238440
 12
4.358200
 22
6.870160
 13
5.001920
 23
7.237560
  0
POLYLINE
  8
0
  6
CONTINUOUS
 66
     1
 40
0.000000
 41
0.000000
  0
VERTEX
  8
0
  6
CONTINUOUS
 10
4.250400
 20
6.871040
  0
VERTEX
  8
0
  6
CONTINUOUS
 10
4.894120
 20
7.238440
  0
VERTEX
  8
0
  6
CONTINUOUS
 10
5.001920
 20
7.237560
  0
VERTEX
  8
0
  6
CONTINUOUS
 10
4.358200
 20
6.870160
  0
VERTEX
  8
0
  6
CONTINUOUS
 10
4.250400
 20
6.871040
  0
SEQEND
  8
0
  0
SOLID
  8
0
 62
    15
 10
4.358200
 20
6.870160
 11
5.001920
 21
7.237560
 12
4.443560
 22
6.864440
 13
5.087720
 23
7.231840
  0
POLYLINE
  8
0
  6
CONTINUOUS
 66
     1
 40
0.000000
 41
0.000000
  0
VERTEX
  8
0
  6
CONTINUOUS
 10
4.358200
 20
6.870160
  0
VERTEX
  8
0
  6
CONTINUOUS
 10
5.001920
 20
7.237560
  0
VERTEX
  8
0
  6
CONTINUOUS
 10
5.087720
 20
7.231840
  0
VERTEX
  8
0
  6
CONTINUOUS
 10
4.443560
 20
6.864440
  0
VERTEX
  8
0
  6
CONTINUOUS
 10
4.358200
 20
6.870160
  0
SEQEND
  8
0
  0
SOLID
  8
0
 62
    15
 10
4.443560
 20
6.864440
 11
5.087720
 21
7.231840
 12
4.572480
 22
6.838920
 13
5.216200
 23
7.206760
  0
POLYLINE
  8
0
  6
CONTINUOUS
 66
     1
 40
0.000000
 41
0.000000
  0
VERTEX
  8
0
  6
CONTINUOUS
 10
4.443560
 20
6.864440
  0
VERTEX
  8
0
  6
CONTINUOUS
 10
5.087720
 20
7.231840
  0
VERTEX
  8
0
  6
CONTINUOUS
 10
5.216200
 20
7.206760
  0
VERTEX
  8
0
  6
CONTINUOUS
 10
4.572480
 20
6.838920
  0
VERTEX
  8
0
  6
CONTINUOUS
 10
4.443560
 20
6.864440
  0
SEQEND
  8
0
  0
SOLID
  8
0
 62
    15
 10
4.572480
 20
6.838920
 11
5.216200
 21
7.206760
 12
4.627480
 22
6.820880
 13
5.271200
 23
7.188280
  0
POLYLINE
  8
0
  6
CONTINUOUS
 66
     1
 40
0.000000
 41
0.000000
  0
VERTEX
  8
0
  6
CONTINUOUS
 10
4.572480
 20
6.838920
  0
VERTEX
  8
0
  6
CONTINUOUS
 10
5.216200
 20
7.206760
  0
VERTEX
  8
0
  6
CONTINUOUS
 10
5.271200
 20
7.188280
  0
VERTEX
  8
0
  6
CONTINUOUS
 10
4.627480
 20
6.820880
  0
VERTEX
  8
0
  6
CONTINUOUS
 10
4.572480
 20
6.838920
  0
SEQEND
  8
0
  0
SOLID
  8
0
 62
    15
 10
4.627480
 20
6.820880
 11
5.271200
 21
7.188280
 12
4.655200
 22
6.810320
 13
5.299360
 23
7.177720
  0
POLYLINE
  8
0
  6
CONTINUOUS
 66
     1
 40
0.000000
 41
0.000000
  0
VERTEX
  8
0
  6
CONTINUOUS
 10
4.627480
 20
6.820880
  0
VERTEX
  8
0
  6
CONTINUOUS
 10
5.271200
 20
7.188280
  0
VERTEX
  8
0
  6
CONTINUOUS
 10
5.299360
 20
7.177720
  0
VERTEX
  8
0
  6
CONTINUOUS
 10
4.655200
 20
6.810320
  0
VERTEX
  8
0
  6
CONTINUOUS
 10
4.627480
 20
6.820880
  0
SEQEND
  8
0
  0
SOLID
  8
0
 62
    15
 10
4.655200
 20
6.810320
 11
5.299360
 21
7.177720
 12
4.684240
 22
6.798880
 13
5.328400
 23
7.166720
  0
POLYLINE
  8
0
  6
CONTINUOUS
 66
     1
 40
0.000000
 41
0.000000
  0
VERTEX
  8
0
  6
CONTINUOUS
 10
4.655200
 20
6.810320
  0
VERTEX
  8
0
  6
CONTINUOUS
 10
5.299360
 20
7.177720
  0
VERTEX
  8
0
  6
CONTINUOUS
 10
5.328400
 20
7.166720
  0
VERTEX
  8
0
  6
CONTINUOUS
 10
4.684240
 20
6.798880
  0
VERTEX
  8
0
  6
CONTINUOUS
 10
4.655200
 20
6.810320
  0
SEQEND
  8
0
  0
SOLID
  8
0
 62
    15
 10
4.684240
 20
6.798880
 11
5.328400
 21
7.166720
 12
4.748920
 22
6.774680
 13
5.393080
 23
7.142080
  0
POLYLINE
  8
0
  6
CONTINUOUS
 66
     1
 40
0.000000
 41
0.000000
  0
VERTEX
  8
0
  6
CONTINUOUS
 10
4.684240
 20
6.798880
  0
VERTEX
  8
0
  6
CONTINUOUS
 10
5.328400
 20
7.166720
  0
VERTEX
  8
0
  6
CONTINUOUS
 10
5.393080
 20
7.142080
  0
VERTEX
  8
0
  6
CONTINUOUS
 10
4.748920
 20
6.774680
  0
VERTEX
  8
0
  6
CONTINUOUS
 10
4.684240
 20
6.798880
  0
SEQEND
  8
0
  0
SOLID
  8
0
 62
    15
 10
4.748920
 20
6.774680
 11
5.393080
 21
7.142080
 12
4.827240
 22
6.747840
 13
5.471400
 23
7.115240
  0
POLYLINE
  8
0
  6
CONTINUOUS
 66
     1
 40
0.000000
 41
0.000000
  0
VERTEX
  8
0
  6
CONTINUOUS
 10
4.748920
 20
6.774680
  0
VERTEX
  8
0
  6
CONTINUOUS
 10
5.393080
 20
7.142080
  0
VERTEX
  8
0
  6
CONTINUOUS
 10
5.471400
 20
7.115240
  0
VERTEX
  8
0
  6
CONTINUOUS
 10
4.827240
 20
6.747840
  0
VERTEX
  8
0
  6
CONTINUOUS
 10
4.748920
 20
6.774680
  0
SEQEND
  8
0
  0
SOLID
  8
0
 62
    15
 10
4.827240
 20
6.747840
 11
5.471400
 21
7.115240
 12
5.162520
 22
6.630360
 13
5.806680
 23
6.997760
  0
POLYLINE
  8
0
  6
CONTINUOUS
 66
     1
 40
0.000000
 41
0.000000
  0
VERTEX
  8
0
  6
CONTINUOUS
 10
4.827240
 20
6.747840
  0
VERTEX
  8
0
  6
CONTINUOUS
 10
5.471400
 20
7.115240
  0
VERTEX
  8
0
  6
CONTINUOUS
 10
5.806680
 20
6.997760
  0
VERTEX
  8
0
  6
CONTINUOUS
 10
5.162520
 20
6.630360
  0
VERTEX
  8
0
  6
CONTINUOUS
 10
4.827240
 20
6.747840
  0
SEQEND
  8
0
  0
SOLID
  8
0
 62
    15
 10
5.162520
 20
6.630360
 11
5.806680
 21
6.997760
 12
5.353920
 22
6.585920
 13
5.998080
 23
6.953320
  0
POLYLINE
  8
0
  6
CONTINUOUS
 66
     1
 40
0.000000
 41
0.000000
  0
VERTEX
  8
0
  6
CONTINUOUS
 10
5.162520
 20
6.630360
  0
VERTEX
  8
0
  6
CONTINUOUS
 10
5.806680
 20
6.997760
  0
VERTEX
  8
0
  6
CONTINUOUS
 10
5.998080
 20
6.953320
  0
VERTEX
  8
0
  6
CONTINUOUS
 10
5.353920
 20
6.585920
  0
VERTEX
  8
0
  6
CONTINUOUS
 10
5.162520
 20
6.630360
  0
SEQEND
  8
0
  0
SOLID
  8
0
 62
    15
 10
5.353920
 20
6.585920
 11
5.998080
 21
6.953320
 12
5.465680
 22
6.572720
 13
6.109400
 23
6.940560
  0
POLYLINE
  8
0
  6
CONTINUOUS
 66
     1
 40
0.000000
 41
0.000000
  0
VERTEX
  8
0
  6
CONTINUOUS
 10
5.353920
 20
6.585920
  0
VERTEX
  8
0
  6
CONTINUOUS
 10
5.998080
 20
6.953320
  0
VERTEX
  8
0
  6
CONTINUOUS
 10
6.109400
 20
6.940560
  0
VERTEX
  8
0
  6
CONTINUOUS
 10
5.465680
 20
6.572720
  0
VERTEX
  8
0
  6
CONTINUOUS
 10
5.353920
 20
6.585920
  0
SEQEND
  8
0
  0
SOLID
  8
0
 62
    15
 10
5.465680
 20
6.572720
 11
6.109400
 21
6.940560
 12
5.591960
 22
6.567880
 13
6.235680
 23
6.935720
  0
POLYLINE
  8
0
  6
CONTINUOUS
 66
     1
 40
0.000000
 41
0.000000
  0
VERTEX
  8
0
  6
CONTINUOUS
 10
5.465680
 20
6.572720
  0
VERTEX
  8
0
  6
CONTINUOUS
 10
6.109400
 20
6.940560
  0
VERTEX
  8
0
  6
CONTINUOUS
 10
6.235680
 20
6.935720
  0
VERTEX
  8
0
  6
CONTINUOUS
 10
5.591960
 20
6.567880
  0
VERTEX
  8
0
  6
CONTINUOUS
 10
5.465680
 20
6.572720
  0
SEQEND
  8
0
  0
SOLID
  8
0
 62
    15
 10
3.156120
 20
4.547400
 11
3.799840
 21
4.915240
 12
3.202760
 22
4.555320
 13
3.846480
 23
4.923160
  0
POLYLINE
  8
0
  6
CONTINUOUS
 66
     1
 40
0.000000
 41
0.000000
  0
VERTEX
  8
0
  6
CONTINUOUS
 10
3.156120
 20
4.547400
  0
VERTEX
  8
0
  6
CONTINUOUS
 10
3.799840
 20
4.915240
  0
VERTEX
  8
0
  6
CONTINUOUS
 10
3.846480
 20
4.923160
  0
VERTEX
  8
0
  6
CONTINUOUS
 10
3.202760
 20
4.555320
  0
VERTEX
  8
0
  6
CONTINUOUS
 10
3.156120
 20
4.547400
  0
SEQEND
  8
0
  0
SOLID
  8
0
 62
    15
 10
5.591960
 20
6.438080
 11
6.235680
 21
6.805920
 12
5.714720
 22
6.376920
 13
6.358880
 23
6.744320
  0
POLYLINE
  8
0
  6
CONTINUOUS
 66
     1
 40
0.000000
 41
0.000000
  0
VERTEX
  8
0
  6
CONTINUOUS
 10
5.591960
 20
6.438080
  0
VERTEX
  8
0
  6
CONTINUOUS
 10
6.235680
 20
6.805920
  0
VERTEX
  8
0
  6
CONTINUOUS
 10
6.358880
 20
6.744320
  0
VERTEX
  8
0
  6
CONTINUOUS
 10
5.714720
 20
6.376920
  0
VERTEX
  8
0
  6
CONTINUOUS
 10
5.591960
 20
6.438080
  0
SEQEND
  8
0
  0
SOLID
  8
0
 62
    15
 10
5.714720
 20
6.376920
 11
6.358880
 21
6.744320
 12
5.802280
 22
6.292880
 13
6.446440
 23
6.660280
  0
POLYLINE
  8
0
  6
CONTINUOUS
 66
     1
 40
0.000000
 41
0.000000
  0
VERTEX
  8
0
  6
CONTINUOUS
 10
5.714720
 20
6.376920
  0
VERTEX
  8
0
  6
CONTINUOUS
 10
6.358880
 20
6.744320
  0
VERTEX
  8
0
  6
CONTINUOUS
 10
6.446440
 20
6.660280
  0
VERTEX
  8
0
  6
CONTINUOUS
 10
5.802280
 20
6.292880
  0
VERTEX
  8
0
  6
CONTINUOUS
 10
5.714720
 20
6.376920
  0
SEQEND
  8
0
  0
SOLID
  8
0
 62
    15
 10
5.802280
 20
6.292880
 11
6.446440
 21
6.660280
 12
5.855520
 22
6.193000
 13
6.499680
 23
6.560840
  0
POLYLINE
  8
0
  6
CONTINUOUS
 66
     1
 40
0.000000
 41
0.000000
  0
VERTEX
  8
0
  6
CONTINUOUS
 10
5.802280
 20
6.292880
  0
VERTEX
  8
0
  6
CONTINUOUS
 10
6.446440
 20
6.660280
  0
VERTEX
  8
0
  6
CONTINUOUS
 10
6.499680
 20
6.560840
  0
VERTEX
  8
0
  6
CONTINUOUS
 10
5.855520
 20
6.193000
  0
VERTEX
  8
0
  6
CONTINUOUS
 10
5.802280
 20
6.292880
  0
SEQEND
  8
0
  0
SOLID
  8
0
 62
    15
 10
5.855520
 20
6.193000
 11
6.499680
 21
6.560840
 12
5.874880
 22
6.085640
 13
6.519040
 23
6.453040
  0
POLYLINE
  8
0
  6
CONTINUOUS
 66
     1
 40
0.000000
 41
0.000000
  0
VERTEX
  8
0
  6
CONTINUOUS
 10
5.855520
 20
6.193000
  0
VERTEX
  8
0
  6
CONTINUOUS
 10
6.499680
 20
6.560840
  0
VERTEX
  8
0
  6
CONTINUOUS
 10
6.519040
 20
6.453040
  0
VERTEX
  8
0
  6
CONTINUOUS
 10
5.874880
 20
6.085640
  0
VERTEX
  8
0
  6
CONTINUOUS
 10
5.855520
 20
6.193000
  0
SEQEND
  8
0
  0
SOLID
  8
0
 62
    15
 10
5.874880
 20
6.085640
 11
6.519040
 21
6.453040
 12
5.861240
 22
5.977840
 13
6.504960
 23
6.345240
  0
POLYLINE
  8
0
  6
CONTINUOUS
 66
     1
 40
0.000000
 41
0.000000
  0
VERTEX
  8
0
  6
CONTINUOUS
 10
5.874880
 20
6.085640
  0
VERTEX
  8
0
  6
CONTINUOUS
 10
6.519040
 20
6.453040
  0
VERTEX
  8
0
  6
CONTINUOUS
 10
6.504960
 20
6.345240
  0
VERTEX
  8
0
  6
CONTINUOUS
 10
5.861240
 20
5.977840
  0
VERTEX
  8
0
  6
CONTINUOUS
 10
5.874880
 20
6.085640
  0
SEQEND
  8
0
  0
SOLID
  8
0
 62
    15
 10
5.861240
 20
5.977840
 11
6.504960
 21
6.345240
 12
5.815480
 22
5.877080
 13
6.459200
 23
6.244480
  0
POLYLINE
  8
0
  6
CONTINUOUS
 66
     1
 40
0.000000
 41
0.000000
  0
VERTEX
  8
0
  6
CONTINUOUS
 10
5.861240
 20
5.977840
  0
VERTEX
  8
0
  6
CONTINUOUS
 10
6.504960
 20
6.345240
  0
VERTEX
  8
0
  6
CONTINUOUS
 10
6.459200
 20
6.244480
  0
VERTEX
  8
0
  6
CONTINUOUS
 10
5.815480
 20
5.877080
  0
VERTEX
  8
0
  6
CONTINUOUS
 10
5.861240
 20
5.977840
  0
SEQEND
  8
0
  0
SOLID
  8
0
 62
    15
 10
5.515400
 20
5.577440
 11
6.159560
 21
5.944840
 12
5.487240
 22
5.524640
 13
6.131400
 23
5.892040
  0
POLYLINE
  8
0
  6
CONTINUOUS
 66
     1
 40
0.000000
 41
0.000000
  0
VERTEX
  8
0
  6
CONTINUOUS
 10
5.515400
 20
5.577440
  0
VERTEX
  8
0
  6
CONTINUOUS
 10
6.159560
 20
5.944840
  0
VERTEX
  8
0
  6
CONTINUOUS
 10
6.131400
 20
5.892040
  0
VERTEX
  8
0
  6
CONTINUOUS
 10
5.487240
 20
5.524640
  0
VERTEX
  8
0
  6
CONTINUOUS
 10
5.515400
 20
5.577440
  0
SEQEND
  8
0
  0
SOLID
  8
0
 62
    15
 10
5.563360
 20
5.610880
 11
6.207080
 21
5.978720
 12
5.515400
 22
5.577440
 13
6.159560
 23
5.944840
  0
POLYLINE
  8
0
  6
CONTINUOUS
 66
     1
 40
0.000000
 41
0.000000
  0
VERTEX
  8
0
  6
CONTINUOUS
 10
5.563360
 20
5.610880
  0
VERTEX
  8
0
  6
CONTINUOUS
 10
6.207080
 20
5.978720
  0
VERTEX
  8
0
  6
CONTINUOUS
 10
6.159560
 20
5.944840
  0
VERTEX
  8
0
  6
CONTINUOUS
 10
5.515400
 20
5.577440
  0
VERTEX
  8
0
  6
CONTINUOUS
 10
5.563360
 20
5.610880
  0
SEQEND
  8
0
  0
SOLID
  8
0
 62
    15
 10
5.630240
 20
5.727480
 11
6.273960
 21
6.094880
 12
5.630240
 22
5.624080
 13
6.273960
 23
5.991480
  0
POLYLINE
  8
0
  6
CONTINUOUS
 66
     1
 40
0.000000
 41
0.000000
  0
VERTEX
  8
0
  6
CONTINUOUS
 10
5.630240
 20
5.727480
  0
VERTEX
  8
0
  6
CONTINUOUS
 10
6.273960
 20
6.094880
  0
VERTEX
  8
0
  6
CONTINUOUS
 10
6.273960
 20
5.991480
  0
VERTEX
  8
0
  6
CONTINUOUS
 10
5.630240
 20
5.624080
  0
VERTEX
  8
0
  6
CONTINUOUS
 10
5.630240
 20
5.727480
  0
SEQEND
  8
0
  0
SOLID
  8
0
 62
    15
 10
5.738040
 20
5.791280
 11
6.382200
 21
6.158680
 12
5.630240
 22
5.727480
 13
6.273960
 23
6.094880
  0
POLYLINE
  8
0
  6
CONTINUOUS
 66
     1
 40
0.000000
 41
0.000000
  0
VERTEX
  8
0
  6
CONTINUOUS
 10
5.738040
 20
5.791280
  0
VERTEX
  8
0
  6
CONTINUOUS
 10
6.382200
 20
6.158680
  0
VERTEX
  8
0
  6
CONTINUOUS
 10
6.273960
 20
6.094880
  0
VERTEX
  8
0
  6
CONTINUOUS
 10
5.630240
 20
5.727480
  0
VERTEX
  8
0
  6
CONTINUOUS
 10
5.738040
 20
5.791280
  0
SEQEND
  8
0
  0
SOLID
  8
0
 62
    15
 10
5.815480
 20
5.877080
 11
6.459200
 21
6.244480
 12
5.738040
 22
5.791280
 13
6.382200
 23
6.158680
  0
POLYLINE
  8
0
  6
CONTINUOUS
 66
     1
 40
0.000000
 41
0.000000
  0
VERTEX
  8
0
  6
CONTINUOUS
 10
5.815480
 20
5.877080
  0
VERTEX
  8
0
  6
CONTINUOUS
 10
6.459200
 20
6.244480
  0
VERTEX
  8
0
  6
CONTINUOUS
 10
6.382200
 20
6.158680
  0
VERTEX
  8
0
  6
CONTINUOUS
 10
5.738040
 20
5.791280
  0
VERTEX
  8
0
  6
CONTINUOUS
 10
5.815480
 20
5.877080
  0
SEQEND
  8
0
  0
SOLID
  8
0
 62
    15
 10
5.422120
 20
5.455120
 11
6.066280
 21
5.822520
 12
5.422120
 22
4.737040
 13
6.066280
 23
5.104440
  0
POLYLINE
  8
0
  6
CONTINUOUS
 66
     1
 40
0.000000
 41
0.000000
  0
VERTEX
  8
0
  6
CONTINUOUS
 10
5.422120
 20
5.455120
  0
VERTEX
  8
0
  6
CONTINUOUS
 10
6.066280
 20
5.822520
  0
VERTEX
  8
0
  6
CONTINUOUS
 10
6.066280
 20
5.104440
  0
VERTEX
  8
0
  6
CONTINUOUS
 10
5.422120
 20
4.737040
  0
VERTEX
  8
0
  6
CONTINUOUS
 10
5.422120
 20
5.455120
  0
SEQEND
  8
0
  0
SOLID
  8
0
 62
    15
 10
5.487240
 20
5.524640
 11
6.131400
 21
5.892040
 12
5.478440
 22
5.455120
 13
6.122600
 23
5.822520
  0
POLYLINE
  8
0
  6
CONTINUOUS
 66
     1
 40
0.000000
 41
0.000000
  0
VERTEX
  8
0
  6
CONTINUOUS
 10
5.487240
 20
5.524640
  0
VERTEX
  8
0
  6
CONTINUOUS
 10
6.131400
 20
5.892040
  0
VERTEX
  8
0
  6
CONTINUOUS
 10
6.122600
 20
5.822520
  0
VERTEX
  8
0
  6
CONTINUOUS
 10
5.478440
 20
5.455120
  0
VERTEX
  8
0
  6
CONTINUOUS
 10
5.487240
 20
5.524640
  0
SEQEND
  8
0
  0
SOLID
  8
0
 62
    15
 10
5.422120
 20
4.737040
 11
6.066280
 21
5.104440
 12
5.422560
 22
4.712400
 13
6.066280
 23
5.080240
  0
POLYLINE
  8
0
  6
CONTINUOUS
 66
     1
 40
0.000000
 41
0.000000
  0
VERTEX
  8
0
  6
CONTINUOUS
 10
5.422120
 20
4.737040
  0
VERTEX
  8
0
  6
CONTINUOUS
 10
6.066280
 20
5.104440
  0
VERTEX
  8
0
  6
CONTINUOUS
 10
6.066280
 20
5.080240
  0
VERTEX
  8
0
  6
CONTINUOUS
 10
5.422560
 20
4.712400
  0
VERTEX
  8
0
  6
CONTINUOUS
 10
5.422120
 20
4.737040
  0
SEQEND
  8
0
  0
SOLID
  8
0
 62
    15
 10
5.422560
 20
4.712400
 11
6.066280
 21
5.080240
 12
5.422120
 22
4.686000
 13
6.065840
 23
5.053840
  0
POLYLINE
  8
0
  6
CONTINUOUS
 66
     1
 40
0.000000
 41
0.000000
  0
VERTEX
  8
0
  6
CONTINUOUS
 10
5.422560
 20
4.712400
  0
VERTEX
  8
0
  6
CONTINUOUS
 10
6.066280
 20
5.080240
  0
VERTEX
  8
0
  6
CONTINUOUS
 10
6.065840
 20
5.053840
  0
VERTEX
  8
0
  6
CONTINUOUS
 10
5.422120
 20
4.686000
  0
VERTEX
  8
0
  6
CONTINUOUS
 10
5.422560
 20
4.712400
  0
SEQEND
  8
0
  0
SOLID
  8
0
 62
    15
 10
5.297600
 20
4.575560
 11
5.941320
 21
4.942960
 12
5.297600
 22
4.555320
 13
5.941320
 23
4.923160
  0
POLYLINE
  8
0
  6
CONTINUOUS
 66
     1
 40
0.000000
 41
0.000000
  0
VERTEX
  8
0
  6
CONTINUOUS
 10
5.297600
 20
4.575560
  0
VERTEX
  8
0
  6
CONTINUOUS
 10
5.941320
 20
4.942960
  0
VERTEX
  8
0
  6
CONTINUOUS
 10
5.941320
 20
4.923160
  0
VERTEX
  8
0
  6
CONTINUOUS
 10
5.297600
 20
4.555320
  0
VERTEX
  8
0
  6
CONTINUOUS
 10
5.297600
 20
4.575560
  0
SEQEND
  8
0
  0
SOLID
  8
0
 62
    15
 10
5.297600
 20
4.555320
 11
5.941320
 21
4.923160
 12
5.344240
 22
4.547400
 13
5.987960
 23
4.915240
  0
POLYLINE
  8
0
  6
CONTINUOUS
 66
     1
 40
0.000000
 41
0.000000
  0
VERTEX
  8
0
  6
CONTINUOUS
 10
5.297600
 20
4.555320
  0
VERTEX
  8
0
  6
CONTINUOUS
 10
5.941320
 20
4.923160
  0
VERTEX
  8
0
  6
CONTINUOUS
 10
5.987960
 20
4.915240
  0
VERTEX
  8
0
  6
CONTINUOUS
 10
5.344240
 20
4.547400
  0
VERTEX
  8
0
  6
CONTINUOUS
 10
5.297600
 20
4.555320
  0
SEQEND
  8
0
  0
SOLID
  8
0
 62
    15
 10
5.422120
 20
4.686000
 11
6.065840
 21
5.053840
 12
5.411120
 22
4.633640
 13
6.055280
 23
5.001040
  0
POLYLINE
  8
0
  6
CONTINUOUS
 66
     1
 40
0.000000
 41
0.000000
  0
VERTEX
  8
0
  6
CONTINUOUS
 10
5.422120
 20
4.686000
  0
VERTEX
  8
0
  6
CONTINUOUS
 10
6.065840
 20
5.053840
  0
VERTEX
  8
0
  6
CONTINUOUS
 10
6.055280
 20
5.001040
  0
VERTEX
  8
0
  6
CONTINUOUS
 10
5.411120
 20
4.633640
  0
VERTEX
  8
0
  6
CONTINUOUS
 10
5.422120
 20
4.686000
  0
SEQEND
  8
0
  0
SOLID
  8
0
 62
    15
 10
5.411120
 20
4.633640
 11
6.055280
 21
5.001040
 12
5.374600
 22
4.592280
 13
6.018760
 23
4.959680
  0
POLYLINE
  8
0
  6
CONTINUOUS
 66
     1
 40
0.000000
 41
0.000000
  0
VERTEX
  8
0
  6
CONTINUOUS
 10
5.411120
 20
4.633640
  0
VERTEX
  8
0
  6
CONTINUOUS
 10
6.055280
 20
5.001040
  0
VERTEX
  8
0
  6
CONTINUOUS
 10
6.018760
 20
4.959680
  0
VERTEX
  8
0
  6
CONTINUOUS
 10
5.374600
 20
4.592280
  0
VERTEX
  8
0
  6
CONTINUOUS
 10
5.411120
 20
4.633640
  0
SEQEND
  8
0
  0
SOLID
  8
0
 62
    15
 10
5.344240
 20
4.547400
 11
5.987960
 21
4.915240
 12
5.377240
 22
4.526720
 13
6.021400
 23
4.894120
  0
POLYLINE
  8
0
  6
CONTINUOUS
 66
     1
 40
0.000000
 41
0.000000
  0
VERTEX
  8
0
  6
CONTINUOUS
 10
5.344240
 20
4.547400
  0
VERTEX
  8
0
  6
CONTINUOUS
 10
5.987960
 20
4.915240
  0
VERTEX
  8
0
  6
CONTINUOUS
 10
6.021400
 20
4.894120
  0
VERTEX
  8
0
  6
CONTINUOUS
 10
5.377240
 20
4.526720
  0
VERTEX
  8
0
  6
CONTINUOUS
 10
5.344240
 20
4.547400
  0
SEQEND
  8
0
  0
SOLID
  8
0
 62
    15
 10
5.377240
 20
4.526720
 11
6.021400
 21
4.894120
 12
5.397480
 22
4.497240
 13
6.041200
 23
4.864640
  0
POLYLINE
  8
0
  6
CONTINUOUS
 66
     1
 40
0.000000
 41
0.000000
  0
VERTEX
  8
0
  6
CONTINUOUS
 10
5.377240
 20
4.526720
  0
VERTEX
  8
0
  6
CONTINUOUS
 10
6.021400
 20
4.894120
  0
VERTEX
  8
0
  6
CONTINUOUS
 10
6.041200
 20
4.864640
  0
VERTEX
  8
0
  6
CONTINUOUS
 10
5.397480
 20
4.497240
  0
VERTEX
  8
0
  6
CONTINUOUS
 10
5.377240
 20
4.526720
  0
SEQEND
  8
0
  0
SOLID
  8
0
 62
    15
 10
5.397480
 20
4.497240
 11
6.041200
 21
4.864640
 12
5.404080
 22
4.463360
 13
6.047800
 23
4.830760
  0
POLYLINE
  8
0
  6
CONTINUOUS
 66
     1
 40
0.000000
 41
0.000000
  0
VERTEX
  8
0
  6
CONTINUOUS
 10
5.397480
 20
4.497240
  0
VERTEX
  8
0
  6
CONTINUOUS
 10
6.041200
 20
4.864640
  0
VERTEX
  8
0
  6
CONTINUOUS
 10
6.047800
 20
4.830760
  0
VERTEX
  8
0
  6
CONTINUOUS
 10
5.404080
 20
4.463360
  0
VERTEX
  8
0
  6
CONTINUOUS
 10
5.397480
 20
4.497240
  0
SEQEND
  8
0
  0
SOLID
  8
0
 62
    15
 10
5.404080
 20
4.463360
 11
6.047800
 21
4.830760
 12
5.397480
 22
4.429480
 13
6.041200
 23
4.797320
  0
POLYLINE
  8
0
  6
CONTINUOUS
 66
     1
 40
0.000000
 41
0.000000
  0
VERTEX
  8
0
  6
CONTINUOUS
 10
5.404080
 20
4.463360
  0
VERTEX
  8
0
  6
CONTINUOUS
 10
6.047800
 20
4.830760
  0
VERTEX
  8
0
  6
CONTINUOUS
 10
6.041200
 20
4.797320
  0
VERTEX
  8
0
  6
CONTINUOUS
 10
5.397480
 20
4.429480
  0
VERTEX
  8
0
  6
CONTINUOUS
 10
5.404080
 20
4.463360
  0
SEQEND
  8
0
  0
SOLID
  8
0
 62
    15
 10
5.377240
 20
4.400000
 11
6.021400
 21
4.767840
 12
5.344240
 22
4.379320
 13
5.987960
 23
4.746720
  0
POLYLINE
  8
0
  6
CONTINUOUS
 66
     1
 40
0.000000
 41
0.000000
  0
VERTEX
  8
0
  6
CONTINUOUS
 10
5.377240
 20
4.400000
  0
VERTEX
  8
0
  6
CONTINUOUS
 10
6.021400
 20
4.767840
  0
VERTEX
  8
0
  6
CONTINUOUS
 10
5.987960
 20
4.746720
  0
VERTEX
  8
0
  6
CONTINUOUS
 10
5.344240
 20
4.379320
  0
VERTEX
  8
0
  6
CONTINUOUS
 10
5.377240
 20
4.400000
  0
SEQEND
  8
0
  0
SOLID
  8
0
 62
    15
 10
5.397480
 20
4.429480
 11
6.041200
 21
4.797320
 12
5.377240
 22
4.400000
 13
6.021400
 23
4.767840
  0
POLYLINE
  8
0
  6
CONTINUOUS
 66
     1
 40
0.000000
 41
0.000000
  0
VERTEX
  8
0
  6
CONTINUOUS
 10
5.397480
 20
4.429480
  0
VERTEX
  8
0
  6
CONTINUOUS
 10
6.041200
 20
4.797320
  0
VERTEX
  8
0
  6
CONTINUOUS
 10
6.021400
 20
4.767840
  0
VERTEX
  8
0
  6
CONTINUOUS
 10
5.377240
 20
4.400000
  0
VERTEX
  8
0
  6
CONTINUOUS
 10
5.397480
 20
4.429480
  0
SEQEND
  8
0
  0
POLYLINE
  8
0
  6
CONTINUOUS
 66
     1
 40
0.000000
 41
0.000000
  0
VERTEX
  8
0
  6
CONTINUOUS
 10
3.202760
 20
4.371400
  0
VERTEX
  8
0
  6
CONTINUOUS
 10
3.156120
 20
4.379320
  0
VERTEX
  8
0
  6
CONTINUOUS
 10
3.122680
 20
4.400000
  0
VERTEX
  8
0
  6
CONTINUOUS
 10
3.102880
 20
4.429480
  0
VERTEX
  8
0
  6
CONTINUOUS
 10
3.096280
 20
4.463360
  0
VERTEX
  8
0
  6
CONTINUOUS
 10
3.102880
 20
4.497240
  0
VERTEX
  8
0
  6
CONTINUOUS
 10
3.122680
 20
4.526720
  0
VERTEX
  8
0
  6
CONTINUOUS
 10
3.156120
 20
4.547400
  0
VERTEX
  8
0
  6
CONTINUOUS
 10
3.202760
 20
4.555320
  0
VERTEX
  8
0
  6
CONTINUOUS
 10
3.202760
 20
4.575560
  0
VERTEX
  8
0
  6
CONTINUOUS
 10
3.157880
 20
4.579960
  0
VERTEX
  8
0
  6
CONTINUOUS
 10
3.125320
 20
4.592280
  0
VERTEX
  8
0
  6
CONTINUOUS
 10
3.088800
 20
4.633640
  0
VERTEX
  8
0
  6
CONTINUOUS
 10
3.078240
 20
4.686000
  0
VERTEX
  8
0
  6
CONTINUOUS
 10
3.077800
 20
4.737040
  0
VERTEX
  8
0
  6
CONTINUOUS
 10
3.077800
 20
5.455120
  0
VERTEX
  8
0
  6
CONTINUOUS
 10
3.021480
 20
5.455120
  0
VERTEX
  8
0
  6
CONTINUOUS
 10
3.012680
 20
5.524640
  0
VERTEX
  8
0
  6
CONTINUOUS
 10
2.984520
 20
5.577440
  0
VERTEX
  8
0
  6
CONTINUOUS
 10
2.936560
 20
5.610880
  0
VERTEX
  8
0
  6
CONTINUOUS
 10
2.869680
 20
5.624080
  0
VERTEX
  8
0
  6
CONTINUOUS
 10
2.869680
 20
5.727480
  0
VERTEX
  8
0
  6
CONTINUOUS
 10
2.761880
 20
5.791280
  0
VERTEX
  8
0
  6
CONTINUOUS
 10
2.684880
 20
5.877080
  0
VERTEX
  8
0
  6
CONTINUOUS
 10
2.638680
 20
5.977840
  0
VERTEX
  8
0
  6
CONTINUOUS
 10
2.625040
 20
6.085640
  0
VERTEX
  8
0
  6
CONTINUOUS
 10
2.644400
 20
6.193000
  0
VERTEX
  8
0
  6
CONTINUOUS
 10
2.697640
 20
6.292880
  0
VERTEX
  8
0
  6
CONTINUOUS
 10
2.785200
 20
6.376920
  0
VERTEX
  8
0
  6
CONTINUOUS
 10
2.908400
 20
6.438080
  0
VERTEX
  8
0
  6
CONTINUOUS
 10
2.908400
 20
6.567880
  0
VERTEX
  8
0
  6
CONTINUOUS
 10
3.034240
 20
6.572720
  0
VERTEX
  8
0
  6
CONTINUOUS
 10
3.146000
 20
6.585920
  0
VERTEX
  8
0
  6
CONTINUOUS
 10
3.337400
 20
6.630360
  0
VERTEX
  8
0
  6
CONTINUOUS
 10
3.751000
 20
6.774680
  0
VERTEX
  8
0
  6
CONTINUOUS
 10
3.872440
 20
6.820880
  0
VERTEX
  8
0
  6
CONTINUOUS
 10
3.927880
 20
6.838920
  0
VERTEX
  8
0
  6
CONTINUOUS
 10
4.056360
 20
6.864440
  0
VERTEX
  8
0
  6
CONTINUOUS
 10
4.142160
 20
6.870160
  0
VERTEX
  8
0
  6
CONTINUOUS
 10
4.250400
 20
6.871040
  0
VERTEX
  8
0
  6
CONTINUOUS
 10
4.358200
 20
6.870160
  0
VERTEX
  8
0
  6
CONTINUOUS
 10
4.443560
 20
6.864440
  0
VERTEX
  8
0
  6
CONTINUOUS
 10
4.572480
 20
6.838920
  0
VERTEX
  8
0
  6
CONTINUOUS
 10
4.627480
 20
6.820880
  0
VERTEX
  8
0
  6
CONTINUOUS
 10
4.748920
 20
6.774680
  0
VERTEX
  8
0
  6
CONTINUOUS
 10
5.162520
 20
6.630360
  0
VERTEX
  8
0
  6
CONTINUOUS
 10
5.353920
 20
6.585920
  0
VERTEX
  8
0
  6
CONTINUOUS
 10
5.465680
 20
6.572720
  0
VERTEX
  8
0
  6
CONTINUOUS
 10
5.591960
 20
6.567880
  0
VERTEX
  8
0
  6
CONTINUOUS
 10
5.591960
 20
6.438080
  0
VERTEX
  8
0
  6
CONTINUOUS
 10
5.714720
 20
6.376920
  0
VERTEX
  8
0
  6
CONTINUOUS
 10
5.802280
 20
6.292880
  0
VERTEX
  8
0
  6
CONTINUOUS
 10
5.855520
 20
6.193000
  0
VERTEX
  8
0
  6
CONTINUOUS
 10
5.874880
 20
6.085640
  0
VERTEX
  8
0
  6
CONTINUOUS
 10
5.861240
 20
5.977840
  0
VERTEX
  8
0
  6
CONTINUOUS
 10
5.815480
 20
5.877080
  0
VERTEX
  8
0
  6
CONTINUOUS
 10
5.738040
 20
5.791280
  0
VERTEX
  8
0
  6
CONTINUOUS
 10
5.630240
 20
5.727480
  0
VERTEX
  8
0
  6
CONTINUOUS
 10
5.630240
 20
5.624080
  0
VERTEX
  8
0
  6
CONTINUOUS
 10
5.563360
 20
5.610880
  0
VERTEX
  8
0
  6
CONTINUOUS
 10
5.515400
 20
5.577440
  0
VERTEX
  8
0
  6
CONTINUOUS
 10
5.487240
 20
5.524640
  0
VERTEX
  8
0
  6
CONTINUOUS
 10
5.478440
 20
5.455120
  0
VERTEX
  8
0
  6
CONTINUOUS
 10
5.422120
 20
5.455120
  0
VERTEX
  8
0
  6
CONTINUOUS
 10
5.422120
 20
4.686000
  0
VERTEX
  8
0
  6
CONTINUOUS
 10
5.411120
 20
4.633640
  0
VERTEX
  8
0
  6
CONTINUOUS
 10
5.374600
 20
4.592280
  0
VERTEX
  8
0
  6
CONTINUOUS
 10
5.342040
 20
4.579960
  0
VERTEX
  8
0
  6
CONTINUOUS
 10
5.297600
 20
4.575560
  0
VERTEX
  8
0
  6
CONTINUOUS
 10
5.297600
 20
4.555320
  0
VERTEX
  8
0
  6
CONTINUOUS
 10
5.344240
 20
4.547400
  0
VERTEX
  8
0
  6
CONTINUOUS
 10
5.377240
 20
4.526720
  0
VERTEX
  8
0
  6
CONTINUOUS
 10
5.397480
 20
4.497240
  0
VERTEX
  8
0
  6
CONTINUOUS
 10
5.404080
 20
4.463360
  0
VERTEX
  8
0
  6
CONTINUOUS
 10
5.397480
 20
4.429480
  0
VERTEX
  8
0
  6
CONTINUOUS
 10
5.377240
 20
4.400000
  0
VERTEX
  8
0
  6
CONTINUOUS
 10
5.344240
 20
4.379320
  0
VERTEX
  8
0
  6
CONTINUOUS
 10
5.297600
 20
4.371400
  0
VERTEX
  8
0
  6
CONTINUOUS
 10
3.202760
 20
4.371400
  0
SEQEND
  8
0
  0
TEXT
  8
0
 10
4.230600
 20
4.178680
 40
0.138384
  1
BA  1222
 41
1.000000
  7
SN0
 71
     0
 72
     5
 11
4.915437
 21
4.178680
  0
TEXT
  8
0
 10
4.047120
 20
3.987280
 40
0.138384
  1
2-1/2" x 2-1/4"
 41
1.000000
  7
SN0
 71
     0
 72
     5
 11
5.101530
 21
3.987280
  0
TEXT
  8
0
 10
4.037440
 20
7.986880
 40
0.138384
  1
BA  1222
 41
1.000000
  7
SN0
 71
     0
 72
     5
 11
4.722277
 21
7.986880
  0
TEXT
  8
0
 10
3.853960
 20
7.795040
 40
0.138384
  1
2-1/2" x 2-1/4"
 41
1.000000
  7
SN0
 71
     0
 72
     5
 11
4.908370
 21
7.795040
  0
ENDSEC
  0
EOF
