  0
SECTION
  2
HEADER
  9
$ACADVER
  1
AC1006
  9
$EXTMIN
 10
2.290200
 20
1.543520
  9
$EXTMAX
 10
5.775880
 20
8.391680
  9
$LTSCALE
 40
0.044000
  9
$PDMODE
 70
    35
  9
$PDSIZE
 40
0.035200
  0
ENDSEC
  0
SECTION
  2
TABLES
  0
TABLE
  2
LTYPE
 70
     9
  0
LTYPE
  2
CONTINUOUS
 70
    64
  3
Solid line
 72
    65
 73
     0
 40
0.000000
  0
LTYPE
  2
DASHED
 70
    64
  3
__ __ __ __ __ __ __ __ __ __ __ __ __ __ __
 72
    65
 73
     2
 40
0.000330
 49
0.000220
 49
-0.000110
  0
LTYPE
  2
HIDDEN
 70
    64
  3
 _ _ _ _ _ _ _ _ _ _ _ _ _ _ _ _ _ _ _ _ _ _
 72
    65
 73
     2
 40
0.000165
 49
0.000110
 49
-0.000055
  0
LTYPE
  2
CENTER
 70
    64
  3
____ _ ____ _ ____ _ ____ _ ____ _ ____ _ ____
 72
    65
 73
     4
 40
0.000880
 49
0.000550
 49
-0.000110
 49
0.000110
 49
-0.000110
  0
LTYPE
  2
PHANTOM
 70
    64
  3
_____ _ _ _____ _ _ _____ _ _ _____ _ _ ____
 72
    65
 73
     6
 40
0.001100
 49
0.000550
 49
-0.000110
 49
0.000110
 49
-0.000110
 49
0.000110
 49
-0.000110
  0
LTYPE
  2
DOT
 70
    64
  3
...............................................
 72
    65
 73
     2
 40
0.000110
 49
0.000000
 49
-0.000110
  0
LTYPE
  2
DASHDOT
 70
    64
  3
__ . __ . __ . __ . __ . __ . __ . __ . __ . __
 72
    65
 73
     4
 40
0.000440
 49
0.000220
 49
-0.000110
 49
0.000000
 49
-0.000110
  0
LTYPE
  2
BORDER
 70
    64
  3
__ __ . __ __ . __ __ . __ __ . __ __ . __ __
 72
    65
 73
     6
 40
0.000770
 49
0.000220
 49
-0.000110
 49
0.000220
 49
-0.000110
 49
0.000000
 49
-0.000110
  0
LTYPE
  2
DIVIDE
 70
    64
  3
__ . . __ . . __ . . __ . . __ . . __ . . __
 72
    65
 73
     6
 40
0.000550
 49
0.000220
 49
-0.000110
 49
0.000000
 49
-0.000110
 49
0.000000
 49
-0.000110
  0
LTYPE
  2
DOTDOT
 70
    64
  3
 . .  . .  . .  . .  . .  . . 
 72
    65
 73
     5
 40
0.000242
 49
-0.000110
 49
0.000000
 49
-0.000110
 49
0.000000
 49
-0.000110
  0
ENDTAB
  0
TABLE
  2
STYLE
 70
     2
  0
STYLE
 70
     0
  2
SN0
 40
0.000000
 41
0.000440
 50
0.000000
 71
     0
 42
0.000000
  3
ROMAND
  0
STYLE
 70
    68
  2
SV0
 40
0.000000
 41
0.000440
 50
0.000000
 71
     0
 42
0.000000
  3
ROMAND
  0
ENDTAB
  0
TABLE
  2
LAYER
 70
     3
  0
LAYER
  2
FOREGROUND
 70
    64
 62
     7
  6
CONTINUOUS
  0
LAYER
  2
BACKGROUND
 70
    65
 62
    -7
  6
CONTINUOUS
  0
LAYER
  2
0
 70
    64
 62
     7
  6
CONTINUOUS
  0
ENDTAB
  0
ENDSEC
  0
SECTION
  2
ENTITIES
  0
POLYLINE
  8
FOREGROUND
  6
CONTINUOUS
 66
     1
 40
0.000000
 41
0.000000
  0
VERTEX
  8
FOREGROUND
  6
CONTINUOUS
 10
0.000000
 20
9.935200
  0
VERTEX
  8
FOREGROUND
  6
CONTINUOUS
 10
8.499920
 20
9.935200
  0
VERTEX
  8
FOREGROUND
  6
CONTINUOUS
 10
8.499920
 20
-1.064800
  0
VERTEX
  8
FOREGROUND
  6
CONTINUOUS
 10
0.000000
 20
-1.064800
  0
VERTEX
  8
FOREGROUND
  6
CONTINUOUS
 10
0.000000
 20
9.935200
  0
SEQEND
  8
0
  0
POLYLINE
  8
FOREGROUND
  6
CONTINUOUS
 66
     1
 40
0.000000
 41
0.000000
  0
VERTEX
  8
FOREGROUND
  6
CONTINUOUS
 10
0.000000
 20
9.935200
  0
VERTEX
  8
FOREGROUND
  6
CONTINUOUS
 10
8.499920
 20
9.935200
  0
VERTEX
  8
FOREGROUND
  6
CONTINUOUS
 10
8.499920
 20
-1.064800
  0
VERTEX
  8
FOREGROUND
  6
CONTINUOUS
 10
0.000000
 20
-1.064800
  0
VERTEX
  8
FOREGROUND
  6
CONTINUOUS
 10
0.000000
 20
9.935200
  0
SEQEND
  8
0
  0
SOLID
  8
0
 62
    15
 10
4.225320
 20
5.061320
 11
4.224000
 21
5.804480
 12
4.310240
 22
5.084640
 13
4.309360
 23
5.828240
  0
POLYLINE
  8
0
  6
CONTINUOUS
 66
     1
 40
0.000000
 41
0.000000
  0
VERTEX
  8
0
  6
CONTINUOUS
 10
4.225320
 20
5.061320
  0
VERTEX
  8
0
  6
CONTINUOUS
 10
4.224000
 20
5.804480
  0
VERTEX
  8
0
  6
CONTINUOUS
 10
4.309360
 20
5.828240
  0
VERTEX
  8
0
  6
CONTINUOUS
 10
4.310240
 20
5.084640
  0
VERTEX
  8
0
  6
CONTINUOUS
 10
4.225320
 20
5.061320
  0
SEQEND
  8
0
  0
SOLID
  8
0
 62
    15
 10
2.831400
 20
5.538280
 11
2.830080
 21
6.281440
 12
2.918960
 22
5.511440
 13
2.917640
 23
6.255040
  0
POLYLINE
  8
0
  6
CONTINUOUS
 66
     1
 40
0.000000
 41
0.000000
  0
VERTEX
  8
0
  6
CONTINUOUS
 10
2.831400
 20
5.538280
  0
VERTEX
  8
0
  6
CONTINUOUS
 10
2.830080
 20
6.281440
  0
VERTEX
  8
0
  6
CONTINUOUS
 10
2.917640
 20
6.255040
  0
VERTEX
  8
0
  6
CONTINUOUS
 10
2.918960
 20
5.511440
  0
VERTEX
  8
0
  6
CONTINUOUS
 10
2.831400
 20
5.538280
  0
SEQEND
  8
0
  0
SOLID
  8
0
 62
    15
 10
2.918960
 20
5.511440
 11
2.917640
 21
6.255040
 12
2.930400
 22
5.412000
 13
2.929080
 23
6.155600
  0
POLYLINE
  8
0
  6
CONTINUOUS
 66
     1
 40
0.000000
 41
0.000000
  0
VERTEX
  8
0
  6
CONTINUOUS
 10
2.918960
 20
5.511440
  0
VERTEX
  8
0
  6
CONTINUOUS
 10
2.917640
 20
6.255040
  0
VERTEX
  8
0
  6
CONTINUOUS
 10
2.929080
 20
6.155600
  0
VERTEX
  8
0
  6
CONTINUOUS
 10
2.930400
 20
5.412000
  0
VERTEX
  8
0
  6
CONTINUOUS
 10
2.918960
 20
5.511440
  0
SEQEND
  8
0
  0
SOLID
  8
0
 62
    15
 10
2.930400
 20
5.412000
 11
2.929080
 21
6.155600
 12
2.983640
 22
5.412000
 13
2.982320
 23
6.155600
  0
POLYLINE
  8
0
  6
CONTINUOUS
 66
     1
 40
0.000000
 41
0.000000
  0
VERTEX
  8
0
  6
CONTINUOUS
 10
2.930400
 20
5.412000
  0
VERTEX
  8
0
  6
CONTINUOUS
 10
2.929080
 20
6.155600
  0
VERTEX
  8
0
  6
CONTINUOUS
 10
2.982320
 20
6.155600
  0
VERTEX
  8
0
  6
CONTINUOUS
 10
2.983640
 20
5.412000
  0
VERTEX
  8
0
  6
CONTINUOUS
 10
2.930400
 20
5.412000
  0
SEQEND
  8
0
  0
SOLID
  8
0
 62
    15
 10
2.983640
 20
5.412000
 11
2.982320
 21
6.155600
 12
3.026760
 22
5.471400
 13
3.025880
 23
6.214560
  0
POLYLINE
  8
0
  6
CONTINUOUS
 66
     1
 40
0.000000
 41
0.000000
  0
VERTEX
  8
0
  6
CONTINUOUS
 10
2.983640
 20
5.412000
  0
VERTEX
  8
0
  6
CONTINUOUS
 10
2.982320
 20
6.155600
  0
VERTEX
  8
0
  6
CONTINUOUS
 10
3.025880
 20
6.214560
  0
VERTEX
  8
0
  6
CONTINUOUS
 10
3.026760
 20
5.471400
  0
VERTEX
  8
0
  6
CONTINUOUS
 10
2.983640
 20
5.412000
  0
SEQEND
  8
0
  0
SOLID
  8
0
 62
    15
 10
3.026760
 20
5.471400
 11
3.025880
 21
6.214560
 12
3.074280
 22
5.514080
 13
3.072960
 23
6.257240
  0
POLYLINE
  8
0
  6
CONTINUOUS
 66
     1
 40
0.000000
 41
0.000000
  0
VERTEX
  8
0
  6
CONTINUOUS
 10
3.026760
 20
5.471400
  0
VERTEX
  8
0
  6
CONTINUOUS
 10
3.025880
 20
6.214560
  0
VERTEX
  8
0
  6
CONTINUOUS
 10
3.072960
 20
6.257240
  0
VERTEX
  8
0
  6
CONTINUOUS
 10
3.074280
 20
5.514080
  0
VERTEX
  8
0
  6
CONTINUOUS
 10
3.026760
 20
5.471400
  0
SEQEND
  8
0
  0
SOLID
  8
0
 62
    15
 10
3.074280
 20
5.514080
 11
3.072960
 21
6.257240
 12
3.124440
 22
5.539160
 13
3.123120
 23
6.282760
  0
POLYLINE
  8
0
  6
CONTINUOUS
 66
     1
 40
0.000000
 41
0.000000
  0
VERTEX
  8
0
  6
CONTINUOUS
 10
3.074280
 20
5.514080
  0
VERTEX
  8
0
  6
CONTINUOUS
 10
3.072960
 20
6.257240
  0
VERTEX
  8
0
  6
CONTINUOUS
 10
3.123120
 20
6.282760
  0
VERTEX
  8
0
  6
CONTINUOUS
 10
3.124440
 20
5.539160
  0
VERTEX
  8
0
  6
CONTINUOUS
 10
3.074280
 20
5.514080
  0
SEQEND
  8
0
  0
SOLID
  8
0
 62
    15
 10
3.124440
 20
5.539160
 11
3.123120
 21
6.282760
 12
3.177240
 22
5.547080
 13
3.175920
 23
6.290240
  0
POLYLINE
  8
0
  6
CONTINUOUS
 66
     1
 40
0.000000
 41
0.000000
  0
VERTEX
  8
0
  6
CONTINUOUS
 10
3.124440
 20
5.539160
  0
VERTEX
  8
0
  6
CONTINUOUS
 10
3.123120
 20
6.282760
  0
VERTEX
  8
0
  6
CONTINUOUS
 10
3.175920
 20
6.290240
  0
VERTEX
  8
0
  6
CONTINUOUS
 10
3.177240
 20
5.547080
  0
VERTEX
  8
0
  6
CONTINUOUS
 10
3.124440
 20
5.539160
  0
SEQEND
  8
0
  0
SOLID
  8
0
 62
    15
 10
3.177240
 20
5.547080
 11
3.175920
 21
6.290240
 12
3.231800
 22
5.536520
 13
3.230920
 23
6.279680
  0
POLYLINE
  8
0
  6
CONTINUOUS
 66
     1
 40
0.000000
 41
0.000000
  0
VERTEX
  8
0
  6
CONTINUOUS
 10
3.177240
 20
5.547080
  0
VERTEX
  8
0
  6
CONTINUOUS
 10
3.175920
 20
6.290240
  0
VERTEX
  8
0
  6
CONTINUOUS
 10
3.230920
 20
6.279680
  0
VERTEX
  8
0
  6
CONTINUOUS
 10
3.231800
 20
5.536520
  0
VERTEX
  8
0
  6
CONTINUOUS
 10
3.177240
 20
5.547080
  0
SEQEND
  8
0
  0
SOLID
  8
0
 62
    15
 10
3.231800
 20
5.536520
 11
3.230920
 21
6.279680
 12
3.288120
 22
5.506600
 13
3.286800
 23
6.250200
  0
POLYLINE
  8
0
  6
CONTINUOUS
 66
     1
 40
0.000000
 41
0.000000
  0
VERTEX
  8
0
  6
CONTINUOUS
 10
3.231800
 20
5.536520
  0
VERTEX
  8
0
  6
CONTINUOUS
 10
3.230920
 20
6.279680
  0
VERTEX
  8
0
  6
CONTINUOUS
 10
3.286800
 20
6.250200
  0
VERTEX
  8
0
  6
CONTINUOUS
 10
3.288120
 20
5.506600
  0
VERTEX
  8
0
  6
CONTINUOUS
 10
3.231800
 20
5.536520
  0
SEQEND
  8
0
  0
SOLID
  8
0
 62
    15
 10
3.288120
 20
5.506600
 11
3.286800
 21
6.250200
 12
3.316280
 22
5.484600
 13
3.315400
 23
6.228200
  0
POLYLINE
  8
0
  6
CONTINUOUS
 66
     1
 40
0.000000
 41
0.000000
  0
VERTEX
  8
0
  6
CONTINUOUS
 10
3.288120
 20
5.506600
  0
VERTEX
  8
0
  6
CONTINUOUS
 10
3.286800
 20
6.250200
  0
VERTEX
  8
0
  6
CONTINUOUS
 10
3.315400
 20
6.228200
  0
VERTEX
  8
0
  6
CONTINUOUS
 10
3.316280
 20
5.484600
  0
VERTEX
  8
0
  6
CONTINUOUS
 10
3.288120
 20
5.506600
  0
SEQEND
  8
0
  0
SOLID
  8
0
 62
    15
 10
3.316280
 20
5.484600
 11
3.315400
 21
6.228200
 12
3.344880
 22
5.457760
 13
3.344000
 23
6.201360
  0
POLYLINE
  8
0
  6
CONTINUOUS
 66
     1
 40
0.000000
 41
0.000000
  0
VERTEX
  8
0
  6
CONTINUOUS
 10
3.316280
 20
5.484600
  0
VERTEX
  8
0
  6
CONTINUOUS
 10
3.315400
 20
6.228200
  0
VERTEX
  8
0
  6
CONTINUOUS
 10
3.344000
 20
6.201360
  0
VERTEX
  8
0
  6
CONTINUOUS
 10
3.344880
 20
5.457760
  0
VERTEX
  8
0
  6
CONTINUOUS
 10
3.316280
 20
5.484600
  0
SEQEND
  8
0
  0
SOLID
  8
0
 62
    15
 10
3.344880
 20
5.457760
 11
3.344000
 21
6.201360
 12
3.373480
 22
5.426080
 13
3.372600
 23
6.169240
  0
POLYLINE
  8
0
  6
CONTINUOUS
 66
     1
 40
0.000000
 41
0.000000
  0
VERTEX
  8
0
  6
CONTINUOUS
 10
3.344880
 20
5.457760
  0
VERTEX
  8
0
  6
CONTINUOUS
 10
3.344000
 20
6.201360
  0
VERTEX
  8
0
  6
CONTINUOUS
 10
3.372600
 20
6.169240
  0
VERTEX
  8
0
  6
CONTINUOUS
 10
3.373480
 20
5.426080
  0
VERTEX
  8
0
  6
CONTINUOUS
 10
3.344880
 20
5.457760
  0
SEQEND
  8
0
  0
SOLID
  8
0
 62
    15
 10
3.373480
 20
5.426080
 11
3.372600
 21
6.169240
 12
3.402080
 22
5.389120
 13
3.401200
 23
6.132280
  0
POLYLINE
  8
0
  6
CONTINUOUS
 66
     1
 40
0.000000
 41
0.000000
  0
VERTEX
  8
0
  6
CONTINUOUS
 10
3.373480
 20
5.426080
  0
VERTEX
  8
0
  6
CONTINUOUS
 10
3.372600
 20
6.169240
  0
VERTEX
  8
0
  6
CONTINUOUS
 10
3.401200
 20
6.132280
  0
VERTEX
  8
0
  6
CONTINUOUS
 10
3.402080
 20
5.389120
  0
VERTEX
  8
0
  6
CONTINUOUS
 10
3.373480
 20
5.426080
  0
SEQEND
  8
0
  0
SOLID
  8
0
 62
    15
 10
3.402080
 20
5.389120
 11
3.401200
 21
6.132280
 12
3.465880
 22
5.309480
 13
3.464560
 23
6.052640
  0
POLYLINE
  8
0
  6
CONTINUOUS
 66
     1
 40
0.000000
 41
0.000000
  0
VERTEX
  8
0
  6
CONTINUOUS
 10
3.402080
 20
5.389120
  0
VERTEX
  8
0
  6
CONTINUOUS
 10
3.401200
 20
6.132280
  0
VERTEX
  8
0
  6
CONTINUOUS
 10
3.464560
 20
6.052640
  0
VERTEX
  8
0
  6
CONTINUOUS
 10
3.465880
 20
5.309480
  0
VERTEX
  8
0
  6
CONTINUOUS
 10
3.402080
 20
5.389120
  0
SEQEND
  8
0
  0
SOLID
  8
0
 62
    15
 10
3.465880
 20
5.309480
 11
3.464560
 21
6.052640
 12
3.542880
 22
5.231600
 13
3.542000
 23
5.975200
  0
POLYLINE
  8
0
  6
CONTINUOUS
 66
     1
 40
0.000000
 41
0.000000
  0
VERTEX
  8
0
  6
CONTINUOUS
 10
3.465880
 20
5.309480
  0
VERTEX
  8
0
  6
CONTINUOUS
 10
3.464560
 20
6.052640
  0
VERTEX
  8
0
  6
CONTINUOUS
 10
3.542000
 20
5.975200
  0
VERTEX
  8
0
  6
CONTINUOUS
 10
3.542880
 20
5.231600
  0
VERTEX
  8
0
  6
CONTINUOUS
 10
3.465880
 20
5.309480
  0
SEQEND
  8
0
  0
SOLID
  8
0
 62
    15
 10
3.542880
 20
5.231600
 11
3.542000
 21
5.975200
 12
3.633960
 22
5.160760
 13
3.633080
 23
5.904360
  0
POLYLINE
  8
0
  6
CONTINUOUS
 66
     1
 40
0.000000
 41
0.000000
  0
VERTEX
  8
0
  6
CONTINUOUS
 10
3.542880
 20
5.231600
  0
VERTEX
  8
0
  6
CONTINUOUS
 10
3.542000
 20
5.975200
  0
VERTEX
  8
0
  6
CONTINUOUS
 10
3.633080
 20
5.904360
  0
VERTEX
  8
0
  6
CONTINUOUS
 10
3.633960
 20
5.160760
  0
VERTEX
  8
0
  6
CONTINUOUS
 10
3.542880
 20
5.231600
  0
SEQEND
  8
0
  0
SOLID
  8
0
 62
    15
 10
3.633960
 20
5.160760
 11
3.633080
 21
5.904360
 12
3.685000
 22
5.129520
 13
3.683680
 23
5.873120
  0
POLYLINE
  8
0
  6
CONTINUOUS
 66
     1
 40
0.000000
 41
0.000000
  0
VERTEX
  8
0
  6
CONTINUOUS
 10
3.633960
 20
5.160760
  0
VERTEX
  8
0
  6
CONTINUOUS
 10
3.633080
 20
5.904360
  0
VERTEX
  8
0
  6
CONTINUOUS
 10
3.683680
 20
5.873120
  0
VERTEX
  8
0
  6
CONTINUOUS
 10
3.685000
 20
5.129520
  0
VERTEX
  8
0
  6
CONTINUOUS
 10
3.633960
 20
5.160760
  0
SEQEND
  8
0
  0
SOLID
  8
0
 62
    15
 10
3.685000
 20
5.129520
 11
3.683680
 21
5.873120
 12
3.739120
 22
5.102240
 13
3.738240
 23
5.845400
  0
POLYLINE
  8
0
  6
CONTINUOUS
 66
     1
 40
0.000000
 41
0.000000
  0
VERTEX
  8
0
  6
CONTINUOUS
 10
3.685000
 20
5.129520
  0
VERTEX
  8
0
  6
CONTINUOUS
 10
3.683680
 20
5.873120
  0
VERTEX
  8
0
  6
CONTINUOUS
 10
3.738240
 20
5.845400
  0
VERTEX
  8
0
  6
CONTINUOUS
 10
3.739120
 20
5.102240
  0
VERTEX
  8
0
  6
CONTINUOUS
 10
3.685000
 20
5.129520
  0
SEQEND
  8
0
  0
SOLID
  8
0
 62
    15
 10
3.739120
 20
5.102240
 11
3.738240
 21
5.845400
 12
3.797200
 22
5.078480
 13
3.796320
 23
5.822080
  0
POLYLINE
  8
0
  6
CONTINUOUS
 66
     1
 40
0.000000
 41
0.000000
  0
VERTEX
  8
0
  6
CONTINUOUS
 10
3.739120
 20
5.102240
  0
VERTEX
  8
0
  6
CONTINUOUS
 10
3.738240
 20
5.845400
  0
VERTEX
  8
0
  6
CONTINUOUS
 10
3.796320
 20
5.822080
  0
VERTEX
  8
0
  6
CONTINUOUS
 10
3.797200
 20
5.078480
  0
VERTEX
  8
0
  6
CONTINUOUS
 10
3.739120
 20
5.102240
  0
SEQEND
  8
0
  0
SOLID
  8
0
 62
    15
 10
3.797200
 20
5.078480
 11
3.796320
 21
5.822080
 12
3.859240
 22
5.060000
 13
3.857920
 23
5.803160
  0
POLYLINE
  8
0
  6
CONTINUOUS
 66
     1
 40
0.000000
 41
0.000000
  0
VERTEX
  8
0
  6
CONTINUOUS
 10
3.797200
 20
5.078480
  0
VERTEX
  8
0
  6
CONTINUOUS
 10
3.796320
 20
5.822080
  0
VERTEX
  8
0
  6
CONTINUOUS
 10
3.857920
 20
5.803160
  0
VERTEX
  8
0
  6
CONTINUOUS
 10
3.859240
 20
5.060000
  0
VERTEX
  8
0
  6
CONTINUOUS
 10
3.797200
 20
5.078480
  0
SEQEND
  8
0
  0
SOLID
  8
0
 62
    15
 10
3.859240
 20
5.060000
 11
3.857920
 21
5.803160
 12
3.924800
 22
5.046800
 13
3.923480
 23
5.790400
  0
POLYLINE
  8
0
  6
CONTINUOUS
 66
     1
 40
0.000000
 41
0.000000
  0
VERTEX
  8
0
  6
CONTINUOUS
 10
3.859240
 20
5.060000
  0
VERTEX
  8
0
  6
CONTINUOUS
 10
3.857920
 20
5.803160
  0
VERTEX
  8
0
  6
CONTINUOUS
 10
3.923480
 20
5.790400
  0
VERTEX
  8
0
  6
CONTINUOUS
 10
3.924800
 20
5.046800
  0
VERTEX
  8
0
  6
CONTINUOUS
 10
3.859240
 20
5.060000
  0
SEQEND
  8
0
  0
SOLID
  8
0
 62
    15
 10
3.924800
 20
5.046800
 11
3.923480
 21
5.790400
 12
3.993880
 22
5.039760
 13
3.993000
 23
5.783360
  0
POLYLINE
  8
0
  6
CONTINUOUS
 66
     1
 40
0.000000
 41
0.000000
  0
VERTEX
  8
0
  6
CONTINUOUS
 10
3.924800
 20
5.046800
  0
VERTEX
  8
0
  6
CONTINUOUS
 10
3.923480
 20
5.790400
  0
VERTEX
  8
0
  6
CONTINUOUS
 10
3.993000
 20
5.783360
  0
VERTEX
  8
0
  6
CONTINUOUS
 10
3.993880
 20
5.039760
  0
VERTEX
  8
0
  6
CONTINUOUS
 10
3.924800
 20
5.046800
  0
SEQEND
  8
0
  0
SOLID
  8
0
 62
    15
 10
3.993880
 20
5.039760
 11
3.993000
 21
5.783360
 12
4.067360
 22
5.039320
 13
4.066040
 23
5.782920
  0
POLYLINE
  8
0
  6
CONTINUOUS
 66
     1
 40
0.000000
 41
0.000000
  0
VERTEX
  8
0
  6
CONTINUOUS
 10
3.993880
 20
5.039760
  0
VERTEX
  8
0
  6
CONTINUOUS
 10
3.993000
 20
5.783360
  0
VERTEX
  8
0
  6
CONTINUOUS
 10
4.066040
 20
5.782920
  0
VERTEX
  8
0
  6
CONTINUOUS
 10
4.067360
 20
5.039320
  0
VERTEX
  8
0
  6
CONTINUOUS
 10
3.993880
 20
5.039760
  0
SEQEND
  8
0
  0
SOLID
  8
0
 62
    15
 10
4.067360
 20
5.039320
 11
4.066040
 21
5.782920
 12
4.144360
 22
5.046360
 13
4.143040
 23
5.789960
  0
POLYLINE
  8
0
  6
CONTINUOUS
 66
     1
 40
0.000000
 41
0.000000
  0
VERTEX
  8
0
  6
CONTINUOUS
 10
4.067360
 20
5.039320
  0
VERTEX
  8
0
  6
CONTINUOUS
 10
4.066040
 20
5.782920
  0
VERTEX
  8
0
  6
CONTINUOUS
 10
4.143040
 20
5.789960
  0
VERTEX
  8
0
  6
CONTINUOUS
 10
4.144360
 20
5.046360
  0
VERTEX
  8
0
  6
CONTINUOUS
 10
4.067360
 20
5.039320
  0
SEQEND
  8
0
  0
SOLID
  8
0
 62
    15
 10
4.144360
 20
5.046360
 11
4.143040
 21
5.789960
 12
4.225320
 22
5.061320
 13
4.224000
 23
5.804480
  0
POLYLINE
  8
0
  6
CONTINUOUS
 66
     1
 40
0.000000
 41
0.000000
  0
VERTEX
  8
0
  6
CONTINUOUS
 10
4.144360
 20
5.046360
  0
VERTEX
  8
0
  6
CONTINUOUS
 10
4.143040
 20
5.789960
  0
VERTEX
  8
0
  6
CONTINUOUS
 10
4.224000
 20
5.804480
  0
VERTEX
  8
0
  6
CONTINUOUS
 10
4.225320
 20
5.061320
  0
VERTEX
  8
0
  6
CONTINUOUS
 10
4.144360
 20
5.046360
  0
SEQEND
  8
0
  0
SOLID
  8
0
 62
    15
 10
2.823920
 20
5.599440
 11
2.822600
 21
6.343040
 12
2.831400
 22
5.538280
 13
2.830080
 23
6.281440
  0
POLYLINE
  8
0
  6
CONTINUOUS
 66
     1
 40
0.000000
 41
0.000000
  0
VERTEX
  8
0
  6
CONTINUOUS
 10
2.823920
 20
5.599440
  0
VERTEX
  8
0
  6
CONTINUOUS
 10
2.822600
 20
6.343040
  0
VERTEX
  8
0
  6
CONTINUOUS
 10
2.830080
 20
6.281440
  0
VERTEX
  8
0
  6
CONTINUOUS
 10
2.831400
 20
5.538280
  0
VERTEX
  8
0
  6
CONTINUOUS
 10
2.823920
 20
5.599440
  0
SEQEND
  8
0
  0
SOLID
  8
0
 62
    15
 10
4.310240
 20
5.084640
 11
4.309360
 21
5.828240
 12
4.314640
 22
5.069240
 13
4.313760
 23
5.812840
  0
POLYLINE
  8
0
  6
CONTINUOUS
 66
     1
 40
0.000000
 41
0.000000
  0
VERTEX
  8
0
  6
CONTINUOUS
 10
4.310240
 20
5.084640
  0
VERTEX
  8
0
  6
CONTINUOUS
 10
4.309360
 20
5.828240
  0
VERTEX
  8
0
  6
CONTINUOUS
 10
4.313760
 20
5.812840
  0
VERTEX
  8
0
  6
CONTINUOUS
 10
4.314640
 20
5.069240
  0
VERTEX
  8
0
  6
CONTINUOUS
 10
4.310240
 20
5.084640
  0
SEQEND
  8
0
  0
SOLID
  8
0
 62
    15
 10
4.314640
 20
5.069240
 11
4.313760
 21
5.812840
 12
4.324760
 22
5.035360
 13
4.323440
 23
5.778960
  0
POLYLINE
  8
0
  6
CONTINUOUS
 66
     1
 40
0.000000
 41
0.000000
  0
VERTEX
  8
0
  6
CONTINUOUS
 10
4.314640
 20
5.069240
  0
VERTEX
  8
0
  6
CONTINUOUS
 10
4.313760
 20
5.812840
  0
VERTEX
  8
0
  6
CONTINUOUS
 10
4.323440
 20
5.778960
  0
VERTEX
  8
0
  6
CONTINUOUS
 10
4.324760
 20
5.035360
  0
VERTEX
  8
0
  6
CONTINUOUS
 10
4.314640
 20
5.069240
  0
SEQEND
  8
0
  0
SOLID
  8
0
 62
    15
 10
4.324760
 20
5.035360
 11
4.323440
 21
5.778960
 12
4.336200
 22
5.002360
 13
4.334880
 23
5.745960
  0
POLYLINE
  8
0
  6
CONTINUOUS
 66
     1
 40
0.000000
 41
0.000000
  0
VERTEX
  8
0
  6
CONTINUOUS
 10
4.324760
 20
5.035360
  0
VERTEX
  8
0
  6
CONTINUOUS
 10
4.323440
 20
5.778960
  0
VERTEX
  8
0
  6
CONTINUOUS
 10
4.334880
 20
5.745960
  0
VERTEX
  8
0
  6
CONTINUOUS
 10
4.336200
 20
5.002360
  0
VERTEX
  8
0
  6
CONTINUOUS
 10
4.324760
 20
5.035360
  0
SEQEND
  8
0
  0
SOLID
  8
0
 62
    15
 10
4.336200
 20
5.002360
 11
4.334880
 21
5.745960
 12
4.341040
 22
4.992240
 13
4.339720
 23
5.735400
  0
POLYLINE
  8
0
  6
CONTINUOUS
 66
     1
 40
0.000000
 41
0.000000
  0
VERTEX
  8
0
  6
CONTINUOUS
 10
4.336200
 20
5.002360
  0
VERTEX
  8
0
  6
CONTINUOUS
 10
4.334880
 20
5.745960
  0
VERTEX
  8
0
  6
CONTINUOUS
 10
4.339720
 20
5.735400
  0
VERTEX
  8
0
  6
CONTINUOUS
 10
4.341040
 20
4.992240
  0
VERTEX
  8
0
  6
CONTINUOUS
 10
4.336200
 20
5.002360
  0
SEQEND
  8
0
  0
SOLID
  8
0
 62
    15
 10
4.341040
 20
4.992240
 11
4.339720
 21
5.735400
 12
4.344560
 22
4.989160
 13
4.343680
 23
5.732320
  0
POLYLINE
  8
0
  6
CONTINUOUS
 66
     1
 40
0.000000
 41
0.000000
  0
VERTEX
  8
0
  6
CONTINUOUS
 10
4.341040
 20
4.992240
  0
VERTEX
  8
0
  6
CONTINUOUS
 10
4.339720
 20
5.735400
  0
VERTEX
  8
0
  6
CONTINUOUS
 10
4.343680
 20
5.732320
  0
VERTEX
  8
0
  6
CONTINUOUS
 10
4.344560
 20
4.989160
  0
VERTEX
  8
0
  6
CONTINUOUS
 10
4.341040
 20
4.992240
  0
SEQEND
  8
0
  0
SOLID
  8
0
 62
    15
 10
4.344560
 20
4.989160
 11
4.343680
 21
5.732320
 12
4.550040
 22
4.989160
 13
4.549160
 23
5.732320
  0
POLYLINE
  8
0
  6
CONTINUOUS
 66
     1
 40
0.000000
 41
0.000000
  0
VERTEX
  8
0
  6
CONTINUOUS
 10
4.344560
 20
4.989160
  0
VERTEX
  8
0
  6
CONTINUOUS
 10
4.343680
 20
5.732320
  0
VERTEX
  8
0
  6
CONTINUOUS
 10
4.549160
 20
5.732320
  0
VERTEX
  8
0
  6
CONTINUOUS
 10
4.550040
 20
4.989160
  0
VERTEX
  8
0
  6
CONTINUOUS
 10
4.344560
 20
4.989160
  0
SEQEND
  8
0
  0
SOLID
  8
0
 62
    15
 10
4.550040
 20
4.989160
 11
4.549160
 21
5.732320
 12
4.569400
 22
4.920080
 13
4.568080
 23
5.663680
  0
POLYLINE
  8
0
  6
CONTINUOUS
 66
     1
 40
0.000000
 41
0.000000
  0
VERTEX
  8
0
  6
CONTINUOUS
 10
4.550040
 20
4.989160
  0
VERTEX
  8
0
  6
CONTINUOUS
 10
4.549160
 20
5.732320
  0
VERTEX
  8
0
  6
CONTINUOUS
 10
4.568080
 20
5.663680
  0
VERTEX
  8
0
  6
CONTINUOUS
 10
4.569400
 20
4.920080
  0
VERTEX
  8
0
  6
CONTINUOUS
 10
4.550040
 20
4.989160
  0
SEQEND
  8
0
  0
SOLID
  8
0
 62
    15
 10
4.569400
 20
4.920080
 11
4.568080
 21
5.663680
 12
5.482840
 22
4.920080
 13
5.481520
 23
5.663680
  0
POLYLINE
  8
0
  6
CONTINUOUS
 66
     1
 40
0.000000
 41
0.000000
  0
VERTEX
  8
0
  6
CONTINUOUS
 10
4.569400
 20
4.920080
  0
VERTEX
  8
0
  6
CONTINUOUS
 10
4.568080
 20
5.663680
  0
VERTEX
  8
0
  6
CONTINUOUS
 10
5.481520
 20
5.663680
  0
VERTEX
  8
0
  6
CONTINUOUS
 10
5.482840
 20
4.920080
  0
VERTEX
  8
0
  6
CONTINUOUS
 10
4.569400
 20
4.920080
  0
SEQEND
  8
0
  0
SOLID
  8
0
 62
    15
 10
5.482840
 20
4.920080
 11
5.481520
 21
5.663680
 12
5.492520
 22
4.887960
 13
5.491640
 23
5.631560
  0
POLYLINE
  8
0
  6
CONTINUOUS
 66
     1
 40
0.000000
 41
0.000000
  0
VERTEX
  8
0
  6
CONTINUOUS
 10
5.482840
 20
4.920080
  0
VERTEX
  8
0
  6
CONTINUOUS
 10
5.481520
 20
5.663680
  0
VERTEX
  8
0
  6
CONTINUOUS
 10
5.491640
 20
5.631560
  0
VERTEX
  8
0
  6
CONTINUOUS
 10
5.492520
 20
4.887960
  0
VERTEX
  8
0
  6
CONTINUOUS
 10
5.482840
 20
4.920080
  0
SEQEND
  8
0
  0
SOLID
  8
0
 62
    15
 10
5.492520
 20
4.887960
 11
5.491640
 21
5.631560
 12
5.506160
 22
4.862880
 13
5.505280
 23
5.606040
  0
POLYLINE
  8
0
  6
CONTINUOUS
 66
     1
 40
0.000000
 41
0.000000
  0
VERTEX
  8
0
  6
CONTINUOUS
 10
5.492520
 20
4.887960
  0
VERTEX
  8
0
  6
CONTINUOUS
 10
5.491640
 20
5.631560
  0
VERTEX
  8
0
  6
CONTINUOUS
 10
5.505280
 20
5.606040
  0
VERTEX
  8
0
  6
CONTINUOUS
 10
5.506160
 20
4.862880
  0
VERTEX
  8
0
  6
CONTINUOUS
 10
5.492520
 20
4.887960
  0
SEQEND
  8
0
  0
SOLID
  8
0
 62
    15
 10
5.506160
 20
4.862880
 11
5.505280
 21
5.606040
 12
5.522880
 22
4.843520
 13
5.521560
 23
5.587120
  0
POLYLINE
  8
0
  6
CONTINUOUS
 66
     1
 40
0.000000
 41
0.000000
  0
VERTEX
  8
0
  6
CONTINUOUS
 10
5.506160
 20
4.862880
  0
VERTEX
  8
0
  6
CONTINUOUS
 10
5.505280
 20
5.606040
  0
VERTEX
  8
0
  6
CONTINUOUS
 10
5.521560
 20
5.587120
  0
VERTEX
  8
0
  6
CONTINUOUS
 10
5.522880
 20
4.843520
  0
VERTEX
  8
0
  6
CONTINUOUS
 10
5.506160
 20
4.862880
  0
SEQEND
  8
0
  0
SOLID
  8
0
 62
    15
 10
5.522880
 20
4.843520
 11
5.521560
 21
5.587120
 12
5.541800
 22
4.829440
 13
5.540480
 23
5.572600
  0
POLYLINE
  8
0
  6
CONTINUOUS
 66
     1
 40
0.000000
 41
0.000000
  0
VERTEX
  8
0
  6
CONTINUOUS
 10
5.522880
 20
4.843520
  0
VERTEX
  8
0
  6
CONTINUOUS
 10
5.521560
 20
5.587120
  0
VERTEX
  8
0
  6
CONTINUOUS
 10
5.540480
 20
5.572600
  0
VERTEX
  8
0
  6
CONTINUOUS
 10
5.541800
 20
4.829440
  0
VERTEX
  8
0
  6
CONTINUOUS
 10
5.522880
 20
4.843520
  0
SEQEND
  8
0
  0
SOLID
  8
0
 62
    15
 10
5.541800
 20
4.829440
 11
5.540480
 21
5.572600
 12
5.584920
 22
4.812720
 13
5.584040
 23
5.555880
  0
POLYLINE
  8
0
  6
CONTINUOUS
 66
     1
 40
0.000000
 41
0.000000
  0
VERTEX
  8
0
  6
CONTINUOUS
 10
5.541800
 20
4.829440
  0
VERTEX
  8
0
  6
CONTINUOUS
 10
5.540480
 20
5.572600
  0
VERTEX
  8
0
  6
CONTINUOUS
 10
5.584040
 20
5.555880
  0
VERTEX
  8
0
  6
CONTINUOUS
 10
5.584920
 20
4.812720
  0
VERTEX
  8
0
  6
CONTINUOUS
 10
5.541800
 20
4.829440
  0
SEQEND
  8
0
  0
SOLID
  8
0
 62
    15
 10
5.584920
 20
4.812720
 11
5.584040
 21
5.555880
 12
5.632000
 22
4.804800
 13
5.630680
 23
5.547960
  0
POLYLINE
  8
0
  6
CONTINUOUS
 66
     1
 40
0.000000
 41
0.000000
  0
VERTEX
  8
0
  6
CONTINUOUS
 10
5.584920
 20
4.812720
  0
VERTEX
  8
0
  6
CONTINUOUS
 10
5.584040
 20
5.555880
  0
VERTEX
  8
0
  6
CONTINUOUS
 10
5.630680
 20
5.547960
  0
VERTEX
  8
0
  6
CONTINUOUS
 10
5.632000
 20
4.804800
  0
VERTEX
  8
0
  6
CONTINUOUS
 10
5.584920
 20
4.812720
  0
SEQEND
  8
0
  0
SOLID
  8
0
 62
    15
 10
5.632000
 20
4.804800
 11
5.630680
 21
5.547960
 12
5.656200
 22
4.797760
 13
5.655320
 23
5.540920
  0
POLYLINE
  8
0
  6
CONTINUOUS
 66
     1
 40
0.000000
 41
0.000000
  0
VERTEX
  8
0
  6
CONTINUOUS
 10
5.632000
 20
4.804800
  0
VERTEX
  8
0
  6
CONTINUOUS
 10
5.630680
 20
5.547960
  0
VERTEX
  8
0
  6
CONTINUOUS
 10
5.655320
 20
5.540920
  0
VERTEX
  8
0
  6
CONTINUOUS
 10
5.656200
 20
4.797760
  0
VERTEX
  8
0
  6
CONTINUOUS
 10
5.632000
 20
4.804800
  0
SEQEND
  8
0
  0
SOLID
  8
0
 62
    15
 10
5.656200
 20
4.797760
 11
5.655320
 21
5.540920
 12
5.681720
 22
4.783240
 13
5.680400
 23
5.526400
  0
POLYLINE
  8
0
  6
CONTINUOUS
 66
     1
 40
0.000000
 41
0.000000
  0
VERTEX
  8
0
  6
CONTINUOUS
 10
5.656200
 20
4.797760
  0
VERTEX
  8
0
  6
CONTINUOUS
 10
5.655320
 20
5.540920
  0
VERTEX
  8
0
  6
CONTINUOUS
 10
5.680400
 20
5.526400
  0
VERTEX
  8
0
  6
CONTINUOUS
 10
5.681720
 20
4.783240
  0
VERTEX
  8
0
  6
CONTINUOUS
 10
5.656200
 20
4.797760
  0
SEQEND
  8
0
  0
SOLID
  8
0
 62
    15
 10
5.681720
 20
4.783240
 11
5.680400
 21
5.526400
 12
5.706360
 22
4.762560
 13
5.705040
 23
5.506160
  0
POLYLINE
  8
0
  6
CONTINUOUS
 66
     1
 40
0.000000
 41
0.000000
  0
VERTEX
  8
0
  6
CONTINUOUS
 10
5.681720
 20
4.783240
  0
VERTEX
  8
0
  6
CONTINUOUS
 10
5.680400
 20
5.526400
  0
VERTEX
  8
0
  6
CONTINUOUS
 10
5.705040
 20
5.506160
  0
VERTEX
  8
0
  6
CONTINUOUS
 10
5.706360
 20
4.762560
  0
VERTEX
  8
0
  6
CONTINUOUS
 10
5.681720
 20
4.783240
  0
SEQEND
  8
0
  0
SOLID
  8
0
 62
    15
 10
5.706360
 20
4.762560
 11
5.705040
 21
5.506160
 12
5.729240
 22
4.737040
 13
5.727920
 23
5.480200
  0
POLYLINE
  8
0
  6
CONTINUOUS
 66
     1
 40
0.000000
 41
0.000000
  0
VERTEX
  8
0
  6
CONTINUOUS
 10
5.706360
 20
4.762560
  0
VERTEX
  8
0
  6
CONTINUOUS
 10
5.705040
 20
5.506160
  0
VERTEX
  8
0
  6
CONTINUOUS
 10
5.727920
 20
5.480200
  0
VERTEX
  8
0
  6
CONTINUOUS
 10
5.729240
 20
4.737040
  0
VERTEX
  8
0
  6
CONTINUOUS
 10
5.706360
 20
4.762560
  0
SEQEND
  8
0
  0
SOLID
  8
0
 62
    15
 10
5.729240
 20
4.737040
 11
5.727920
 21
5.480200
 12
5.749040
 22
4.707560
 13
5.747720
 23
5.450720
  0
POLYLINE
  8
0
  6
CONTINUOUS
 66
     1
 40
0.000000
 41
0.000000
  0
VERTEX
  8
0
  6
CONTINUOUS
 10
5.729240
 20
4.737040
  0
VERTEX
  8
0
  6
CONTINUOUS
 10
5.727920
 20
5.480200
  0
VERTEX
  8
0
  6
CONTINUOUS
 10
5.747720
 20
5.450720
  0
VERTEX
  8
0
  6
CONTINUOUS
 10
5.749040
 20
4.707560
  0
VERTEX
  8
0
  6
CONTINUOUS
 10
5.729240
 20
4.737040
  0
SEQEND
  8
0
  0
SOLID
  8
0
 62
    15
 10
5.749040
 20
4.707560
 11
5.747720
 21
5.450720
 12
5.764000
 22
4.675440
 13
5.762680
 23
5.419040
  0
POLYLINE
  8
0
  6
CONTINUOUS
 66
     1
 40
0.000000
 41
0.000000
  0
VERTEX
  8
0
  6
CONTINUOUS
 10
5.749040
 20
4.707560
  0
VERTEX
  8
0
  6
CONTINUOUS
 10
5.747720
 20
5.450720
  0
VERTEX
  8
0
  6
CONTINUOUS
 10
5.762680
 20
5.419040
  0
VERTEX
  8
0
  6
CONTINUOUS
 10
5.764000
 20
4.675440
  0
VERTEX
  8
0
  6
CONTINUOUS
 10
5.749040
 20
4.707560
  0
SEQEND
  8
0
  0
SOLID
  8
0
 62
    15
 10
5.773240
 20
4.642440
 11
5.772360
 21
5.385600
 12
5.775440
 22
4.609000
 13
5.774120
 23
5.352160
  0
POLYLINE
  8
0
  6
CONTINUOUS
 66
     1
 40
0.000000
 41
0.000000
  0
VERTEX
  8
0
  6
CONTINUOUS
 10
5.773240
 20
4.642440
  0
VERTEX
  8
0
  6
CONTINUOUS
 10
5.772360
 20
5.385600
  0
VERTEX
  8
0
  6
CONTINUOUS
 10
5.774120
 20
5.352160
  0
VERTEX
  8
0
  6
CONTINUOUS
 10
5.775440
 20
4.609000
  0
VERTEX
  8
0
  6
CONTINUOUS
 10
5.773240
 20
4.642440
  0
SEQEND
  8
0
  0
SOLID
  8
0
 62
    15
 10
5.764000
 20
4.675440
 11
5.762680
 21
5.419040
 12
5.773240
 22
4.642440
 13
5.772360
 23
5.385600
  0
POLYLINE
  8
0
  6
CONTINUOUS
 66
     1
 40
0.000000
 41
0.000000
  0
VERTEX
  8
0
  6
CONTINUOUS
 10
5.764000
 20
4.675440
  0
VERTEX
  8
0
  6
CONTINUOUS
 10
5.762680
 20
5.419040
  0
VERTEX
  8
0
  6
CONTINUOUS
 10
5.772360
 20
5.385600
  0
VERTEX
  8
0
  6
CONTINUOUS
 10
5.773240
 20
4.642440
  0
VERTEX
  8
0
  6
CONTINUOUS
 10
5.764000
 20
4.675440
  0
SEQEND
  8
0
  0
SOLID
  8
0
 62
    15
 10
2.291960
 20
4.609000
 11
2.290640
 21
5.352160
 12
2.291960
 22
5.544880
 13
2.290640
 23
6.288040
  0
POLYLINE
  8
0
  6
CONTINUOUS
 66
     1
 40
0.000000
 41
0.000000
  0
VERTEX
  8
0
  6
CONTINUOUS
 10
2.291960
 20
4.609000
  0
VERTEX
  8
0
  6
CONTINUOUS
 10
2.290640
 20
5.352160
  0
VERTEX
  8
0
  6
CONTINUOUS
 10
2.290640
 20
6.288040
  0
VERTEX
  8
0
  6
CONTINUOUS
 10
2.291960
 20
5.544880
  0
VERTEX
  8
0
  6
CONTINUOUS
 10
2.291960
 20
4.609000
  0
SEQEND
  8
0
  0
SOLID
  8
0
 62
    15
 10
2.291960
 20
5.544880
 11
2.290640
 21
6.288040
 12
2.291960
 22
5.602520
 13
2.291080
 23
6.345680
  0
POLYLINE
  8
0
  6
CONTINUOUS
 66
     1
 40
0.000000
 41
0.000000
  0
VERTEX
  8
0
  6
CONTINUOUS
 10
2.291960
 20
5.544880
  0
VERTEX
  8
0
  6
CONTINUOUS
 10
2.290640
 20
6.288040
  0
VERTEX
  8
0
  6
CONTINUOUS
 10
2.291080
 20
6.345680
  0
VERTEX
  8
0
  6
CONTINUOUS
 10
2.291960
 20
5.602520
  0
VERTEX
  8
0
  6
CONTINUOUS
 10
2.291960
 20
5.544880
  0
SEQEND
  8
0
  0
SOLID
  8
0
 62
    15
 10
2.291960
 20
5.602520
 11
2.291080
 21
6.345680
 12
2.823920
 22
5.599440
 13
2.822600
 23
6.343040
  0
POLYLINE
  8
0
  6
CONTINUOUS
 66
     1
 40
0.000000
 41
0.000000
  0
VERTEX
  8
0
  6
CONTINUOUS
 10
2.291960
 20
5.602520
  0
VERTEX
  8
0
  6
CONTINUOUS
 10
2.291080
 20
6.345680
  0
VERTEX
  8
0
  6
CONTINUOUS
 10
2.822600
 20
6.343040
  0
VERTEX
  8
0
  6
CONTINUOUS
 10
2.823920
 20
5.599440
  0
VERTEX
  8
0
  6
CONTINUOUS
 10
2.291960
 20
5.602520
  0
SEQEND
  8
0
  0
POLYLINE
  8
0
  6
CONTINUOUS
 66
     1
 40
0.000000
 41
0.000000
  0
VERTEX
  8
0
  6
CONTINUOUS
 10
2.823920
 20
5.599440
  0
VERTEX
  8
0
  6
CONTINUOUS
 10
2.831400
 20
5.538280
  0
VERTEX
  8
0
  6
CONTINUOUS
 10
2.918960
 20
5.511440
  0
VERTEX
  8
0
  6
CONTINUOUS
 10
2.930400
 20
5.412000
  0
VERTEX
  8
0
  6
CONTINUOUS
 10
2.983640
 20
5.412000
  0
VERTEX
  8
0
  6
CONTINUOUS
 10
3.026760
 20
5.471400
  0
VERTEX
  8
0
  6
CONTINUOUS
 10
3.074280
 20
5.514080
  0
VERTEX
  8
0
  6
CONTINUOUS
 10
3.124440
 20
5.539160
  0
VERTEX
  8
0
  6
CONTINUOUS
 10
3.177240
 20
5.547080
  0
VERTEX
  8
0
  6
CONTINUOUS
 10
3.231800
 20
5.536520
  0
VERTEX
  8
0
  6
CONTINUOUS
 10
3.288120
 20
5.506600
  0
VERTEX
  8
0
  6
CONTINUOUS
 10
3.316280
 20
5.484600
  0
VERTEX
  8
0
  6
CONTINUOUS
 10
3.344880
 20
5.457760
  0
VERTEX
  8
0
  6
CONTINUOUS
 10
3.373480
 20
5.426080
  0
VERTEX
  8
0
  6
CONTINUOUS
 10
3.465880
 20
5.309480
  0
VERTEX
  8
0
  6
CONTINUOUS
 10
3.542880
 20
5.231600
  0
VERTEX
  8
0
  6
CONTINUOUS
 10
3.633960
 20
5.160760
  0
VERTEX
  8
0
  6
CONTINUOUS
 10
3.685000
 20
5.129520
  0
VERTEX
  8
0
  6
CONTINUOUS
 10
3.739120
 20
5.102240
  0
VERTEX
  8
0
  6
CONTINUOUS
 10
3.797200
 20
5.078480
  0
VERTEX
  8
0
  6
CONTINUOUS
 10
3.859240
 20
5.060000
  0
VERTEX
  8
0
  6
CONTINUOUS
 10
3.924800
 20
5.046800
  0
VERTEX
  8
0
  6
CONTINUOUS
 10
3.993880
 20
5.039760
  0
VERTEX
  8
0
  6
CONTINUOUS
 10
4.067360
 20
5.039320
  0
VERTEX
  8
0
  6
CONTINUOUS
 10
4.144360
 20
5.046360
  0
VERTEX
  8
0
  6
CONTINUOUS
 10
4.225320
 20
5.061320
  0
VERTEX
  8
0
  6
CONTINUOUS
 10
4.310240
 20
5.084640
  0
VERTEX
  8
0
  6
CONTINUOUS
 10
4.324760
 20
5.035360
  0
VERTEX
  8
0
  6
CONTINUOUS
 10
4.336200
 20
5.002360
  0
VERTEX
  8
0
  6
CONTINUOUS
 10
4.341040
 20
4.992240
  0
VERTEX
  8
0
  6
CONTINUOUS
 10
4.344560
 20
4.989160
  0
VERTEX
  8
0
  6
CONTINUOUS
 10
4.550040
 20
4.989160
  0
VERTEX
  8
0
  6
CONTINUOUS
 10
4.569400
 20
4.920080
  0
VERTEX
  8
0
  6
CONTINUOUS
 10
5.482840
 20
4.920080
  0
VERTEX
  8
0
  6
CONTINUOUS
 10
5.492520
 20
4.887960
  0
VERTEX
  8
0
  6
CONTINUOUS
 10
5.506160
 20
4.862880
  0
VERTEX
  8
0
  6
CONTINUOUS
 10
5.522880
 20
4.843520
  0
VERTEX
  8
0
  6
CONTINUOUS
 10
5.541800
 20
4.829440
  0
VERTEX
  8
0
  6
CONTINUOUS
 10
5.584920
 20
4.812720
  0
VERTEX
  8
0
  6
CONTINUOUS
 10
5.632000
 20
4.804800
  0
VERTEX
  8
0
  6
CONTINUOUS
 10
5.656200
 20
4.797760
  0
VERTEX
  8
0
  6
CONTINUOUS
 10
5.681720
 20
4.783240
  0
VERTEX
  8
0
  6
CONTINUOUS
 10
5.706360
 20
4.762560
  0
VERTEX
  8
0
  6
CONTINUOUS
 10
5.729240
 20
4.737040
  0
VERTEX
  8
0
  6
CONTINUOUS
 10
5.749040
 20
4.707560
  0
VERTEX
  8
0
  6
CONTINUOUS
 10
5.764000
 20
4.675440
  0
VERTEX
  8
0
  6
CONTINUOUS
 10
5.773240
 20
4.642440
  0
VERTEX
  8
0
  6
CONTINUOUS
 10
5.775440
 20
4.609000
  0
VERTEX
  8
0
  6
CONTINUOUS
 10
2.291960
 20
4.609000
  0
VERTEX
  8
0
  6
CONTINUOUS
 10
2.291960
 20
5.602520
  0
VERTEX
  8
0
  6
CONTINUOUS
 10
2.823920
 20
5.599440
  0
SEQEND
  8
0
  0
TEXT
  8
0
 10
3.581160
 20
4.352920
 40
0.138110
  1
BA  1221
 41
1.000000
  7
SN0
 71
     0
 72
     5
 11
4.262894
 21
4.352920
  0
TEXT
  8
0
 10
3.581160
 20
4.161080
 40
0.138110
  1
1" x 3-1/2"
 41
1.000000
  7
SN0
 71
     0
 72
     5
 11
4.343360
 21
4.161080
  0
POLYLINE
  8
0
  6
CONTINUOUS
 66
     1
 40
0.000000
 41
0.000000
  0
VERTEX
  8
0
  6
CONTINUOUS
 10
2.823040
 20
8.388160
  0
VERTEX
  8
0
  6
CONTINUOUS
 10
2.830520
 20
8.327000
  0
VERTEX
  8
0
  6
CONTINUOUS
 10
2.918080
 20
8.300160
  0
VERTEX
  8
0
  6
CONTINUOUS
 10
2.929520
 20
8.200720
  0
VERTEX
  8
0
  6
CONTINUOUS
 10
2.982760
 20
8.200720
  0
VERTEX
  8
0
  6
CONTINUOUS
 10
3.014880
 20
8.246920
  0
VERTEX
  8
0
  6
CONTINUOUS
 10
3.049200
 20
8.283440
  0
VERTEX
  8
0
  6
CONTINUOUS
 10
3.073400
 20
8.302800
  0
VERTEX
  8
0
  6
CONTINUOUS
 10
3.098040
 20
8.317320
  0
VERTEX
  8
0
  6
CONTINUOUS
 10
3.123560
 20
8.327880
  0
VERTEX
  8
0
  6
CONTINUOUS
 10
3.149960
 20
8.334040
  0
VERTEX
  8
0
  6
CONTINUOUS
 10
3.176360
 20
8.335800
  0
VERTEX
  8
0
  6
CONTINUOUS
 10
3.203640
 20
8.332720
  0
VERTEX
  8
0
  6
CONTINUOUS
 10
3.245440
 20
8.319520
  0
VERTEX
  8
0
  6
CONTINUOUS
 10
3.287680
 20
8.295320
  0
VERTEX
  8
0
  6
CONTINUOUS
 10
3.315840
 20
8.273320
  0
VERTEX
  8
0
  6
CONTINUOUS
 10
3.344440
 20
8.246480
  0
VERTEX
  8
0
  6
CONTINUOUS
 10
3.387560
 20
8.196760
  0
VERTEX
  8
0
  6
CONTINUOUS
 10
3.432000
 20
8.138240
  0
VERTEX
  8
0
  6
CONTINUOUS
 10
3.483480
 20
8.078400
  0
VERTEX
  8
0
  6
CONTINUOUS
 10
3.521760
 20
8.039240
  0
VERTEX
  8
0
  6
CONTINUOUS
 10
3.586000
 20
7.983800
  0
VERTEX
  8
0
  6
CONTINUOUS
 10
3.633520
 20
7.949480
  0
VERTEX
  8
0
  6
CONTINUOUS
 10
3.684120
 20
7.918240
  0
VERTEX
  8
0
  6
CONTINUOUS
 10
3.738680
 20
7.890520
  0
VERTEX
  8
0
  6
CONTINUOUS
 10
3.796760
 20
7.867200
  0
VERTEX
  8
0
  6
CONTINUOUS
 10
3.827120
 20
7.857080
  0
VERTEX
  8
0
  6
CONTINUOUS
 10
3.890920
 20
7.841240
  0
VERTEX
  8
0
  6
CONTINUOUS
 10
3.958240
 20
7.831120
  0
VERTEX
  8
0
  6
CONTINUOUS
 10
4.029520
 20
7.827160
  0
VERTEX
  8
0
  6
CONTINUOUS
 10
4.066480
 20
7.828040
  0
VERTEX
  8
0
  6
CONTINUOUS
 10
4.104760
 20
7.830680
  0
VERTEX
  8
0
  6
CONTINUOUS
 10
4.143480
 20
7.835080
  0
VERTEX
  8
0
  6
CONTINUOUS
 10
4.183520
 20
7.841240
  0
VERTEX
  8
0
  6
CONTINUOUS
 10
4.224880
 20
7.850040
  0
VERTEX
  8
0
  6
CONTINUOUS
 10
4.288240
 20
7.866760
  0
VERTEX
  8
0
  6
CONTINUOUS
 10
4.309800
 20
7.873360
  0
VERTEX
  8
0
  6
CONTINUOUS
 10
4.329600
 20
7.806480
  0
VERTEX
  8
0
  6
CONTINUOUS
 10
4.340160
 20
7.780960
  0
VERTEX
  8
0
  6
CONTINUOUS
 10
4.344120
 20
7.777880
  0
VERTEX
  8
0
  6
CONTINUOUS
 10
4.549600
 20
7.777880
  0
VERTEX
  8
0
  6
CONTINUOUS
 10
4.568520
 20
7.708800
  0
VERTEX
  8
0
  6
CONTINUOUS
 10
5.481960
 20
7.708800
  0
VERTEX
  8
0
  6
CONTINUOUS
 10
5.486360
 20
7.691640
  0
VERTEX
  8
0
  6
CONTINUOUS
 10
5.498680
 20
7.663040
  0
VERTEX
  8
0
  6
CONTINUOUS
 10
5.513640
 20
7.641040
  0
VERTEX
  8
0
  6
CONTINUOUS
 10
5.531240
 20
7.624320
  0
VERTEX
  8
0
  6
CONTINUOUS
 10
5.551480
 20
7.612440
  0
VERTEX
  8
0
  6
CONTINUOUS
 10
5.584480
 20
7.601000
  0
VERTEX
  8
0
  6
CONTINUOUS
 10
5.643440
 20
7.590880
  0
VERTEX
  8
0
  6
CONTINUOUS
 10
5.655760
 20
7.586480
  0
VERTEX
  8
0
  6
CONTINUOUS
 10
5.680840
 20
7.571960
  0
VERTEX
  8
0
  6
CONTINUOUS
 10
5.705920
 20
7.551280
  0
VERTEX
  8
0
  6
CONTINUOUS
 10
5.728800
 20
7.525760
  0
VERTEX
  8
0
  6
CONTINUOUS
 10
5.748160
 20
7.496280
  0
VERTEX
  8
0
  6
CONTINUOUS
 10
5.763560
 20
7.464160
  0
VERTEX
  8
0
  6
CONTINUOUS
 10
5.772800
 20
7.430720
  0
VERTEX
  8
0
  6
CONTINUOUS
 10
5.775000
 20
7.414000
  0
VERTEX
  8
0
  6
CONTINUOUS
 10
5.775000
 20
7.397280
  0
VERTEX
  8
0
  6
CONTINUOUS
 10
2.291080
 20
7.397280
  0
VERTEX
  8
0
  6
CONTINUOUS
 10
2.291520
 20
8.391240
  0
VERTEX
  8
0
  6
CONTINUOUS
 10
2.823040
 20
8.388160
  0
SEQEND
  8
0
  0
POLYLINE
  8
0
  6
CONTINUOUS
 66
     1
 40
0.000000
 41
0.000000
  0
VERTEX
  8
0
  6
CONTINUOUS
 10
2.823040
 20
3.756280
  0
VERTEX
  8
0
  6
CONTINUOUS
 10
2.830520
 20
3.695120
  0
VERTEX
  8
0
  6
CONTINUOUS
 10
2.918080
 20
3.668280
  0
VERTEX
  8
0
  6
CONTINUOUS
 10
2.929520
 20
3.568840
  0
VERTEX
  8
0
  6
CONTINUOUS
 10
2.982760
 20
3.568840
  0
VERTEX
  8
0
  6
CONTINUOUS
 10
3.014880
 20
3.615040
  0
VERTEX
  8
0
  6
CONTINUOUS
 10
3.049200
 20
3.651560
  0
VERTEX
  8
0
  6
CONTINUOUS
 10
3.073400
 20
3.670920
  0
VERTEX
  8
0
  6
CONTINUOUS
 10
3.098040
 20
3.685440
  0
VERTEX
  8
0
  6
CONTINUOUS
 10
3.123560
 20
3.696000
  0
VERTEX
  8
0
  6
CONTINUOUS
 10
3.149960
 20
3.702160
  0
VERTEX
  8
0
  6
CONTINUOUS
 10
3.176360
 20
3.703920
  0
VERTEX
  8
0
  6
CONTINUOUS
 10
3.203640
 20
3.700840
  0
VERTEX
  8
0
  6
CONTINUOUS
 10
3.245440
 20
3.687640
  0
VERTEX
  8
0
  6
CONTINUOUS
 10
3.287680
 20
3.663440
  0
VERTEX
  8
0
  6
CONTINUOUS
 10
3.315840
 20
3.641440
  0
VERTEX
  8
0
  6
CONTINUOUS
 10
3.344440
 20
3.614600
  0
VERTEX
  8
0
  6
CONTINUOUS
 10
3.387560
 20
3.564880
  0
VERTEX
  8
0
  6
CONTINUOUS
 10
3.432000
 20
3.506360
  0
VERTEX
  8
0
  6
CONTINUOUS
 10
3.483480
 20
3.446520
  0
VERTEX
  8
0
  6
CONTINUOUS
 10
3.521760
 20
3.407360
  0
VERTEX
  8
0
  6
CONTINUOUS
 10
3.586000
 20
3.351920
  0
VERTEX
  8
0
  6
CONTINUOUS
 10
3.633520
 20
3.317600
  0
VERTEX
  8
0
  6
CONTINUOUS
 10
3.684120
 20
3.286360
  0
VERTEX
  8
0
  6
CONTINUOUS
 10
3.738680
 20
3.258640
  0
VERTEX
  8
0
  6
CONTINUOUS
 10
3.796760
 20
3.235320
  0
VERTEX
  8
0
  6
CONTINUOUS
 10
3.827120
 20
3.225200
  0
VERTEX
  8
0
  6
CONTINUOUS
 10
3.890920
 20
3.209360
  0
VERTEX
  8
0
  6
CONTINUOUS
 10
3.958240
 20
3.199240
  0
VERTEX
  8
0
  6
CONTINUOUS
 10
4.029520
 20
3.195280
  0
VERTEX
  8
0
  6
CONTINUOUS
 10
4.066480
 20
3.196160
  0
VERTEX
  8
0
  6
CONTINUOUS
 10
4.104760
 20
3.198800
  0
VERTEX
  8
0
  6
CONTINUOUS
 10
4.143480
 20
3.203200
  0
VERTEX
  8
0
  6
CONTINUOUS
 10
4.183520
 20
3.209360
  0
VERTEX
  8
0
  6
CONTINUOUS
 10
4.224880
 20
3.218160
  0
VERTEX
  8
0
  6
CONTINUOUS
 10
4.288240
 20
3.234880
  0
VERTEX
  8
0
  6
CONTINUOUS
 10
4.309800
 20
3.241480
  0
VERTEX
  8
0
  6
CONTINUOUS
 10
4.329600
 20
3.174600
  0
VERTEX
  8
0
  6
CONTINUOUS
 10
4.340160
 20
3.149080
  0
VERTEX
  8
0
  6
CONTINUOUS
 10
4.344120
 20
3.146000
  0
VERTEX
  8
0
  6
CONTINUOUS
 10
4.549600
 20
3.146000
  0
VERTEX
  8
0
  6
CONTINUOUS
 10
4.568520
 20
3.076920
  0
VERTEX
  8
0
  6
CONTINUOUS
 10
5.481960
 20
3.076920
  0
VERTEX
  8
0
  6
CONTINUOUS
 10
5.486360
 20
3.059760
  0
VERTEX
  8
0
  6
CONTINUOUS
 10
5.498680
 20
3.031160
  0
VERTEX
  8
0
  6
CONTINUOUS
 10
5.513640
 20
3.009160
  0
VERTEX
  8
0
  6
CONTINUOUS
 10
5.531240
 20
2.992440
  0
VERTEX
  8
0
  6
CONTINUOUS
 10
5.551480
 20
2.980560
  0
VERTEX
  8
0
  6
CONTINUOUS
 10
5.584480
 20
2.969120
  0
VERTEX
  8
0
  6
CONTINUOUS
 10
5.643440
 20
2.959000
  0
VERTEX
  8
0
  6
CONTINUOUS
 10
5.655760
 20
2.954600
  0
VERTEX
  8
0
  6
CONTINUOUS
 10
5.680840
 20
2.940080
  0
VERTEX
  8
0
  6
CONTINUOUS
 10
5.705920
 20
2.919400
  0
VERTEX
  8
0
  6
CONTINUOUS
 10
5.728800
 20
2.893880
  0
VERTEX
  8
0
  6
CONTINUOUS
 10
5.748160
 20
2.864400
  0
VERTEX
  8
0
  6
CONTINUOUS
 10
5.763560
 20
2.832280
  0
VERTEX
  8
0
  6
CONTINUOUS
 10
5.772800
 20
2.798840
  0
VERTEX
  8
0
  6
CONTINUOUS
 10
5.775000
 20
2.782120
  0
VERTEX
  8
0
  6
CONTINUOUS
 10
5.775000
 20
2.765400
  0
VERTEX
  8
0
  6
CONTINUOUS
 10
2.291080
 20
2.765400
  0
VERTEX
  8
0
  6
CONTINUOUS
 10
2.291520
 20
3.759360
  0
VERTEX
  8
0
  6
CONTINUOUS
 10
2.823040
 20
3.756280
  0
SEQEND
  8
0
  0
POLYLINE
  8
0
  6
CONTINUOUS
 66
     1
 40
0.000000
 41
0.000000
  0
VERTEX
  8
0
  6
CONTINUOUS
 10
5.243040
 20
2.534400
  0
VERTEX
  8
0
  6
CONTINUOUS
 10
5.235560
 20
2.473240
  0
VERTEX
  8
0
  6
CONTINUOUS
 10
5.148000
 20
2.446400
  0
VERTEX
  8
0
  6
CONTINUOUS
 10
5.136560
 20
2.346960
  0
VERTEX
  8
0
  6
CONTINUOUS
 10
5.083320
 20
2.346960
  0
VERTEX
  8
0
  6
CONTINUOUS
 10
5.051200
 20
2.392720
  0
VERTEX
  8
0
  6
CONTINUOUS
 10
5.016880
 20
2.429680
  0
VERTEX
  8
0
  6
CONTINUOUS
 10
4.992680
 20
2.448600
  0
VERTEX
  8
0
  6
CONTINUOUS
 10
4.968040
 20
2.463560
  0
VERTEX
  8
0
  6
CONTINUOUS
 10
4.942520
 20
2.474120
  0
VERTEX
  8
0
  6
CONTINUOUS
 10
4.916560
 20
2.480280
  0
VERTEX
  8
0
  6
CONTINUOUS
 10
4.889720
 20
2.481600
  0
VERTEX
  8
0
  6
CONTINUOUS
 10
4.862440
 20
2.478520
  0
VERTEX
  8
0
  6
CONTINUOUS
 10
4.835160
 20
2.471040
  0
VERTEX
  8
0
  6
CONTINUOUS
 10
4.807000
 20
2.458720
  0
VERTEX
  8
0
  6
CONTINUOUS
 10
4.778840
 20
2.441560
  0
VERTEX
  8
0
  6
CONTINUOUS
 10
4.750680
 20
2.419560
  0
VERTEX
  8
0
  6
CONTINUOUS
 10
4.722080
 20
2.392720
  0
VERTEX
  8
0
  6
CONTINUOUS
 10
4.678960
 20
2.343000
  0
VERTEX
  8
0
  6
CONTINUOUS
 10
4.634520
 20
2.284480
  0
VERTEX
  8
0
  6
CONTINUOUS
 10
4.583040
 20
2.224640
  0
VERTEX
  8
0
  6
CONTINUOUS
 10
4.544760
 20
2.185480
  0
VERTEX
  8
0
  6
CONTINUOUS
 10
4.480080
 20
2.130040
  0
VERTEX
  8
0
  6
CONTINUOUS
 10
4.433000
 20
2.095720
  0
VERTEX
  8
0
  6
CONTINUOUS
 10
4.382400
 20
2.064480
  0
VERTEX
  8
0
  6
CONTINUOUS
 10
4.327840
 20
2.036760
  0
VERTEX
  8
0
  6
CONTINUOUS
 10
4.269760
 20
2.013440
  0
VERTEX
  8
0
  6
CONTINUOUS
 10
4.239400
 20
2.003320
  0
VERTEX
  8
0
  6
CONTINUOUS
 10
4.175600
 20
1.987480
  0
VERTEX
  8
0
  6
CONTINUOUS
 10
4.142600
 20
1.981760
  0
VERTEX
  8
0
  6
CONTINUOUS
 10
4.108280
 20
1.977360
  0
VERTEX
  8
0
  6
CONTINUOUS
 10
4.037000
 20
1.973400
  0
VERTEX
  8
0
  6
CONTINUOUS
 10
4.000040
 20
1.974280
  0
VERTEX
  8
0
  6
CONTINUOUS
 10
3.961760
 20
1.976920
  0
VERTEX
  8
0
  6
CONTINUOUS
 10
3.922600
 20
1.981320
  0
VERTEX
  8
0
  6
CONTINUOUS
 10
3.882560
 20
1.987480
  0
VERTEX
  8
0
  6
CONTINUOUS
 10
3.799840
 20
2.006840
  0
VERTEX
  8
0
  6
CONTINUOUS
 10
3.756720
 20
2.019600
  0
VERTEX
  8
0
  6
CONTINUOUS
 10
3.733840
 20
1.944360
  0
VERTEX
  8
0
  6
CONTINUOUS
 10
3.724160
 20
1.924560
  0
VERTEX
  8
0
  6
CONTINUOUS
 10
3.516920
 20
1.924120
  0
VERTEX
  8
0
  6
CONTINUOUS
 10
3.497560
 20
1.855040
  0
VERTEX
  8
0
  6
CONTINUOUS
 10
2.584120
 20
1.855040
  0
VERTEX
  8
0
  6
CONTINUOUS
 10
2.579720
 20
1.837880
  0
VERTEX
  8
0
  6
CONTINUOUS
 10
2.567840
 20
1.809280
  0
VERTEX
  8
0
  6
CONTINUOUS
 10
2.552880
 20
1.787280
  0
VERTEX
  8
0
  6
CONTINUOUS
 10
2.534840
 20
1.770560
  0
VERTEX
  8
0
  6
CONTINUOUS
 10
2.515040
 20
1.758680
  0
VERTEX
  8
0
  6
CONTINUOUS
 10
2.482040
 20
1.747240
  0
VERTEX
  8
0
  6
CONTINUOUS
 10
2.423080
 20
1.736680
  0
VERTEX
  8
0
  6
CONTINUOUS
 10
2.410320
 20
1.732280
  0
VERTEX
  8
0
  6
CONTINUOUS
 10
2.385240
 20
1.717760
  0
VERTEX
  8
0
  6
CONTINUOUS
 10
2.360600
 20
1.697080
  0
VERTEX
  8
0
  6
CONTINUOUS
 10
2.337720
 20
1.671560
  0
VERTEX
  8
0
  6
CONTINUOUS
 10
2.317920
 20
1.642080
  0
VERTEX
  8
0
  6
CONTINUOUS
 10
2.302960
 20
1.610400
  0
VERTEX
  8
0
  6
CONTINUOUS
 10
2.297240
 20
1.593680
  0
VERTEX
  8
0
  6
CONTINUOUS
 10
2.291520
 20
1.560240
  0
VERTEX
  8
0
  6
CONTINUOUS
 10
2.291520
 20
1.543520
  0
VERTEX
  8
0
  6
CONTINUOUS
 10
5.775000
 20
1.543520
  0
VERTEX
  8
0
  6
CONTINUOUS
 10
5.774560
 20
2.537480
  0
VERTEX
  8
0
  6
CONTINUOUS
 10
5.243040
 20
2.534400
  0
SEQEND
  8
0
  0
TEXT
  8
0
 10
3.581160
 20
7.164960
 40
0.138110
  1
BA  1221
 41
1.000000
  7
SN0
 71
     0
 72
     5
 11
4.262894
 21
7.164960
  0
TEXT
  8
0
 10
3.581160
 20
6.973120
 40
0.138110
  1
1" x 3-1/2"
 41
1.000000
  7
SN0
 71
     0
 72
     5
 11
4.343360
 21
6.973120
  0
ENDSEC
  0
EOF
