  0
SECTION
  2
HEADER
  9
$ACADVER
  1
AC1006
  9
$EXTMIN
 10
2.542320
 20
1.074040
  9
$EXTMAX
 10
6.922960
 20
5.901280
  9
$LTSCALE
 40
0.044000
  9
$PDMODE
 70
    35
  9
$PDSIZE
 40
0.035200
  0
ENDSEC
  0
SECTION
  2
TABLES
  0
TABLE
  2
LTYPE
 70
     9
  0
LTYPE
  2
CONTINUOUS
 70
    64
  3
Solid line
 72
    65
 73
     0
 40
0.000000
  0
LTYPE
  2
DASHED
 70
    64
  3
__ __ __ __ __ __ __ __ __ __ __ __ __ __ __
 72
    65
 73
     2
 40
0.000330
 49
0.000220
 49
-0.000110
  0
LTYPE
  2
HIDDEN
 70
    64
  3
 _ _ _ _ _ _ _ _ _ _ _ _ _ _ _ _ _ _ _ _ _ _
 72
    65
 73
     2
 40
0.000165
 49
0.000110
 49
-0.000055
  0
LTYPE
  2
CENTER
 70
    64
  3
____ _ ____ _ ____ _ ____ _ ____ _ ____ _ ____
 72
    65
 73
     4
 40
0.000880
 49
0.000550
 49
-0.000110
 49
0.000110
 49
-0.000110
  0
LTYPE
  2
PHANTOM
 70
    64
  3
_____ _ _ _____ _ _ _____ _ _ _____ _ _ ____
 72
    65
 73
     6
 40
0.001100
 49
0.000550
 49
-0.000110
 49
0.000110
 49
-0.000110
 49
0.000110
 49
-0.000110
  0
LTYPE
  2
DOT
 70
    64
  3
...............................................
 72
    65
 73
     2
 40
0.000110
 49
0.000000
 49
-0.000110
  0
LTYPE
  2
DASHDOT
 70
    64
  3
__ . __ . __ . __ . __ . __ . __ . __ . __ . __
 72
    65
 73
     4
 40
0.000440
 49
0.000220
 49
-0.000110
 49
0.000000
 49
-0.000110
  0
LTYPE
  2
BORDER
 70
    64
  3
__ __ . __ __ . __ __ . __ __ . __ __ . __ __
 72
    65
 73
     6
 40
0.000770
 49
0.000220
 49
-0.000110
 49
0.000220
 49
-0.000110
 49
0.000000
 49
-0.000110
  0
LTYPE
  2
DIVIDE
 70
    64
  3
__ . . __ . . __ . . __ . . __ . . __ . . __
 72
    65
 73
     6
 40
0.000550
 49
0.000220
 49
-0.000110
 49
0.000000
 49
-0.000110
 49
0.000000
 49
-0.000110
  0
LTYPE
  2
DOTDOT
 70
    64
  3
 . .  . .  . .  . .  . .  . . 
 72
    65
 73
     5
 40
0.000242
 49
-0.000110
 49
0.000000
 49
-0.000110
 49
0.000000
 49
-0.000110
  0
ENDTAB
  0
TABLE
  2
STYLE
 70
     2
  0
STYLE
 70
     0
  2
SN0
 40
0.000000
 41
0.000440
 50
0.000000
 71
     0
 42
0.000000
  3
ROMAND
  0
STYLE
 70
    68
  2
SV0
 40
0.000000
 41
0.000440
 50
0.000000
 71
     0
 42
0.000000
  3
ROMAND
  0
ENDTAB
  0
TABLE
  2
LAYER
 70
     3
  0
LAYER
  2
FOREGROUND
 70
    64
 62
     7
  6
CONTINUOUS
  0
LAYER
  2
BACKGROUND
 70
    65
 62
    -7
  6
CONTINUOUS
  0
LAYER
  2
0
 70
    64
 62
     7
  6
CONTINUOUS
  0
ENDTAB
  0
ENDSEC
  0
SECTION
  2
ENTITIES
  0
POLYLINE
  8
FOREGROUND
  6
CONTINUOUS
 66
     1
 40
0.000000
 41
0.000000
  0
VERTEX
  8
FOREGROUND
  6
CONTINUOUS
 10
0.000000
 20
6.975320
  0
VERTEX
  8
FOREGROUND
  6
CONTINUOUS
 10
8.499920
 20
6.975320
  0
VERTEX
  8
FOREGROUND
  6
CONTINUOUS
 10
8.499920
 20
-4.024680
  0
VERTEX
  8
FOREGROUND
  6
CONTINUOUS
 10
0.000000
 20
-4.024680
  0
VERTEX
  8
FOREGROUND
  6
CONTINUOUS
 10
0.000000
 20
6.975320
  0
SEQEND
  8
0
  0
POLYLINE
  8
FOREGROUND
  6
CONTINUOUS
 66
     1
 40
0.000000
 41
0.000000
  0
VERTEX
  8
FOREGROUND
  6
CONTINUOUS
 10
0.000000
 20
6.975320
  0
VERTEX
  8
FOREGROUND
  6
CONTINUOUS
 10
8.499920
 20
6.975320
  0
VERTEX
  8
FOREGROUND
  6
CONTINUOUS
 10
8.499920
 20
-4.024680
  0
VERTEX
  8
FOREGROUND
  6
CONTINUOUS
 10
0.000000
 20
-4.024680
  0
VERTEX
  8
FOREGROUND
  6
CONTINUOUS
 10
0.000000
 20
6.975320
  0
SEQEND
  8
0
  0
SOLID
  8
0
 62
    15
 10
6.637840
 20
3.989480
 11
6.633000
 21
4.730880
 12
6.667320
 22
3.995640
 13
6.662920
 23
4.737040
  0
POLYLINE
  8
0
  6
CONTINUOUS
 66
     1
 40
0.000000
 41
0.000000
  0
VERTEX
  8
0
  6
CONTINUOUS
 10
6.637840
 20
3.989480
  0
VERTEX
  8
0
  6
CONTINUOUS
 10
6.633000
 20
4.730880
  0
VERTEX
  8
0
  6
CONTINUOUS
 10
6.662920
 20
4.737040
  0
VERTEX
  8
0
  6
CONTINUOUS
 10
6.667320
 20
3.995640
  0
VERTEX
  8
0
  6
CONTINUOUS
 10
6.637840
 20
3.989480
  0
SEQEND
  8
0
  0
POLYLINE
  8
0
  6
CONTINUOUS
 66
     1
 40
0.000000
 41
0.000000
  0
VERTEX
  8
0
  6
CONTINUOUS
 10
4.847480
 20
4.002240
  0
VERTEX
  8
0
  6
CONTINUOUS
 10
4.843080
 20
4.743640
  0
VERTEX
  8
0
  6
CONTINUOUS
 10
4.847480
 20
4.002240
  0
SEQEND
  8
0
  0
SOLID
  8
0
 62
    15
 10
6.504520
 20
3.853960
 11
6.500120
 21
4.595360
 12
6.533120
 22
3.853960
 13
6.528720
 23
4.595360
  0
POLYLINE
  8
0
  6
CONTINUOUS
 66
     1
 40
0.000000
 41
0.000000
  0
VERTEX
  8
0
  6
CONTINUOUS
 10
6.504520
 20
3.853960
  0
VERTEX
  8
0
  6
CONTINUOUS
 10
6.500120
 20
4.595360
  0
VERTEX
  8
0
  6
CONTINUOUS
 10
6.528720
 20
4.595360
  0
VERTEX
  8
0
  6
CONTINUOUS
 10
6.533120
 20
3.853960
  0
VERTEX
  8
0
  6
CONTINUOUS
 10
6.504520
 20
3.853960
  0
SEQEND
  8
0
  0
SOLID
  8
0
 62
    15
 10
6.496600
 20
4.002240
 11
6.492200
 21
4.743640
 12
6.504520
 22
3.853960
 13
6.500120
 23
4.595360
  0
POLYLINE
  8
0
  6
CONTINUOUS
 66
     1
 40
0.000000
 41
0.000000
  0
VERTEX
  8
0
  6
CONTINUOUS
 10
6.496600
 20
4.002240
  0
VERTEX
  8
0
  6
CONTINUOUS
 10
6.492200
 20
4.743640
  0
VERTEX
  8
0
  6
CONTINUOUS
 10
6.500120
 20
4.595360
  0
VERTEX
  8
0
  6
CONTINUOUS
 10
6.504520
 20
3.853960
  0
VERTEX
  8
0
  6
CONTINUOUS
 10
6.496600
 20
4.002240
  0
SEQEND
  8
0
  0
SOLID
  8
0
 62
    15
 10
4.847480
 20
4.002240
 11
4.843080
 21
4.743640
 12
6.496600
 22
4.002240
 13
6.492200
 23
4.743640
  0
POLYLINE
  8
0
  6
CONTINUOUS
 66
     1
 40
0.000000
 41
0.000000
  0
VERTEX
  8
0
  6
CONTINUOUS
 10
4.847480
 20
4.002240
  0
VERTEX
  8
0
  6
CONTINUOUS
 10
4.843080
 20
4.743640
  0
VERTEX
  8
0
  6
CONTINUOUS
 10
6.492200
 20
4.743640
  0
VERTEX
  8
0
  6
CONTINUOUS
 10
6.496600
 20
4.002240
  0
VERTEX
  8
0
  6
CONTINUOUS
 10
4.847480
 20
4.002240
  0
SEQEND
  8
0
  0
SOLID
  8
0
 62
    15
 10
6.533120
 20
3.853960
 11
6.528720
 21
4.595360
 12
6.537080
 22
3.887840
 13
6.532680
 23
4.629240
  0
POLYLINE
  8
0
  6
CONTINUOUS
 66
     1
 40
0.000000
 41
0.000000
  0
VERTEX
  8
0
  6
CONTINUOUS
 10
6.533120
 20
3.853960
  0
VERTEX
  8
0
  6
CONTINUOUS
 10
6.528720
 20
4.595360
  0
VERTEX
  8
0
  6
CONTINUOUS
 10
6.532680
 20
4.629240
  0
VERTEX
  8
0
  6
CONTINUOUS
 10
6.537080
 20
3.887840
  0
VERTEX
  8
0
  6
CONTINUOUS
 10
6.533120
 20
3.853960
  0
SEQEND
  8
0
  0
SOLID
  8
0
 62
    15
 10
6.537080
 20
3.887840
 11
6.532680
 21
4.629240
 12
6.547640
 22
3.917320
 13
6.542800
 23
4.658720
  0
POLYLINE
  8
0
  6
CONTINUOUS
 66
     1
 40
0.000000
 41
0.000000
  0
VERTEX
  8
0
  6
CONTINUOUS
 10
6.537080
 20
3.887840
  0
VERTEX
  8
0
  6
CONTINUOUS
 10
6.532680
 20
4.629240
  0
VERTEX
  8
0
  6
CONTINUOUS
 10
6.542800
 20
4.658720
  0
VERTEX
  8
0
  6
CONTINUOUS
 10
6.547640
 20
3.917320
  0
VERTEX
  8
0
  6
CONTINUOUS
 10
6.537080
 20
3.887840
  0
SEQEND
  8
0
  0
SOLID
  8
0
 62
    15
 10
6.547640
 20
3.917320
 11
6.542800
 21
4.658720
 12
6.563920
 22
3.942400
 13
6.559080
 23
4.683800
  0
POLYLINE
  8
0
  6
CONTINUOUS
 66
     1
 40
0.000000
 41
0.000000
  0
VERTEX
  8
0
  6
CONTINUOUS
 10
6.547640
 20
3.917320
  0
VERTEX
  8
0
  6
CONTINUOUS
 10
6.542800
 20
4.658720
  0
VERTEX
  8
0
  6
CONTINUOUS
 10
6.559080
 20
4.683800
  0
VERTEX
  8
0
  6
CONTINUOUS
 10
6.563920
 20
3.942400
  0
VERTEX
  8
0
  6
CONTINUOUS
 10
6.547640
 20
3.917320
  0
SEQEND
  8
0
  0
SOLID
  8
0
 62
    15
 10
6.563920
 20
3.942400
 11
6.559080
 21
4.683800
 12
6.585040
 22
3.962640
 13
6.580200
 23
4.704040
  0
POLYLINE
  8
0
  6
CONTINUOUS
 66
     1
 40
0.000000
 41
0.000000
  0
VERTEX
  8
0
  6
CONTINUOUS
 10
6.563920
 20
3.942400
  0
VERTEX
  8
0
  6
CONTINUOUS
 10
6.559080
 20
4.683800
  0
VERTEX
  8
0
  6
CONTINUOUS
 10
6.580200
 20
4.704040
  0
VERTEX
  8
0
  6
CONTINUOUS
 10
6.585040
 20
3.962640
  0
VERTEX
  8
0
  6
CONTINUOUS
 10
6.563920
 20
3.942400
  0
SEQEND
  8
0
  0
SOLID
  8
0
 62
    15
 10
6.585040
 20
3.962640
 11
6.580200
 21
4.704040
 12
6.609680
 22
3.978480
 13
6.605280
 23
4.719880
  0
POLYLINE
  8
0
  6
CONTINUOUS
 66
     1
 40
0.000000
 41
0.000000
  0
VERTEX
  8
0
  6
CONTINUOUS
 10
6.585040
 20
3.962640
  0
VERTEX
  8
0
  6
CONTINUOUS
 10
6.580200
 20
4.704040
  0
VERTEX
  8
0
  6
CONTINUOUS
 10
6.605280
 20
4.719880
  0
VERTEX
  8
0
  6
CONTINUOUS
 10
6.609680
 20
3.978480
  0
VERTEX
  8
0
  6
CONTINUOUS
 10
6.585040
 20
3.962640
  0
SEQEND
  8
0
  0
SOLID
  8
0
 62
    15
 10
6.609680
 20
3.978480
 11
6.605280
 21
4.719880
 12
6.637840
 22
3.989480
 13
6.633000
 23
4.730880
  0
POLYLINE
  8
0
  6
CONTINUOUS
 66
     1
 40
0.000000
 41
0.000000
  0
VERTEX
  8
0
  6
CONTINUOUS
 10
6.609680
 20
3.978480
  0
VERTEX
  8
0
  6
CONTINUOUS
 10
6.605280
 20
4.719880
  0
VERTEX
  8
0
  6
CONTINUOUS
 10
6.633000
 20
4.730880
  0
VERTEX
  8
0
  6
CONTINUOUS
 10
6.637840
 20
3.989480
  0
VERTEX
  8
0
  6
CONTINUOUS
 10
6.609680
 20
3.978480
  0
SEQEND
  8
0
  0
SOLID
  8
0
 62
    15
 10
2.619320
 20
3.283720
 11
2.614920
 21
4.025120
 12
2.619320
 22
4.002240
 13
2.614920
 23
4.743640
  0
POLYLINE
  8
0
  6
CONTINUOUS
 66
     1
 40
0.000000
 41
0.000000
  0
VERTEX
  8
0
  6
CONTINUOUS
 10
2.619320
 20
3.283720
  0
VERTEX
  8
0
  6
CONTINUOUS
 10
2.614920
 20
4.025120
  0
VERTEX
  8
0
  6
CONTINUOUS
 10
2.614920
 20
4.743640
  0
VERTEX
  8
0
  6
CONTINUOUS
 10
2.619320
 20
4.002240
  0
VERTEX
  8
0
  6
CONTINUOUS
 10
2.619320
 20
3.283720
  0
SEQEND
  8
0
  0
SOLID
  8
0
 62
    15
 10
6.667320
 20
3.995640
 11
6.662920
 21
4.737040
 12
6.698120
 22
3.996960
 13
6.693720
 23
4.738360
  0
POLYLINE
  8
0
  6
CONTINUOUS
 66
     1
 40
0.000000
 41
0.000000
  0
VERTEX
  8
0
  6
CONTINUOUS
 10
6.667320
 20
3.995640
  0
VERTEX
  8
0
  6
CONTINUOUS
 10
6.662920
 20
4.737040
  0
VERTEX
  8
0
  6
CONTINUOUS
 10
6.693720
 20
4.738360
  0
VERTEX
  8
0
  6
CONTINUOUS
 10
6.698120
 20
3.996960
  0
VERTEX
  8
0
  6
CONTINUOUS
 10
6.667320
 20
3.995640
  0
SEQEND
  8
0
  0
SOLID
  8
0
 62
    15
 10
6.698120
 20
3.996960
 11
6.693720
 21
4.738360
 12
6.728920
 22
3.993880
 13
6.724520
 23
4.735280
  0
POLYLINE
  8
0
  6
CONTINUOUS
 66
     1
 40
0.000000
 41
0.000000
  0
VERTEX
  8
0
  6
CONTINUOUS
 10
6.698120
 20
3.996960
  0
VERTEX
  8
0
  6
CONTINUOUS
 10
6.693720
 20
4.738360
  0
VERTEX
  8
0
  6
CONTINUOUS
 10
6.724520
 20
4.735280
  0
VERTEX
  8
0
  6
CONTINUOUS
 10
6.728920
 20
3.993880
  0
VERTEX
  8
0
  6
CONTINUOUS
 10
6.698120
 20
3.996960
  0
SEQEND
  8
0
  0
SOLID
  8
0
 62
    15
 10
6.728920
 20
3.993880
 11
6.724520
 21
4.735280
 12
6.758840
 22
3.985960
 13
6.754000
 23
4.727360
  0
POLYLINE
  8
0
  6
CONTINUOUS
 66
     1
 40
0.000000
 41
0.000000
  0
VERTEX
  8
0
  6
CONTINUOUS
 10
6.728920
 20
3.993880
  0
VERTEX
  8
0
  6
CONTINUOUS
 10
6.724520
 20
4.735280
  0
VERTEX
  8
0
  6
CONTINUOUS
 10
6.754000
 20
4.727360
  0
VERTEX
  8
0
  6
CONTINUOUS
 10
6.758840
 20
3.985960
  0
VERTEX
  8
0
  6
CONTINUOUS
 10
6.728920
 20
3.993880
  0
SEQEND
  8
0
  0
SOLID
  8
0
 62
    15
 10
6.758840
 20
3.985960
 11
6.754000
 21
4.727360
 12
6.786560
 22
3.973200
 13
6.782160
 23
4.714600
  0
POLYLINE
  8
0
  6
CONTINUOUS
 66
     1
 40
0.000000
 41
0.000000
  0
VERTEX
  8
0
  6
CONTINUOUS
 10
6.758840
 20
3.985960
  0
VERTEX
  8
0
  6
CONTINUOUS
 10
6.754000
 20
4.727360
  0
VERTEX
  8
0
  6
CONTINUOUS
 10
6.782160
 20
4.714600
  0
VERTEX
  8
0
  6
CONTINUOUS
 10
6.786560
 20
3.973200
  0
VERTEX
  8
0
  6
CONTINUOUS
 10
6.758840
 20
3.985960
  0
SEQEND
  8
0
  0
SOLID
  8
0
 62
    15
 10
6.786560
 20
3.973200
 11
6.782160
 21
4.714600
 12
6.811640
 22
3.955160
 13
6.806800
 23
4.696560
  0
POLYLINE
  8
0
  6
CONTINUOUS
 66
     1
 40
0.000000
 41
0.000000
  0
VERTEX
  8
0
  6
CONTINUOUS
 10
6.786560
 20
3.973200
  0
VERTEX
  8
0
  6
CONTINUOUS
 10
6.782160
 20
4.714600
  0
VERTEX
  8
0
  6
CONTINUOUS
 10
6.806800
 20
4.696560
  0
VERTEX
  8
0
  6
CONTINUOUS
 10
6.811640
 20
3.955160
  0
VERTEX
  8
0
  6
CONTINUOUS
 10
6.786560
 20
3.973200
  0
SEQEND
  8
0
  0
SOLID
  8
0
 62
    15
 10
6.811640
 20
3.955160
 11
6.806800
 21
4.696560
 12
6.832760
 22
3.932720
 13
6.827920
 23
4.674120
  0
POLYLINE
  8
0
  6
CONTINUOUS
 66
     1
 40
0.000000
 41
0.000000
  0
VERTEX
  8
0
  6
CONTINUOUS
 10
6.811640
 20
3.955160
  0
VERTEX
  8
0
  6
CONTINUOUS
 10
6.806800
 20
4.696560
  0
VERTEX
  8
0
  6
CONTINUOUS
 10
6.827920
 20
4.674120
  0
VERTEX
  8
0
  6
CONTINUOUS
 10
6.832760
 20
3.932720
  0
VERTEX
  8
0
  6
CONTINUOUS
 10
6.811640
 20
3.955160
  0
SEQEND
  8
0
  0
SOLID
  8
0
 62
    15
 10
6.849040
 20
3.905440
 11
6.844200
 21
4.646400
 12
6.859600
 22
3.872880
 13
6.854760
 23
4.614280
  0
POLYLINE
  8
0
  6
CONTINUOUS
 66
     1
 40
0.000000
 41
0.000000
  0
VERTEX
  8
0
  6
CONTINUOUS
 10
6.849040
 20
3.905440
  0
VERTEX
  8
0
  6
CONTINUOUS
 10
6.844200
 20
4.646400
  0
VERTEX
  8
0
  6
CONTINUOUS
 10
6.854760
 20
4.614280
  0
VERTEX
  8
0
  6
CONTINUOUS
 10
6.859600
 20
3.872880
  0
VERTEX
  8
0
  6
CONTINUOUS
 10
6.849040
 20
3.905440
  0
SEQEND
  8
0
  0
SOLID
  8
0
 62
    15
 10
6.832760
 20
3.932720
 11
6.827920
 21
4.674120
 12
6.849040
 22
3.905440
 13
6.844200
 23
4.646400
  0
POLYLINE
  8
0
  6
CONTINUOUS
 66
     1
 40
0.000000
 41
0.000000
  0
VERTEX
  8
0
  6
CONTINUOUS
 10
6.832760
 20
3.932720
  0
VERTEX
  8
0
  6
CONTINUOUS
 10
6.827920
 20
4.674120
  0
VERTEX
  8
0
  6
CONTINUOUS
 10
6.844200
 20
4.646400
  0
VERTEX
  8
0
  6
CONTINUOUS
 10
6.849040
 20
3.905440
  0
VERTEX
  8
0
  6
CONTINUOUS
 10
6.832760
 20
3.932720
  0
SEQEND
  8
0
  0
SOLID
  8
0
 62
    15
 10
6.859600
 20
3.872880
 11
6.854760
 21
4.614280
 12
6.863120
 22
3.835480
 13
6.858720
 23
4.576880
  0
POLYLINE
  8
0
  6
CONTINUOUS
 66
     1
 40
0.000000
 41
0.000000
  0
VERTEX
  8
0
  6
CONTINUOUS
 10
6.859600
 20
3.872880
  0
VERTEX
  8
0
  6
CONTINUOUS
 10
6.854760
 20
4.614280
  0
VERTEX
  8
0
  6
CONTINUOUS
 10
6.858720
 20
4.576880
  0
VERTEX
  8
0
  6
CONTINUOUS
 10
6.863120
 20
3.835480
  0
VERTEX
  8
0
  6
CONTINUOUS
 10
6.859600
 20
3.872880
  0
SEQEND
  8
0
  0
SOLID
  8
0
 62
    15
 10
6.863120
 20
3.835480
 11
6.858720
 21
4.576880
 12
6.864880
 22
3.678840
 13
6.860480
 23
4.420240
  0
POLYLINE
  8
0
  6
CONTINUOUS
 66
     1
 40
0.000000
 41
0.000000
  0
VERTEX
  8
0
  6
CONTINUOUS
 10
6.863120
 20
3.835480
  0
VERTEX
  8
0
  6
CONTINUOUS
 10
6.858720
 20
4.576880
  0
VERTEX
  8
0
  6
CONTINUOUS
 10
6.860480
 20
4.420240
  0
VERTEX
  8
0
  6
CONTINUOUS
 10
6.864880
 20
3.678840
  0
VERTEX
  8
0
  6
CONTINUOUS
 10
6.863120
 20
3.835480
  0
SEQEND
  8
0
  0
SOLID
  8
0
 62
    15
 10
2.618880
 20
4.002240
 11
2.614480
 21
4.743640
 12
4.847480
 22
4.002240
 13
4.843080
 23
4.743640
  0
POLYLINE
  8
0
  6
CONTINUOUS
 66
     1
 40
0.000000
 41
0.000000
  0
VERTEX
  8
0
  6
CONTINUOUS
 10
2.618880
 20
4.002240
  0
VERTEX
  8
0
  6
CONTINUOUS
 10
2.614480
 20
4.743640
  0
VERTEX
  8
0
  6
CONTINUOUS
 10
4.843080
 20
4.743640
  0
VERTEX
  8
0
  6
CONTINUOUS
 10
4.847480
 20
4.002240
  0
VERTEX
  8
0
  6
CONTINUOUS
 10
2.618880
 20
4.002240
  0
SEQEND
  8
0
  0
POLYLINE
  8
0
  6
CONTINUOUS
 66
     1
 40
0.000000
 41
0.000000
  0
VERTEX
  8
0
  6
CONTINUOUS
 10
2.618880
 20
4.002240
  0
VERTEX
  8
0
  6
CONTINUOUS
 10
4.847480
 20
4.002240
  0
VERTEX
  8
0
  6
CONTINUOUS
 10
6.496600
 20
4.002240
  0
VERTEX
  8
0
  6
CONTINUOUS
 10
6.504520
 20
3.853960
  0
VERTEX
  8
0
  6
CONTINUOUS
 10
6.533120
 20
3.853960
  0
VERTEX
  8
0
  6
CONTINUOUS
 10
6.537080
 20
3.887840
  0
VERTEX
  8
0
  6
CONTINUOUS
 10
6.547640
 20
3.917320
  0
VERTEX
  8
0
  6
CONTINUOUS
 10
6.563920
 20
3.942400
  0
VERTEX
  8
0
  6
CONTINUOUS
 10
6.585040
 20
3.962640
  0
VERTEX
  8
0
  6
CONTINUOUS
 10
6.609680
 20
3.978480
  0
VERTEX
  8
0
  6
CONTINUOUS
 10
6.637840
 20
3.989480
  0
VERTEX
  8
0
  6
CONTINUOUS
 10
6.667320
 20
3.995640
  0
VERTEX
  8
0
  6
CONTINUOUS
 10
6.698120
 20
3.996960
  0
VERTEX
  8
0
  6
CONTINUOUS
 10
6.728920
 20
3.993880
  0
VERTEX
  8
0
  6
CONTINUOUS
 10
6.758840
 20
3.985960
  0
VERTEX
  8
0
  6
CONTINUOUS
 10
6.786560
 20
3.973200
  0
VERTEX
  8
0
  6
CONTINUOUS
 10
6.811640
 20
3.955160
  0
VERTEX
  8
0
  6
CONTINUOUS
 10
6.832760
 20
3.932720
  0
VERTEX
  8
0
  6
CONTINUOUS
 10
6.849040
 20
3.905440
  0
VERTEX
  8
0
  6
CONTINUOUS
 10
6.859600
 20
3.872880
  0
VERTEX
  8
0
  6
CONTINUOUS
 10
6.863120
 20
3.835480
  0
VERTEX
  8
0
  6
CONTINUOUS
 10
6.864880
 20
3.678840
  0
VERTEX
  8
0
  6
CONTINUOUS
 10
6.864880
 20
3.283720
  0
VERTEX
  8
0
  6
CONTINUOUS
 10
2.619320
 20
3.283720
  0
VERTEX
  8
0
  6
CONTINUOUS
 10
2.619320
 20
4.002240
  0
VERTEX
  8
0
  6
CONTINUOUS
 10
2.618880
 20
4.002240
  0
SEQEND
  8
0
  0
TEXT
  8
0
 10
4.420680
 20
3.042160
 40
0.138285
  1
BA 1219
 41
1.000000
  7
SN0
 71
     0
 72
     5
 11
5.058358
 21
3.042160
  0
TEXT
  8
0
 10
4.317280
 20
2.850320
 40
0.138285
  1
3/4 x 4-1/4"
 41
1.000000
  7
SN0
 71
     0
 72
     5
 11
5.161323
 21
2.850320
  0
POLYLINE
  8
0
  6
CONTINUOUS
 66
     1
 40
0.014080
 41
0.014080
  0
VERTEX
  8
0
  6
CONTINUOUS
 10
2.550240
 20
5.893360
  0
VERTEX
  8
0
  6
CONTINUOUS
 10
2.550240
 20
5.650480
  0
VERTEX
  8
0
  6
CONTINUOUS
 10
2.550240
 20
5.175280
  0
VERTEX
  8
0
  6
CONTINUOUS
 10
6.795360
 20
5.175280
  0
VERTEX
  8
0
  6
CONTINUOUS
 10
6.795360
 20
5.569960
  0
VERTEX
  8
0
  6
CONTINUOUS
 10
6.794040
 20
5.726600
  0
VERTEX
  8
0
  6
CONTINUOUS
 10
6.793160
 20
5.745960
  0
VERTEX
  8
0
  6
CONTINUOUS
 10
6.790080
 20
5.764000
  0
VERTEX
  8
0
  6
CONTINUOUS
 10
6.785680
 20
5.780720
  0
VERTEX
  8
0
  6
CONTINUOUS
 10
6.779520
 20
5.796560
  0
VERTEX
  8
0
  6
CONTINUOUS
 10
6.772040
 20
5.810640
  0
VERTEX
  8
0
  6
CONTINUOUS
 10
6.763240
 20
5.823840
  0
VERTEX
  8
0
  6
CONTINUOUS
 10
6.753120
 20
5.835720
  0
VERTEX
  8
0
  6
CONTINUOUS
 10
6.742120
 20
5.846280
  0
VERTEX
  8
0
  6
CONTINUOUS
 10
6.730240
 20
5.855960
  0
VERTEX
  8
0
  6
CONTINUOUS
 10
6.717040
 20
5.864320
  0
VERTEX
  8
0
  6
CONTINUOUS
 10
6.703400
 20
5.871360
  0
VERTEX
  8
0
  6
CONTINUOUS
 10
6.689320
 20
5.877080
  0
VERTEX
  8
0
  6
CONTINUOUS
 10
6.674800
 20
5.881480
  0
VERTEX
  8
0
  6
CONTINUOUS
 10
6.659400
 20
5.885000
  0
VERTEX
  8
0
  6
CONTINUOUS
 10
6.644440
 20
5.887200
  0
VERTEX
  8
0
  6
CONTINUOUS
 10
6.629040
 20
5.888080
  0
VERTEX
  8
0
  6
CONTINUOUS
 10
6.613640
 20
5.888080
  0
VERTEX
  8
0
  6
CONTINUOUS
 10
6.598240
 20
5.886760
  0
VERTEX
  8
0
  6
CONTINUOUS
 10
6.583280
 20
5.884120
  0
VERTEX
  8
0
  6
CONTINUOUS
 10
6.568320
 20
5.880600
  0
VERTEX
  8
0
  6
CONTINUOUS
 10
6.554240
 20
5.875760
  0
VERTEX
  8
0
  6
CONTINUOUS
 10
6.540600
 20
5.869600
  0
VERTEX
  8
0
  6
CONTINUOUS
 10
6.527840
 20
5.862560
  0
VERTEX
  8
0
  6
CONTINUOUS
 10
6.515520
 20
5.853760
  0
VERTEX
  8
0
  6
CONTINUOUS
 10
6.504520
 20
5.844520
  0
VERTEX
  8
0
  6
CONTINUOUS
 10
6.494400
 20
5.833520
  0
VERTEX
  8
0
  6
CONTINUOUS
 10
6.485600
 20
5.821640
  0
VERTEX
  8
0
  6
CONTINUOUS
 10
6.478120
 20
5.808880
  0
VERTEX
  8
0
  6
CONTINUOUS
 10
6.472400
 20
5.794360
  0
VERTEX
  8
0
  6
CONTINUOUS
 10
6.468000
 20
5.779400
  0
VERTEX
  8
0
  6
CONTINUOUS
 10
6.464920
 20
5.762680
  0
VERTEX
  8
0
  6
CONTINUOUS
 10
6.464040
 20
5.745080
  0
VERTEX
  8
0
  6
CONTINUOUS
 10
6.435440
 20
5.745080
  0
VERTEX
  8
0
  6
CONTINUOUS
 10
6.427520
 20
5.893800
  0
VERTEX
  8
0
  6
CONTINUOUS
 10
4.778400
 20
5.893800
  0
VERTEX
  8
0
  6
CONTINUOUS
 10
4.777960
 20
5.893360
  0
VERTEX
  8
0
  6
CONTINUOUS
 10
2.650120
 20
5.893360
  0
VERTEX
  8
0
  6
CONTINUOUS
 10
2.549800
 20
5.893360
  0
VERTEX
  8
0
  6
CONTINUOUS
 10
2.550240
 20
5.893360
  0
SEQEND
  8
0
  0
TEXT
  8
0
 10
4.405720
 20
5.581840
 40
0.138285
  1
BA 1219
 41
1.000000
  7
SN0
 71
     0
 72
     5
 11
5.043398
 21
5.581840
  0
TEXT
  8
0
 10
4.302320
 20
5.390440
 40
0.138285
  1
3/4 x 4-1/4"
 41
1.000000
  7
SN0
 71
     0
 72
     5
 11
5.146363
 21
5.390440
  0
POLYLINE
  8
0
  6
CONTINUOUS
 66
     1
 40
0.000000
 41
0.000000
  0
VERTEX
  8
0
  6
CONTINUOUS
 10
6.922520
 20
1.792560
  0
VERTEX
  8
0
  6
CONTINUOUS
 10
6.922520
 20
1.549240
  0
VERTEX
  8
0
  6
CONTINUOUS
 10
6.922520
 20
1.074040
  0
VERTEX
  8
0
  6
CONTINUOUS
 10
2.676960
 20
1.074040
  0
VERTEX
  8
0
  6
CONTINUOUS
 10
2.676960
 20
1.469160
  0
VERTEX
  8
0
  6
CONTINUOUS
 10
2.678720
 20
1.625800
  0
VERTEX
  8
0
  6
CONTINUOUS
 10
2.679600
 20
1.645160
  0
VERTEX
  8
0
  6
CONTINUOUS
 10
2.682680
 20
1.663200
  0
VERTEX
  8
0
  6
CONTINUOUS
 10
2.687080
 20
1.679920
  0
VERTEX
  8
0
  6
CONTINUOUS
 10
2.692800
 20
1.695760
  0
VERTEX
  8
0
  6
CONTINUOUS
 10
2.700280
 20
1.709840
  0
VERTEX
  8
0
  6
CONTINUOUS
 10
2.709080
 20
1.723040
  0
VERTEX
  8
0
  6
CONTINUOUS
 10
2.719200
 20
1.734920
  0
VERTEX
  8
0
  6
CONTINUOUS
 10
2.730200
 20
1.745480
  0
VERTEX
  8
0
  6
CONTINUOUS
 10
2.742520
 20
1.755160
  0
VERTEX
  8
0
  6
CONTINUOUS
 10
2.755280
 20
1.763520
  0
VERTEX
  8
0
  6
CONTINUOUS
 10
2.768920
 20
1.770560
  0
VERTEX
  8
0
  6
CONTINUOUS
 10
2.783000
 20
1.776280
  0
VERTEX
  8
0
  6
CONTINUOUS
 10
2.797960
 20
1.780680
  0
VERTEX
  8
0
  6
CONTINUOUS
 10
2.812920
 20
1.784200
  0
VERTEX
  8
0
  6
CONTINUOUS
 10
2.828320
 20
1.786400
  0
VERTEX
  8
0
  6
CONTINUOUS
 10
2.843720
 20
1.787280
  0
VERTEX
  8
0
  6
CONTINUOUS
 10
2.859120
 20
1.787280
  0
VERTEX
  8
0
  6
CONTINUOUS
 10
2.874520
 20
1.785960
  0
VERTEX
  8
0
  6
CONTINUOUS
 10
2.889480
 20
1.783320
  0
VERTEX
  8
0
  6
CONTINUOUS
 10
2.904440
 20
1.779800
  0
VERTEX
  8
0
  6
CONTINUOUS
 10
2.918520
 20
1.774960
  0
VERTEX
  8
0
  6
CONTINUOUS
 10
2.932160
 20
1.768800
  0
VERTEX
  8
0
  6
CONTINUOUS
 10
2.944920
 20
1.761760
  0
VERTEX
  8
0
  6
CONTINUOUS
 10
2.957240
 20
1.752960
  0
VERTEX
  8
0
  6
CONTINUOUS
 10
2.968240
 20
1.743720
  0
VERTEX
  8
0
  6
CONTINUOUS
 10
2.978360
 20
1.732720
  0
VERTEX
  8
0
  6
CONTINUOUS
 10
2.987160
 20
1.720840
  0
VERTEX
  8
0
  6
CONTINUOUS
 10
2.994640
 20
1.708080
  0
VERTEX
  8
0
  6
CONTINUOUS
 10
3.000360
 20
1.693560
  0
VERTEX
  8
0
  6
CONTINUOUS
 10
3.004760
 20
1.678600
  0
VERTEX
  8
0
  6
CONTINUOUS
 10
3.007840
 20
1.661880
  0
VERTEX
  8
0
  6
CONTINUOUS
 10
3.008720
 20
1.644280
  0
VERTEX
  8
0
  6
CONTINUOUS
 10
3.037320
 20
1.644280
  0
VERTEX
  8
0
  6
CONTINUOUS
 10
3.045240
 20
1.792560
  0
VERTEX
  8
0
  6
CONTINUOUS
 10
4.694360
 20
1.792560
  0
VERTEX
  8
0
  6
CONTINUOUS
 10
6.822640
 20
1.792560
  0
VERTEX
  8
0
  6
CONTINUOUS
 10
6.922960
 20
1.792560
  0
VERTEX
  8
0
  6
CONTINUOUS
 10
6.922520
 20
1.792560
  0
SEQEND
  8
0
  0
POLYLINE
  8
0
  6
CONTINUOUS
 66
     1
 40
0.000000
 41
0.000000
  0
VERTEX
  8
0
  6
CONTINUOUS
 10
2.665520
 20
2.608760
  0
VERTEX
  8
0
  6
CONTINUOUS
 10
2.665520
 20
2.365440
  0
VERTEX
  8
0
  6
CONTINUOUS
 10
2.665520
 20
1.890240
  0
VERTEX
  8
0
  6
CONTINUOUS
 10
6.911080
 20
1.890240
  0
VERTEX
  8
0
  6
CONTINUOUS
 10
6.911080
 20
2.285360
  0
VERTEX
  8
0
  6
CONTINUOUS
 10
6.909320
 20
2.442000
  0
VERTEX
  8
0
  6
CONTINUOUS
 10
6.908440
 20
2.461360
  0
VERTEX
  8
0
  6
CONTINUOUS
 10
6.905360
 20
2.479400
  0
VERTEX
  8
0
  6
CONTINUOUS
 10
6.900960
 20
2.496120
  0
VERTEX
  8
0
  6
CONTINUOUS
 10
6.895240
 20
2.511960
  0
VERTEX
  8
0
  6
CONTINUOUS
 10
6.887760
 20
2.526040
  0
VERTEX
  8
0
  6
CONTINUOUS
 10
6.878960
 20
2.539240
  0
VERTEX
  8
0
  6
CONTINUOUS
 10
6.868840
 20
2.551120
  0
VERTEX
  8
0
  6
CONTINUOUS
 10
6.857840
 20
2.561680
  0
VERTEX
  8
0
  6
CONTINUOUS
 10
6.845520
 20
2.571360
  0
VERTEX
  8
0
  6
CONTINUOUS
 10
6.832760
 20
2.579720
  0
VERTEX
  8
0
  6
CONTINUOUS
 10
6.819120
 20
2.586760
  0
VERTEX
  8
0
  6
CONTINUOUS
 10
6.805040
 20
2.592480
  0
VERTEX
  8
0
  6
CONTINUOUS
 10
6.790080
 20
2.596880
  0
VERTEX
  8
0
  6
CONTINUOUS
 10
6.775120
 20
2.600400
  0
VERTEX
  8
0
  6
CONTINUOUS
 10
6.759720
 20
2.602600
  0
VERTEX
  8
0
  6
CONTINUOUS
 10
6.744320
 20
2.603480
  0
VERTEX
  8
0
  6
CONTINUOUS
 10
6.728920
 20
2.603480
  0
VERTEX
  8
0
  6
CONTINUOUS
 10
6.713520
 20
2.602160
  0
VERTEX
  8
0
  6
CONTINUOUS
 10
6.698560
 20
2.599520
  0
VERTEX
  8
0
  6
CONTINUOUS
 10
6.683600
 20
2.596000
  0
VERTEX
  8
0
  6
CONTINUOUS
 10
6.669520
 20
2.591160
  0
VERTEX
  8
0
  6
CONTINUOUS
 10
6.655880
 20
2.585000
  0
VERTEX
  8
0
  6
CONTINUOUS
 10
6.643120
 20
2.577960
  0
VERTEX
  8
0
  6
CONTINUOUS
 10
6.630800
 20
2.569160
  0
VERTEX
  8
0
  6
CONTINUOUS
 10
6.619800
 20
2.559920
  0
VERTEX
  8
0
  6
CONTINUOUS
 10
6.609680
 20
2.548920
  0
VERTEX
  8
0
  6
CONTINUOUS
 10
6.600880
 20
2.537040
  0
VERTEX
  8
0
  6
CONTINUOUS
 10
6.593400
 20
2.524280
  0
VERTEX
  8
0
  6
CONTINUOUS
 10
6.587680
 20
2.509760
  0
VERTEX
  8
0
  6
CONTINUOUS
 10
6.583280
 20
2.494800
  0
VERTEX
  8
0
  6
CONTINUOUS
 10
6.580200
 20
2.478080
  0
VERTEX
  8
0
  6
CONTINUOUS
 10
6.579320
 20
2.460480
  0
VERTEX
  8
0
  6
CONTINUOUS
 10
6.550720
 20
2.460480
  0
VERTEX
  8
0
  6
CONTINUOUS
 10
6.542800
 20
2.608760
  0
VERTEX
  8
0
  6
CONTINUOUS
 10
4.893680
 20
2.608760
  0
VERTEX
  8
0
  6
CONTINUOUS
 10
4.893240
 20
2.608760
  0
VERTEX
  8
0
  6
CONTINUOUS
 10
2.765400
 20
2.608760
  0
VERTEX
  8
0
  6
CONTINUOUS
 10
2.665080
 20
2.608760
  0
VERTEX
  8
0
  6
CONTINUOUS
 10
2.665520
 20
2.608760
  0
SEQEND
  8
0
  0
ENDSEC
  0
EOF
