  0
SECTION
  2
HEADER
  9
$ACADVER
  1
AC1006
  9
$EXTMIN
 10
2.447720
 20
0.777480
  9
$EXTMAX
 10
5.300680
 20
6.122600
  9
$LTSCALE
 40
0.044000
  9
$PDMODE
 70
    35
  9
$PDSIZE
 40
0.035200
  0
ENDSEC
  0
SECTION
  2
TABLES
  0
TABLE
  2
LTYPE
 70
     9
  0
LTYPE
  2
CONTINUOUS
 70
    64
  3
Solid line
 72
    65
 73
     0
 40
0.000000
  0
LTYPE
  2
DASHED
 70
    64
  3
__ __ __ __ __ __ __ __ __ __ __ __ __ __ __
 72
    65
 73
     2
 40
0.000330
 49
0.000220
 49
-0.000110
  0
LTYPE
  2
HIDDEN
 70
    64
  3
 _ _ _ _ _ _ _ _ _ _ _ _ _ _ _ _ _ _ _ _ _ _
 72
    65
 73
     2
 40
0.000165
 49
0.000110
 49
-0.000055
  0
LTYPE
  2
CENTER
 70
    64
  3
____ _ ____ _ ____ _ ____ _ ____ _ ____ _ ____
 72
    65
 73
     4
 40
0.000880
 49
0.000550
 49
-0.000110
 49
0.000110
 49
-0.000110
  0
LTYPE
  2
PHANTOM
 70
    64
  3
_____ _ _ _____ _ _ _____ _ _ _____ _ _ ____
 72
    65
 73
     6
 40
0.001100
 49
0.000550
 49
-0.000110
 49
0.000110
 49
-0.000110
 49
0.000110
 49
-0.000110
  0
LTYPE
  2
DOT
 70
    64
  3
...............................................
 72
    65
 73
     2
 40
0.000110
 49
0.000000
 49
-0.000110
  0
LTYPE
  2
DASHDOT
 70
    64
  3
__ . __ . __ . __ . __ . __ . __ . __ . __ . __
 72
    65
 73
     4
 40
0.000440
 49
0.000220
 49
-0.000110
 49
0.000000
 49
-0.000110
  0
LTYPE
  2
BORDER
 70
    64
  3
__ __ . __ __ . __ __ . __ __ . __ __ . __ __
 72
    65
 73
     6
 40
0.000770
 49
0.000220
 49
-0.000110
 49
0.000220
 49
-0.000110
 49
0.000000
 49
-0.000110
  0
LTYPE
  2
DIVIDE
 70
    64
  3
__ . . __ . . __ . . __ . . __ . . __ . . __
 72
    65
 73
     6
 40
0.000550
 49
0.000220
 49
-0.000110
 49
0.000000
 49
-0.000110
 49
0.000000
 49
-0.000110
  0
LTYPE
  2
DOTDOT
 70
    64
  3
 . .  . .  . .  . .  . .  . . 
 72
    65
 73
     5
 40
0.000242
 49
-0.000110
 49
0.000000
 49
-0.000110
 49
0.000000
 49
-0.000110
  0
ENDTAB
  0
TABLE
  2
STYLE
 70
     2
  0
STYLE
 70
     0
  2
SN0
 40
0.000000
 41
0.000440
 50
0.000000
 71
     0
 42
0.000000
  3
ROMAND
  0
STYLE
 70
    68
  2
SV0
 40
0.000000
 41
0.000440
 50
0.000000
 71
     0
 42
0.000000
  3
ROMAND
  0
ENDTAB
  0
TABLE
  2
LAYER
 70
     3
  0
LAYER
  2
FOREGROUND
 70
    64
 62
     7
  6
CONTINUOUS
  0
LAYER
  2
BACKGROUND
 70
    65
 62
    -7
  6
CONTINUOUS
  0
LAYER
  2
0
 70
    64
 62
     7
  6
CONTINUOUS
  0
ENDTAB
  0
ENDSEC
  0
SECTION
  2
ENTITIES
  0
POLYLINE
  8
FOREGROUND
  6
CONTINUOUS
 66
     1
 40
0.000000
 41
0.000000
  0
VERTEX
  8
FOREGROUND
  6
CONTINUOUS
 10
0.000000
 20
6.900080
  0
VERTEX
  8
FOREGROUND
  6
CONTINUOUS
 10
8.499920
 20
6.900080
  0
VERTEX
  8
FOREGROUND
  6
CONTINUOUS
 10
8.499920
 20
-4.099920
  0
VERTEX
  8
FOREGROUND
  6
CONTINUOUS
 10
0.000000
 20
-4.099920
  0
VERTEX
  8
FOREGROUND
  6
CONTINUOUS
 10
0.000000
 20
6.900080
  0
SEQEND
  8
0
  0
POLYLINE
  8
FOREGROUND
  6
CONTINUOUS
 66
     1
 40
0.000000
 41
0.000000
  0
VERTEX
  8
FOREGROUND
  6
CONTINUOUS
 10
0.000000
 20
6.900080
  0
VERTEX
  8
FOREGROUND
  6
CONTINUOUS
 10
8.499920
 20
6.900080
  0
VERTEX
  8
FOREGROUND
  6
CONTINUOUS
 10
8.499920
 20
-4.099920
  0
VERTEX
  8
FOREGROUND
  6
CONTINUOUS
 10
0.000000
 20
-4.099920
  0
VERTEX
  8
FOREGROUND
  6
CONTINUOUS
 10
0.000000
 20
6.900080
  0
SEQEND
  8
0
  0
POLYLINE
  8
0
  6
CONTINUOUS
 66
     1
 40
0.014080
 41
0.014080
  0
VERTEX
  8
0
  6
CONTINUOUS
 10
4.779720
 20
5.492080
  0
VERTEX
  8
0
  6
CONTINUOUS
 10
5.290560
 20
6.005120
  0
VERTEX
  8
0
  6
CONTINUOUS
 10
5.181880
 20
6.112040
  0
VERTEX
  8
0
  6
CONTINUOUS
 10
5.009840
 20
5.936920
  0
VERTEX
  8
0
  6
CONTINUOUS
 10
4.995320
 20
5.961120
  0
VERTEX
  8
0
  6
CONTINUOUS
 10
4.978600
 20
5.982240
  0
VERTEX
  8
0
  6
CONTINUOUS
 10
4.950000
 20
6.006880
  0
VERTEX
  8
0
  6
CONTINUOUS
 10
4.929320
 20
6.018760
  0
VERTEX
  8
0
  6
CONTINUOUS
 10
4.907320
 20
6.027120
  0
VERTEX
  8
0
  6
CONTINUOUS
 10
4.885320
 20
6.031960
  0
VERTEX
  8
0
  6
CONTINUOUS
 10
4.862440
 20
6.032400
  0
VERTEX
  8
0
  6
CONTINUOUS
 10
4.840000
 20
6.029320
  0
VERTEX
  8
0
  6
CONTINUOUS
 10
4.818440
 20
6.021840
  0
VERTEX
  8
0
  6
CONTINUOUS
 10
4.797320
 20
6.010400
  0
VERTEX
  8
0
  6
CONTINUOUS
 10
4.777520
 20
5.994560
  0
VERTEX
  8
0
  6
CONTINUOUS
 10
4.759480
 20
5.974320
  0
VERTEX
  8
0
  6
CONTINUOUS
 10
4.743640
 20
5.950120
  0
VERTEX
  8
0
  6
CONTINUOUS
 10
4.730000
 20
5.921080
  0
VERTEX
  8
0
  6
CONTINUOUS
 10
4.719000
 20
5.887200
  0
VERTEX
  8
0
  6
CONTINUOUS
 10
4.714600
 20
5.868720
  0
VERTEX
  8
0
  6
CONTINUOUS
 10
4.661800
 20
5.936480
  0
VERTEX
  8
0
  6
CONTINUOUS
 10
4.609440
 20
5.991480
  0
VERTEX
  8
0
  6
CONTINUOUS
 10
4.570280
 20
6.025360
  0
VERTEX
  8
0
  6
CONTINUOUS
 10
4.532000
 20
6.053080
  0
VERTEX
  8
0
  6
CONTINUOUS
 10
4.506480
 20
6.068040
  0
VERTEX
  8
0
  6
CONTINUOUS
 10
4.480960
 20
6.080800
  0
VERTEX
  8
0
  6
CONTINUOUS
 10
4.455440
 20
6.091360
  0
VERTEX
  8
0
  6
CONTINUOUS
 10
4.430360
 20
6.099280
  0
VERTEX
  8
0
  6
CONTINUOUS
 10
4.404840
 20
6.105440
  0
VERTEX
  8
0
  6
CONTINUOUS
 10
4.379760
 20
6.109400
  0
VERTEX
  8
0
  6
CONTINUOUS
 10
4.329160
 20
6.111600
  0
VERTEX
  8
0
  6
CONTINUOUS
 10
4.278560
 20
6.106760
  0
VERTEX
  8
0
  6
CONTINUOUS
 10
4.253480
 20
6.102360
  0
VERTEX
  8
0
  6
CONTINUOUS
 10
4.202880
 20
6.088720
  0
VERTEX
  8
0
  6
CONTINUOUS
 10
4.151840
 20
6.070680
  0
VERTEX
  8
0
  6
CONTINUOUS
 10
4.074400
 20
6.036360
  0
VERTEX
  8
0
  6
CONTINUOUS
 10
3.861440
 20
5.924160
  0
VERTEX
  8
0
  6
CONTINUOUS
 10
3.806440
 20
5.900840
  0
VERTEX
  8
0
  6
CONTINUOUS
 10
3.751000
 20
5.883680
  0
VERTEX
  8
0
  6
CONTINUOUS
 10
3.723720
 20
5.877080
  0
VERTEX
  8
0
  6
CONTINUOUS
 10
3.668720
 20
5.868280
  0
VERTEX
  8
0
  6
CONTINUOUS
 10
3.614160
 20
5.864760
  0
VERTEX
  8
0
  6
CONTINUOUS
 10
3.587320
 20
5.864760
  0
VERTEX
  8
0
  6
CONTINUOUS
 10
3.534080
 20
5.868720
  0
VERTEX
  8
0
  6
CONTINUOUS
 10
3.482160
 20
5.877520
  0
VERTEX
  8
0
  6
CONTINUOUS
 10
3.432000
 20
5.890720
  0
VERTEX
  8
0
  6
CONTINUOUS
 10
3.383600
 20
5.907880
  0
VERTEX
  8
0
  6
CONTINUOUS
 10
3.337400
 20
5.929000
  0
VERTEX
  8
0
  6
CONTINUOUS
 10
3.293840
 20
5.954080
  0
VERTEX
  8
0
  6
CONTINUOUS
 10
3.252480
 20
5.982680
  0
VERTEX
  8
0
  6
CONTINUOUS
 10
3.214640
 20
6.014360
  0
VERTEX
  8
0
  6
CONTINUOUS
 10
3.179880
 20
6.049560
  0
VERTEX
  8
0
  6
CONTINUOUS
 10
3.149080
 20
6.086960
  0
VERTEX
  8
0
  6
CONTINUOUS
 10
3.135000
 20
6.106760
  0
VERTEX
  8
0
  6
CONTINUOUS
 10
2.686200
 20
5.650040
  0
VERTEX
  8
0
  6
CONTINUOUS
 10
2.847240
 20
5.492080
  0
VERTEX
  8
0
  6
CONTINUOUS
 10
4.779720
 20
5.492080
  0
SEQEND
  8
0
  0
POLYLINE
  8
0
  6
CONTINUOUS
 66
     1
 40
0.000000
 41
0.000000
  0
VERTEX
  8
0
  6
CONTINUOUS
 10
2.959440
 20
0.777920
  0
VERTEX
  8
0
  6
CONTINUOUS
 10
2.448160
 20
1.290960
  0
VERTEX
  8
0
  6
CONTINUOUS
 10
2.557280
 20
1.397880
  0
VERTEX
  8
0
  6
CONTINUOUS
 10
2.729320
 20
1.222760
  0
VERTEX
  8
0
  6
CONTINUOUS
 10
2.743840
 20
1.246960
  0
VERTEX
  8
0
  6
CONTINUOUS
 10
2.760560
 20
1.268080
  0
VERTEX
  8
0
  6
CONTINUOUS
 10
2.779040
 20
1.285240
  0
VERTEX
  8
0
  6
CONTINUOUS
 10
2.799280
 20
1.299320
  0
VERTEX
  8
0
  6
CONTINUOUS
 10
2.820400
 20
1.309440
  0
VERTEX
  8
0
  6
CONTINUOUS
 10
2.853840
 20
1.317800
  0
VERTEX
  8
0
  6
CONTINUOUS
 10
2.876280
 20
1.318240
  0
VERTEX
  8
0
  6
CONTINUOUS
 10
2.898720
 20
1.315160
  0
VERTEX
  8
0
  6
CONTINUOUS
 10
2.920720
 20
1.307680
  0
VERTEX
  8
0
  6
CONTINUOUS
 10
2.941400
 20
1.296240
  0
VERTEX
  8
0
  6
CONTINUOUS
 10
2.961200
 20
1.280400
  0
VERTEX
  8
0
  6
CONTINUOUS
 10
2.979240
 20
1.260160
  0
VERTEX
  8
0
  6
CONTINUOUS
 10
2.995520
 20
1.235520
  0
VERTEX
  8
0
  6
CONTINUOUS
 10
3.009160
 20
1.206480
  0
VERTEX
  8
0
  6
CONTINUOUS
 10
3.020160
 20
1.172600
  0
VERTEX
  8
0
  6
CONTINUOUS
 10
3.024560
 20
1.154120
  0
VERTEX
  8
0
  6
CONTINUOUS
 10
3.064160
 20
1.206040
  0
VERTEX
  8
0
  6
CONTINUOUS
 10
3.103760
 20
1.250920
  0
VERTEX
  8
0
  6
CONTINUOUS
 10
3.142920
 20
1.289200
  0
VERTEX
  8
0
  6
CONTINUOUS
 10
3.194400
 20
1.330120
  0
VERTEX
  8
0
  6
CONTINUOUS
 10
3.232680
 20
1.353880
  0
VERTEX
  8
0
  6
CONTINUOUS
 10
3.258200
 20
1.366640
  0
VERTEX
  8
0
  6
CONTINUOUS
 10
3.283720
 20
1.377200
  0
VERTEX
  8
0
  6
CONTINUOUS
 10
3.308800
 20
1.385120
  0
VERTEX
  8
0
  6
CONTINUOUS
 10
3.334320
 20
1.391280
  0
VERTEX
  8
0
  6
CONTINUOUS
 10
3.359400
 20
1.395240
  0
VERTEX
  8
0
  6
CONTINUOUS
 10
3.410000
 20
1.397440
  0
VERTEX
  8
0
  6
CONTINUOUS
 10
3.460600
 20
1.392600
  0
VERTEX
  8
0
  6
CONTINUOUS
 10
3.485680
 20
1.388200
  0
VERTEX
  8
0
  6
CONTINUOUS
 10
3.536280
 20
1.374560
  0
VERTEX
  8
0
  6
CONTINUOUS
 10
3.587320
 20
1.356520
  0
VERTEX
  8
0
  6
CONTINUOUS
 10
3.664760
 20
1.322200
  0
VERTEX
  8
0
  6
CONTINUOUS
 10
3.877720
 20
1.210000
  0
VERTEX
  8
0
  6
CONTINUOUS
 10
3.932720
 20
1.186680
  0
VERTEX
  8
0
  6
CONTINUOUS
 10
3.988160
 20
1.169520
  0
VERTEX
  8
0
  6
CONTINUOUS
 10
4.015440
 20
1.162920
  0
VERTEX
  8
0
  6
CONTINUOUS
 10
4.070440
 20
1.154120
  0
VERTEX
  8
0
  6
CONTINUOUS
 10
4.125000
 20
1.150600
  0
VERTEX
  8
0
  6
CONTINUOUS
 10
4.151840
 20
1.150600
  0
VERTEX
  8
0
  6
CONTINUOUS
 10
4.205080
 20
1.154560
  0
VERTEX
  8
0
  6
CONTINUOUS
 10
4.257000
 20
1.163360
  0
VERTEX
  8
0
  6
CONTINUOUS
 10
4.307160
 20
1.176560
  0
VERTEX
  8
0
  6
CONTINUOUS
 10
4.355560
 20
1.193720
  0
VERTEX
  8
0
  6
CONTINUOUS
 10
4.401760
 20
1.214840
  0
VERTEX
  8
0
  6
CONTINUOUS
 10
4.445320
 20
1.239920
  0
VERTEX
  8
0
  6
CONTINUOUS
 10
4.486680
 20
1.268520
  0
VERTEX
  8
0
  6
CONTINUOUS
 10
4.524520
 20
1.300200
  0
VERTEX
  8
0
  6
CONTINUOUS
 10
4.559280
 20
1.335400
  0
VERTEX
  8
0
  6
CONTINUOUS
 10
4.590080
 20
1.372800
  0
VERTEX
  8
0
  6
CONTINUOUS
 10
4.604160
 20
1.392600
  0
VERTEX
  8
0
  6
CONTINUOUS
 10
5.052960
 20
0.935880
  0
VERTEX
  8
0
  6
CONTINUOUS
 10
4.891920
 20
0.777920
  0
VERTEX
  8
0
  6
CONTINUOUS
 10
2.959440
 20
0.777920
  0
SEQEND
  8
0
  0
POLYLINE
  8
0
  6
CONTINUOUS
 66
     1
 40
0.000000
 41
0.000000
  0
VERTEX
  8
0
  6
CONTINUOUS
 10
4.541680
 20
1.866480
  0
VERTEX
  8
0
  6
CONTINUOUS
 10
5.052960
 20
2.379520
  0
VERTEX
  8
0
  6
CONTINUOUS
 10
4.944280
 20
2.486440
  0
VERTEX
  8
0
  6
CONTINUOUS
 10
4.772240
 20
2.310880
  0
VERTEX
  8
0
  6
CONTINUOUS
 10
4.757720
 20
2.335080
  0
VERTEX
  8
0
  6
CONTINUOUS
 10
4.741000
 20
2.356200
  0
VERTEX
  8
0
  6
CONTINUOUS
 10
4.712400
 20
2.380840
  0
VERTEX
  8
0
  6
CONTINUOUS
 10
4.691720
 20
2.392720
  0
VERTEX
  8
0
  6
CONTINUOUS
 10
4.669720
 20
2.401520
  0
VERTEX
  8
0
  6
CONTINUOUS
 10
4.647720
 20
2.405920
  0
VERTEX
  8
0
  6
CONTINUOUS
 10
4.624840
 20
2.406800
  0
VERTEX
  8
0
  6
CONTINUOUS
 10
4.602400
 20
2.403280
  0
VERTEX
  8
0
  6
CONTINUOUS
 10
4.580840
 20
2.395800
  0
VERTEX
  8
0
  6
CONTINUOUS
 10
4.559720
 20
2.384360
  0
VERTEX
  8
0
  6
CONTINUOUS
 10
4.539920
 20
2.368960
  0
VERTEX
  8
0
  6
CONTINUOUS
 10
4.521880
 20
2.348720
  0
VERTEX
  8
0
  6
CONTINUOUS
 10
4.506040
 20
2.324080
  0
VERTEX
  8
0
  6
CONTINUOUS
 10
4.492400
 20
2.295040
  0
VERTEX
  8
0
  6
CONTINUOUS
 10
4.481400
 20
2.261160
  0
VERTEX
  8
0
  6
CONTINUOUS
 10
4.477000
 20
2.242680
  0
VERTEX
  8
0
  6
CONTINUOUS
 10
4.437400
 20
2.294600
  0
VERTEX
  8
0
  6
CONTINUOUS
 10
4.397800
 20
2.339480
  0
VERTEX
  8
0
  6
CONTINUOUS
 10
4.358640
 20
2.377760
  0
VERTEX
  8
0
  6
CONTINUOUS
 10
4.307160
 20
2.418680
  0
VERTEX
  8
0
  6
CONTINUOUS
 10
4.268880
 20
2.442440
  0
VERTEX
  8
0
  6
CONTINUOUS
 10
4.243360
 20
2.455200
  0
VERTEX
  8
0
  6
CONTINUOUS
 10
4.192760
 20
2.473680
  0
VERTEX
  8
0
  6
CONTINUOUS
 10
4.167240
 20
2.479400
  0
VERTEX
  8
0
  6
CONTINUOUS
 10
4.142160
 20
2.483360
  0
VERTEX
  8
0
  6
CONTINUOUS
 10
4.116640
 20
2.485560
  0
VERTEX
  8
0
  6
CONTINUOUS
 10
4.066480
 20
2.484240
  0
VERTEX
  8
0
  6
CONTINUOUS
 10
4.040960
 20
2.481160
  0
VERTEX
  8
0
  6
CONTINUOUS
 10
3.990360
 20
2.470160
  0
VERTEX
  8
0
  6
CONTINUOUS
 10
3.939760
 20
2.454320
  0
VERTEX
  8
0
  6
CONTINUOUS
 10
3.862760
 20
2.422640
  0
VERTEX
  8
0
  6
CONTINUOUS
 10
3.758480
 20
2.370280
  0
VERTEX
  8
0
  6
CONTINUOUS
 10
3.623840
 20
2.298560
  0
VERTEX
  8
0
  6
CONTINUOUS
 10
3.568840
 20
2.275240
  0
VERTEX
  8
0
  6
CONTINUOUS
 10
3.513400
 20
2.258080
  0
VERTEX
  8
0
  6
CONTINUOUS
 10
3.485680
 20
2.251480
  0
VERTEX
  8
0
  6
CONTINUOUS
 10
3.430680
 20
2.242680
  0
VERTEX
  8
0
  6
CONTINUOUS
 10
3.376560
 20
2.239160
  0
VERTEX
  8
0
  6
CONTINUOUS
 10
3.349280
 20
2.239160
  0
VERTEX
  8
0
  6
CONTINUOUS
 10
3.296480
 20
2.243120
  0
VERTEX
  8
0
  6
CONTINUOUS
 10
3.244560
 20
2.251920
  0
VERTEX
  8
0
  6
CONTINUOUS
 10
3.194400
 20
2.265120
  0
VERTEX
  8
0
  6
CONTINUOUS
 10
3.146000
 20
2.282280
  0
VERTEX
  8
0
  6
CONTINUOUS
 10
3.099800
 20
2.303400
  0
VERTEX
  8
0
  6
CONTINUOUS
 10
3.055800
 20
2.328480
  0
VERTEX
  8
0
  6
CONTINUOUS
 10
3.014880
 20
2.357080
  0
VERTEX
  8
0
  6
CONTINUOUS
 10
2.977040
 20
2.388760
  0
VERTEX
  8
0
  6
CONTINUOUS
 10
2.942280
 20
2.423960
  0
VERTEX
  8
0
  6
CONTINUOUS
 10
2.911480
 20
2.461360
  0
VERTEX
  8
0
  6
CONTINUOUS
 10
2.897400
 20
2.481160
  0
VERTEX
  8
0
  6
CONTINUOUS
 10
2.448600
 20
2.024000
  0
VERTEX
  8
0
  6
CONTINUOUS
 10
2.609200
 20
1.866480
  0
VERTEX
  8
0
  6
CONTINUOUS
 10
4.541680
 20
1.866480
  0
SEQEND
  8
0
  0
SOLID
  8
0
 62
    15
 10
3.447400
 20
3.777840
 11
4.102560
 21
3.395480
 12
3.401640
 22
3.751880
 13
4.056800
 23
3.369520
  0
POLYLINE
  8
0
  6
CONTINUOUS
 66
     1
 40
0.000000
 41
0.000000
  0
VERTEX
  8
0
  6
CONTINUOUS
 10
3.447400
 20
3.777840
  0
VERTEX
  8
0
  6
CONTINUOUS
 10
4.102560
 20
3.395480
  0
VERTEX
  8
0
  6
CONTINUOUS
 10
4.056800
 20
3.369520
  0
VERTEX
  8
0
  6
CONTINUOUS
 10
3.401640
 20
3.751880
  0
VERTEX
  8
0
  6
CONTINUOUS
 10
3.447400
 20
3.777840
  0
SEQEND
  8
0
  0
SOLID
  8
0
 62
    15
 10
4.346320
 20
4.675000
 11
5.001480
 21
4.292640
 12
4.249520
 22
4.684240
 13
4.904680
 23
4.301880
  0
POLYLINE
  8
0
  6
CONTINUOUS
 66
     1
 40
0.000000
 41
0.000000
  0
VERTEX
  8
0
  6
CONTINUOUS
 10
4.346320
 20
4.675000
  0
VERTEX
  8
0
  6
CONTINUOUS
 10
5.001480
 20
4.292640
  0
VERTEX
  8
0
  6
CONTINUOUS
 10
4.904680
 20
4.301880
  0
VERTEX
  8
0
  6
CONTINUOUS
 10
4.249520
 20
4.684240
  0
VERTEX
  8
0
  6
CONTINUOUS
 10
4.346320
 20
4.675000
  0
SEQEND
  8
0
  0
SOLID
  8
0
 62
    15
 10
4.249520
 20
4.684240
 11
4.904680
 21
4.301880
 12
4.150960
 22
4.675440
 13
4.806120
 23
4.293080
  0
POLYLINE
  8
0
  6
CONTINUOUS
 66
     1
 40
0.000000
 41
0.000000
  0
VERTEX
  8
0
  6
CONTINUOUS
 10
4.249520
 20
4.684240
  0
VERTEX
  8
0
  6
CONTINUOUS
 10
4.904680
 20
4.301880
  0
VERTEX
  8
0
  6
CONTINUOUS
 10
4.806120
 20
4.293080
  0
VERTEX
  8
0
  6
CONTINUOUS
 10
4.150960
 20
4.675440
  0
VERTEX
  8
0
  6
CONTINUOUS
 10
4.249520
 20
4.684240
  0
SEQEND
  8
0
  0
SOLID
  8
0
 62
    15
 10
4.150960
 20
4.675440
 11
4.806120
 21
4.293080
 12
4.053720
 22
4.649040
 13
4.708880
 23
4.266680
  0
POLYLINE
  8
0
  6
CONTINUOUS
 66
     1
 40
0.000000
 41
0.000000
  0
VERTEX
  8
0
  6
CONTINUOUS
 10
4.150960
 20
4.675440
  0
VERTEX
  8
0
  6
CONTINUOUS
 10
4.806120
 20
4.293080
  0
VERTEX
  8
0
  6
CONTINUOUS
 10
4.708880
 20
4.266680
  0
VERTEX
  8
0
  6
CONTINUOUS
 10
4.053720
 20
4.649040
  0
VERTEX
  8
0
  6
CONTINUOUS
 10
4.150960
 20
4.675440
  0
SEQEND
  8
0
  0
SOLID
  8
0
 62
    15
 10
4.053720
 20
4.649040
 11
4.708880
 21
4.266680
 12
3.960880
 22
4.605040
 13
4.616040
 23
4.222680
  0
POLYLINE
  8
0
  6
CONTINUOUS
 66
     1
 40
0.000000
 41
0.000000
  0
VERTEX
  8
0
  6
CONTINUOUS
 10
4.053720
 20
4.649040
  0
VERTEX
  8
0
  6
CONTINUOUS
 10
4.708880
 20
4.266680
  0
VERTEX
  8
0
  6
CONTINUOUS
 10
4.616040
 20
4.222680
  0
VERTEX
  8
0
  6
CONTINUOUS
 10
3.960880
 20
4.605040
  0
VERTEX
  8
0
  6
CONTINUOUS
 10
4.053720
 20
4.649040
  0
SEQEND
  8
0
  0
SOLID
  8
0
 62
    15
 10
3.960880
 20
4.605040
 11
4.616040
 21
4.222680
 12
3.875520
 22
4.543880
 13
4.530680
 23
4.161520
  0
POLYLINE
  8
0
  6
CONTINUOUS
 66
     1
 40
0.000000
 41
0.000000
  0
VERTEX
  8
0
  6
CONTINUOUS
 10
3.960880
 20
4.605040
  0
VERTEX
  8
0
  6
CONTINUOUS
 10
4.616040
 20
4.222680
  0
VERTEX
  8
0
  6
CONTINUOUS
 10
4.530680
 20
4.161520
  0
VERTEX
  8
0
  6
CONTINUOUS
 10
3.875520
 20
4.543880
  0
VERTEX
  8
0
  6
CONTINUOUS
 10
3.960880
 20
4.605040
  0
SEQEND
  8
0
  0
SOLID
  8
0
 62
    15
 10
3.875520
 20
4.543880
 11
4.530680
 21
4.161520
 12
3.800720
 22
4.466000
 13
4.455880
 23
4.083640
  0
POLYLINE
  8
0
  6
CONTINUOUS
 66
     1
 40
0.000000
 41
0.000000
  0
VERTEX
  8
0
  6
CONTINUOUS
 10
3.875520
 20
4.543880
  0
VERTEX
  8
0
  6
CONTINUOUS
 10
4.530680
 20
4.161520
  0
VERTEX
  8
0
  6
CONTINUOUS
 10
4.455880
 20
4.083640
  0
VERTEX
  8
0
  6
CONTINUOUS
 10
3.800720
 20
4.466000
  0
VERTEX
  8
0
  6
CONTINUOUS
 10
3.875520
 20
4.543880
  0
SEQEND
  8
0
  0
SOLID
  8
0
 62
    15
 10
3.800720
 20
4.466000
 11
4.455880
 21
4.083640
 12
3.739120
 22
4.371840
 13
4.394280
 23
3.989480
  0
POLYLINE
  8
0
  6
CONTINUOUS
 66
     1
 40
0.000000
 41
0.000000
  0
VERTEX
  8
0
  6
CONTINUOUS
 10
3.800720
 20
4.466000
  0
VERTEX
  8
0
  6
CONTINUOUS
 10
4.455880
 20
4.083640
  0
VERTEX
  8
0
  6
CONTINUOUS
 10
4.394280
 20
3.989480
  0
VERTEX
  8
0
  6
CONTINUOUS
 10
3.739120
 20
4.371840
  0
VERTEX
  8
0
  6
CONTINUOUS
 10
3.800720
 20
4.466000
  0
SEQEND
  8
0
  0
SOLID
  8
0
 62
    15
 10
3.739120
 20
4.371840
 11
4.394280
 21
3.989480
 12
3.694240
 22
4.261400
 13
4.349400
 23
3.879040
  0
POLYLINE
  8
0
  6
CONTINUOUS
 66
     1
 40
0.000000
 41
0.000000
  0
VERTEX
  8
0
  6
CONTINUOUS
 10
3.739120
 20
4.371840
  0
VERTEX
  8
0
  6
CONTINUOUS
 10
4.394280
 20
3.989480
  0
VERTEX
  8
0
  6
CONTINUOUS
 10
4.349400
 20
3.879040
  0
VERTEX
  8
0
  6
CONTINUOUS
 10
3.694240
 20
4.261400
  0
VERTEX
  8
0
  6
CONTINUOUS
 10
3.739120
 20
4.371840
  0
SEQEND
  8
0
  0
SOLID
  8
0
 62
    15
 10
3.694240
 20
4.261400
 11
4.349400
 21
3.879040
 12
3.685440
 22
4.231920
 13
4.340600
 23
3.849120
  0
POLYLINE
  8
0
  6
CONTINUOUS
 66
     1
 40
0.000000
 41
0.000000
  0
VERTEX
  8
0
  6
CONTINUOUS
 10
3.694240
 20
4.261400
  0
VERTEX
  8
0
  6
CONTINUOUS
 10
4.349400
 20
3.879040
  0
VERTEX
  8
0
  6
CONTINUOUS
 10
4.340600
 20
3.849120
  0
VERTEX
  8
0
  6
CONTINUOUS
 10
3.685440
 20
4.231920
  0
VERTEX
  8
0
  6
CONTINUOUS
 10
3.694240
 20
4.261400
  0
SEQEND
  8
0
  0
SOLID
  8
0
 62
    15
 10
3.685440
 20
4.231920
 11
4.340600
 21
3.849120
 12
3.681040
 22
4.216960
 13
4.336200
 23
3.834600
  0
POLYLINE
  8
0
  6
CONTINUOUS
 66
     1
 40
0.000000
 41
0.000000
  0
VERTEX
  8
0
  6
CONTINUOUS
 10
3.685440
 20
4.231920
  0
VERTEX
  8
0
  6
CONTINUOUS
 10
4.340600
 20
3.849120
  0
VERTEX
  8
0
  6
CONTINUOUS
 10
4.336200
 20
3.834600
  0
VERTEX
  8
0
  6
CONTINUOUS
 10
3.681040
 20
4.216960
  0
VERTEX
  8
0
  6
CONTINUOUS
 10
3.685440
 20
4.231920
  0
SEQEND
  8
0
  0
SOLID
  8
0
 62
    15
 10
3.681040
 20
4.216960
 11
4.336200
 21
3.834600
 12
3.659480
 22
4.144360
 13
4.314200
 23
3.762000
  0
POLYLINE
  8
0
  6
CONTINUOUS
 66
     1
 40
0.000000
 41
0.000000
  0
VERTEX
  8
0
  6
CONTINUOUS
 10
3.681040
 20
4.216960
  0
VERTEX
  8
0
  6
CONTINUOUS
 10
4.336200
 20
3.834600
  0
VERTEX
  8
0
  6
CONTINUOUS
 10
4.314200
 20
3.762000
  0
VERTEX
  8
0
  6
CONTINUOUS
 10
3.659480
 20
4.144360
  0
VERTEX
  8
0
  6
CONTINUOUS
 10
3.681040
 20
4.216960
  0
SEQEND
  8
0
  0
SOLID
  8
0
 62
    15
 10
3.659480
 20
4.144360
 11
4.314200
 21
3.762000
 12
3.622520
 22
4.033480
 13
4.277680
 23
3.651120
  0
POLYLINE
  8
0
  6
CONTINUOUS
 66
     1
 40
0.000000
 41
0.000000
  0
VERTEX
  8
0
  6
CONTINUOUS
 10
3.659480
 20
4.144360
  0
VERTEX
  8
0
  6
CONTINUOUS
 10
4.314200
 20
3.762000
  0
VERTEX
  8
0
  6
CONTINUOUS
 10
4.277680
 20
3.651120
  0
VERTEX
  8
0
  6
CONTINUOUS
 10
3.622520
 20
4.033480
  0
VERTEX
  8
0
  6
CONTINUOUS
 10
3.659480
 20
4.144360
  0
SEQEND
  8
0
  0
SOLID
  8
0
 62
    15
 10
3.622520
 20
4.033480
 11
4.277680
 21
3.651120
 12
3.578960
 22
3.932720
 13
4.233680
 23
3.549920
  0
POLYLINE
  8
0
  6
CONTINUOUS
 66
     1
 40
0.000000
 41
0.000000
  0
VERTEX
  8
0
  6
CONTINUOUS
 10
3.622520
 20
4.033480
  0
VERTEX
  8
0
  6
CONTINUOUS
 10
4.277680
 20
3.651120
  0
VERTEX
  8
0
  6
CONTINUOUS
 10
4.233680
 20
3.549920
  0
VERTEX
  8
0
  6
CONTINUOUS
 10
3.578960
 20
3.932720
  0
VERTEX
  8
0
  6
CONTINUOUS
 10
3.622520
 20
4.033480
  0
SEQEND
  8
0
  0
SOLID
  8
0
 62
    15
 10
3.578960
 20
3.932720
 11
4.233680
 21
3.549920
 12
3.522200
 22
3.846040
 13
4.177360
 23
3.463680
  0
POLYLINE
  8
0
  6
CONTINUOUS
 66
     1
 40
0.000000
 41
0.000000
  0
VERTEX
  8
0
  6
CONTINUOUS
 10
3.578960
 20
3.932720
  0
VERTEX
  8
0
  6
CONTINUOUS
 10
4.233680
 20
3.549920
  0
VERTEX
  8
0
  6
CONTINUOUS
 10
4.177360
 20
3.463680
  0
VERTEX
  8
0
  6
CONTINUOUS
 10
3.522200
 20
3.846040
  0
VERTEX
  8
0
  6
CONTINUOUS
 10
3.578960
 20
3.932720
  0
SEQEND
  8
0
  0
SOLID
  8
0
 62
    15
 10
3.522200
 20
3.846040
 11
4.177360
 21
3.463680
 12
3.447400
 22
3.777840
 13
4.102560
 23
3.395480
  0
POLYLINE
  8
0
  6
CONTINUOUS
 66
     1
 40
0.000000
 41
0.000000
  0
VERTEX
  8
0
  6
CONTINUOUS
 10
3.522200
 20
3.846040
  0
VERTEX
  8
0
  6
CONTINUOUS
 10
4.177360
 20
3.463680
  0
VERTEX
  8
0
  6
CONTINUOUS
 10
4.102560
 20
3.395480
  0
VERTEX
  8
0
  6
CONTINUOUS
 10
3.447400
 20
3.777840
  0
VERTEX
  8
0
  6
CONTINUOUS
 10
3.522200
 20
3.846040
  0
SEQEND
  8
0
  0
SOLID
  8
0
 62
    15
 10
4.341040
 20
5.315200
 11
4.995760
 21
4.932840
 12
4.346320
 22
4.675000
 13
5.001480
 23
4.292640
  0
POLYLINE
  8
0
  6
CONTINUOUS
 66
     1
 40
0.000000
 41
0.000000
  0
VERTEX
  8
0
  6
CONTINUOUS
 10
4.341040
 20
5.315200
  0
VERTEX
  8
0
  6
CONTINUOUS
 10
4.995760
 20
4.932840
  0
VERTEX
  8
0
  6
CONTINUOUS
 10
5.001480
 20
4.292640
  0
VERTEX
  8
0
  6
CONTINUOUS
 10
4.346320
 20
4.675000
  0
VERTEX
  8
0
  6
CONTINUOUS
 10
4.341040
 20
5.315200
  0
SEQEND
  8
0
  0
SOLID
  8
0
 62
    15
 10
3.401640
 20
3.751880
 11
4.056800
 21
3.369520
 12
3.349280
 22
3.732520
 13
4.004440
 23
3.350160
  0
POLYLINE
  8
0
  6
CONTINUOUS
 66
     1
 40
0.000000
 41
0.000000
  0
VERTEX
  8
0
  6
CONTINUOUS
 10
3.401640
 20
3.751880
  0
VERTEX
  8
0
  6
CONTINUOUS
 10
4.056800
 20
3.369520
  0
VERTEX
  8
0
  6
CONTINUOUS
 10
4.004440
 20
3.350160
  0
VERTEX
  8
0
  6
CONTINUOUS
 10
3.349280
 20
3.732520
  0
VERTEX
  8
0
  6
CONTINUOUS
 10
3.401640
 20
3.751880
  0
SEQEND
  8
0
  0
SOLID
  8
0
 62
    15
 10
3.349280
 20
3.732520
 11
4.004440
 21
3.350160
 12
3.289880
 22
3.719760
 13
3.945040
 23
3.336960
  0
POLYLINE
  8
0
  6
CONTINUOUS
 66
     1
 40
0.000000
 41
0.000000
  0
VERTEX
  8
0
  6
CONTINUOUS
 10
3.349280
 20
3.732520
  0
VERTEX
  8
0
  6
CONTINUOUS
 10
4.004440
 20
3.350160
  0
VERTEX
  8
0
  6
CONTINUOUS
 10
3.945040
 20
3.336960
  0
VERTEX
  8
0
  6
CONTINUOUS
 10
3.289880
 20
3.719760
  0
VERTEX
  8
0
  6
CONTINUOUS
 10
3.349280
 20
3.732520
  0
SEQEND
  8
0
  0
SOLID
  8
0
 62
    15
 10
3.289880
 20
3.719760
 11
3.945040
 21
3.336960
 12
3.222560
 22
3.714040
 13
3.877280
 23
3.331680
  0
POLYLINE
  8
0
  6
CONTINUOUS
 66
     1
 40
0.000000
 41
0.000000
  0
VERTEX
  8
0
  6
CONTINUOUS
 10
3.289880
 20
3.719760
  0
VERTEX
  8
0
  6
CONTINUOUS
 10
3.945040
 20
3.336960
  0
VERTEX
  8
0
  6
CONTINUOUS
 10
3.877280
 20
3.331680
  0
VERTEX
  8
0
  6
CONTINUOUS
 10
3.222560
 20
3.714040
  0
VERTEX
  8
0
  6
CONTINUOUS
 10
3.289880
 20
3.719760
  0
SEQEND
  8
0
  0
SOLID
  8
0
 62
    15
 10
3.222560
 20
3.714040
 11
3.877280
 21
3.331680
 12
3.146440
 22
3.716240
 13
3.801160
 23
3.333440
  0
POLYLINE
  8
0
  6
CONTINUOUS
 66
     1
 40
0.000000
 41
0.000000
  0
VERTEX
  8
0
  6
CONTINUOUS
 10
3.222560
 20
3.714040
  0
VERTEX
  8
0
  6
CONTINUOUS
 10
3.877280
 20
3.331680
  0
VERTEX
  8
0
  6
CONTINUOUS
 10
3.801160
 20
3.333440
  0
VERTEX
  8
0
  6
CONTINUOUS
 10
3.146440
 20
3.716240
  0
VERTEX
  8
0
  6
CONTINUOUS
 10
3.222560
 20
3.714040
  0
SEQEND
  8
0
  0
SOLID
  8
0
 62
    15
 10
3.146440
 20
3.716240
 11
3.801160
 21
3.333440
 12
3.061080
 22
3.726360
 13
3.716240
 23
3.344000
  0
POLYLINE
  8
0
  6
CONTINUOUS
 66
     1
 40
0.000000
 41
0.000000
  0
VERTEX
  8
0
  6
CONTINUOUS
 10
3.146440
 20
3.716240
  0
VERTEX
  8
0
  6
CONTINUOUS
 10
3.801160
 20
3.333440
  0
VERTEX
  8
0
  6
CONTINUOUS
 10
3.716240
 20
3.344000
  0
VERTEX
  8
0
  6
CONTINUOUS
 10
3.061080
 20
3.726360
  0
VERTEX
  8
0
  6
CONTINUOUS
 10
3.146440
 20
3.716240
  0
SEQEND
  8
0
  0
SOLID
  8
0
 62
    15
 10
3.061080
 20
3.726360
 11
3.716240
 21
3.344000
 12
3.093200
 22
3.663440
 13
3.748360
 23
3.280640
  0
POLYLINE
  8
0
  6
CONTINUOUS
 66
     1
 40
0.000000
 41
0.000000
  0
VERTEX
  8
0
  6
CONTINUOUS
 10
3.061080
 20
3.726360
  0
VERTEX
  8
0
  6
CONTINUOUS
 10
3.716240
 20
3.344000
  0
VERTEX
  8
0
  6
CONTINUOUS
 10
3.748360
 20
3.280640
  0
VERTEX
  8
0
  6
CONTINUOUS
 10
3.093200
 20
3.663440
  0
VERTEX
  8
0
  6
CONTINUOUS
 10
3.061080
 20
3.726360
  0
SEQEND
  8
0
  0
SOLID
  8
0
 62
    15
 10
3.093200
 20
3.663440
 11
3.748360
 21
3.280640
 12
3.105080
 22
3.605800
 13
3.760240
 23
3.223440
  0
POLYLINE
  8
0
  6
CONTINUOUS
 66
     1
 40
0.000000
 41
0.000000
  0
VERTEX
  8
0
  6
CONTINUOUS
 10
3.093200
 20
3.663440
  0
VERTEX
  8
0
  6
CONTINUOUS
 10
3.748360
 20
3.280640
  0
VERTEX
  8
0
  6
CONTINUOUS
 10
3.760240
 20
3.223440
  0
VERTEX
  8
0
  6
CONTINUOUS
 10
3.105080
 20
3.605800
  0
VERTEX
  8
0
  6
CONTINUOUS
 10
3.093200
 20
3.663440
  0
SEQEND
  8
0
  0
SOLID
  8
0
 62
    15
 10
3.105080
 20
3.605800
 11
3.760240
 21
3.223440
 12
3.099800
 22
3.555640
 13
3.754960
 23
3.173280
  0
POLYLINE
  8
0
  6
CONTINUOUS
 66
     1
 40
0.000000
 41
0.000000
  0
VERTEX
  8
0
  6
CONTINUOUS
 10
3.105080
 20
3.605800
  0
VERTEX
  8
0
  6
CONTINUOUS
 10
3.760240
 20
3.223440
  0
VERTEX
  8
0
  6
CONTINUOUS
 10
3.754960
 20
3.173280
  0
VERTEX
  8
0
  6
CONTINUOUS
 10
3.099800
 20
3.555640
  0
VERTEX
  8
0
  6
CONTINUOUS
 10
3.105080
 20
3.605800
  0
SEQEND
  8
0
  0
SOLID
  8
0
 62
    15
 10
3.099800
 20
3.555640
 11
3.754960
 21
3.173280
 12
3.079120
 22
3.514280
 13
3.734280
 23
3.131920
  0
POLYLINE
  8
0
  6
CONTINUOUS
 66
     1
 40
0.000000
 41
0.000000
  0
VERTEX
  8
0
  6
CONTINUOUS
 10
3.099800
 20
3.555640
  0
VERTEX
  8
0
  6
CONTINUOUS
 10
3.754960
 20
3.173280
  0
VERTEX
  8
0
  6
CONTINUOUS
 10
3.734280
 20
3.131920
  0
VERTEX
  8
0
  6
CONTINUOUS
 10
3.079120
 20
3.514280
  0
VERTEX
  8
0
  6
CONTINUOUS
 10
3.099800
 20
3.555640
  0
SEQEND
  8
0
  0
SOLID
  8
0
 62
    15
 10
3.079120
 20
3.514280
 11
3.734280
 21
3.131920
 12
3.046560
 22
3.483480
 13
3.701720
 23
3.101120
  0
POLYLINE
  8
0
  6
CONTINUOUS
 66
     1
 40
0.000000
 41
0.000000
  0
VERTEX
  8
0
  6
CONTINUOUS
 10
3.079120
 20
3.514280
  0
VERTEX
  8
0
  6
CONTINUOUS
 10
3.734280
 20
3.131920
  0
VERTEX
  8
0
  6
CONTINUOUS
 10
3.701720
 20
3.101120
  0
VERTEX
  8
0
  6
CONTINUOUS
 10
3.046560
 20
3.483480
  0
VERTEX
  8
0
  6
CONTINUOUS
 10
3.079120
 20
3.514280
  0
SEQEND
  8
0
  0
SOLID
  8
0
 62
    15
 10
3.046560
 20
3.483480
 11
3.701720
 21
3.101120
 12
3.004320
 22
3.465000
 13
3.659040
 23
3.082200
  0
POLYLINE
  8
0
  6
CONTINUOUS
 66
     1
 40
0.000000
 41
0.000000
  0
VERTEX
  8
0
  6
CONTINUOUS
 10
3.046560
 20
3.483480
  0
VERTEX
  8
0
  6
CONTINUOUS
 10
3.701720
 20
3.101120
  0
VERTEX
  8
0
  6
CONTINUOUS
 10
3.659040
 20
3.082200
  0
VERTEX
  8
0
  6
CONTINUOUS
 10
3.004320
 20
3.465000
  0
VERTEX
  8
0
  6
CONTINUOUS
 10
3.046560
 20
3.483480
  0
SEQEND
  8
0
  0
SOLID
  8
0
 62
    15
 10
3.004320
 20
3.465000
 11
3.659040
 21
3.082200
 12
2.954600
 22
3.459720
 13
3.609760
 23
3.076920
  0
POLYLINE
  8
0
  6
CONTINUOUS
 66
     1
 40
0.000000
 41
0.000000
  0
VERTEX
  8
0
  6
CONTINUOUS
 10
3.004320
 20
3.465000
  0
VERTEX
  8
0
  6
CONTINUOUS
 10
3.659040
 20
3.082200
  0
VERTEX
  8
0
  6
CONTINUOUS
 10
3.609760
 20
3.076920
  0
VERTEX
  8
0
  6
CONTINUOUS
 10
2.954600
 20
3.459720
  0
VERTEX
  8
0
  6
CONTINUOUS
 10
3.004320
 20
3.465000
  0
SEQEND
  8
0
  0
SOLID
  8
0
 62
    15
 10
2.954600
 20
3.459720
 11
3.609760
 21
3.076920
 12
2.900480
 22
3.469400
 13
3.555640
 23
3.087040
  0
POLYLINE
  8
0
  6
CONTINUOUS
 66
     1
 40
0.000000
 41
0.000000
  0
VERTEX
  8
0
  6
CONTINUOUS
 10
2.954600
 20
3.459720
  0
VERTEX
  8
0
  6
CONTINUOUS
 10
3.609760
 20
3.076920
  0
VERTEX
  8
0
  6
CONTINUOUS
 10
3.555640
 20
3.087040
  0
VERTEX
  8
0
  6
CONTINUOUS
 10
2.900480
 20
3.469400
  0
VERTEX
  8
0
  6
CONTINUOUS
 10
2.954600
 20
3.459720
  0
SEQEND
  8
0
  0
SOLID
  8
0
 62
    15
 10
2.900480
 20
3.469400
 11
3.555640
 21
3.087040
 12
2.903120
 22
3.223880
 13
3.557840
 23
2.841080
  0
POLYLINE
  8
0
  6
CONTINUOUS
 66
     1
 40
0.000000
 41
0.000000
  0
VERTEX
  8
0
  6
CONTINUOUS
 10
2.900480
 20
3.469400
  0
VERTEX
  8
0
  6
CONTINUOUS
 10
3.555640
 20
3.087040
  0
VERTEX
  8
0
  6
CONTINUOUS
 10
3.557840
 20
2.841080
  0
VERTEX
  8
0
  6
CONTINUOUS
 10
2.903120
 20
3.223880
  0
VERTEX
  8
0
  6
CONTINUOUS
 10
2.900480
 20
3.469400
  0
SEQEND
  8
0
  0
SOLID
  8
0
 62
    15
 10
2.903120
 20
3.223880
 11
3.557840
 21
2.841080
 12
2.750440
 22
3.222560
 13
3.405600
 23
2.839760
  0
POLYLINE
  8
0
  6
CONTINUOUS
 66
     1
 40
0.000000
 41
0.000000
  0
VERTEX
  8
0
  6
CONTINUOUS
 10
2.903120
 20
3.223880
  0
VERTEX
  8
0
  6
CONTINUOUS
 10
3.557840
 20
2.841080
  0
VERTEX
  8
0
  6
CONTINUOUS
 10
3.405600
 20
2.839760
  0
VERTEX
  8
0
  6
CONTINUOUS
 10
2.750440
 20
3.222560
  0
VERTEX
  8
0
  6
CONTINUOUS
 10
2.903120
 20
3.223880
  0
SEQEND
  8
0
  0
POLYLINE
  8
0
  6
CONTINUOUS
 66
     1
 40
0.000000
 41
0.000000
  0
VERTEX
  8
0
  6
CONTINUOUS
 10
2.749120
 20
3.946360
  0
VERTEX
  8
0
  6
CONTINUOUS
 10
4.115320
 20
5.313000
  0
VERTEX
  8
0
  6
CONTINUOUS
 10
4.341040
 20
5.315200
  0
VERTEX
  8
0
  6
CONTINUOUS
 10
4.346320
 20
4.675000
  0
VERTEX
  8
0
  6
CONTINUOUS
 10
4.249520
 20
4.684240
  0
VERTEX
  8
0
  6
CONTINUOUS
 10
4.150960
 20
4.675440
  0
VERTEX
  8
0
  6
CONTINUOUS
 10
4.053720
 20
4.649040
  0
VERTEX
  8
0
  6
CONTINUOUS
 10
3.960880
 20
4.605040
  0
VERTEX
  8
0
  6
CONTINUOUS
 10
3.875520
 20
4.543880
  0
VERTEX
  8
0
  6
CONTINUOUS
 10
3.800720
 20
4.466000
  0
VERTEX
  8
0
  6
CONTINUOUS
 10
3.739120
 20
4.371840
  0
VERTEX
  8
0
  6
CONTINUOUS
 10
3.694240
 20
4.261400
  0
VERTEX
  8
0
  6
CONTINUOUS
 10
3.685440
 20
4.231920
  0
VERTEX
  8
0
  6
CONTINUOUS
 10
3.681040
 20
4.216960
  0
VERTEX
  8
0
  6
CONTINUOUS
 10
3.659480
 20
4.144360
  0
VERTEX
  8
0
  6
CONTINUOUS
 10
3.622520
 20
4.033480
  0
VERTEX
  8
0
  6
CONTINUOUS
 10
3.578960
 20
3.932720
  0
VERTEX
  8
0
  6
CONTINUOUS
 10
3.522200
 20
3.846040
  0
VERTEX
  8
0
  6
CONTINUOUS
 10
3.447400
 20
3.777840
  0
VERTEX
  8
0
  6
CONTINUOUS
 10
3.401640
 20
3.751880
  0
VERTEX
  8
0
  6
CONTINUOUS
 10
3.349280
 20
3.732520
  0
VERTEX
  8
0
  6
CONTINUOUS
 10
3.289880
 20
3.719760
  0
VERTEX
  8
0
  6
CONTINUOUS
 10
3.222560
 20
3.714040
  0
VERTEX
  8
0
  6
CONTINUOUS
 10
3.146440
 20
3.716240
  0
VERTEX
  8
0
  6
CONTINUOUS
 10
3.061080
 20
3.726360
  0
VERTEX
  8
0
  6
CONTINUOUS
 10
3.093200
 20
3.663440
  0
VERTEX
  8
0
  6
CONTINUOUS
 10
3.105080
 20
3.605800
  0
VERTEX
  8
0
  6
CONTINUOUS
 10
3.099800
 20
3.555640
  0
VERTEX
  8
0
  6
CONTINUOUS
 10
3.079120
 20
3.514280
  0
VERTEX
  8
0
  6
CONTINUOUS
 10
3.046560
 20
3.483480
  0
VERTEX
  8
0
  6
CONTINUOUS
 10
3.004320
 20
3.465000
  0
VERTEX
  8
0
  6
CONTINUOUS
 10
2.954600
 20
3.459720
  0
VERTEX
  8
0
  6
CONTINUOUS
 10
2.900480
 20
3.469400
  0
VERTEX
  8
0
  6
CONTINUOUS
 10
2.903120
 20
3.223880
  0
VERTEX
  8
0
  6
CONTINUOUS
 10
2.750440
 20
3.222560
  0
VERTEX
  8
0
  6
CONTINUOUS
 10
2.749120
 20
3.946360
  0
SEQEND
  8
0
  0
TEXT
  8
0
 10
4.338840
 20
3.054040
 40
0.138176
  1
BA  1217
 41
1.000000
  7
SN0
 71
     0
 72
     5
 11
5.021679
 21
3.054040
  0
TEXT
  8
0
 10
4.229280
 20
2.862640
 40
0.138176
  1
5/8" x 2-5/8"
 41
1.000000
  7
SN0
 71
     0
 72
     5
 11
5.130200
 21
2.862640
  0
TEXT
  8
0
 10
3.561800
 20
5.727920
 40
0.138176
  1
BA  1217
 41
1.000000
  7
SN0
 71
     0
 72
     5
 11
4.244639
 21
5.727920
  0
TEXT
  8
0
 10
3.452240
 20
5.536080
 40
0.138176
  1
5/8" x 2-5/8"
 41
1.000000
  7
SN0
 71
     0
 72
     5
 11
4.353160
 21
5.536080
  0
ENDSEC
  0
EOF
