  0
SECTION
  2
HEADER
  9
$ACADVER
  1
AC1006
  9
$EXTMIN
 10
2.926440
 20
2.973520
  9
$EXTMAX
 10
7.183000
 20
9.183680
  9
$LTSCALE
 40
0.044000
  9
$PDMODE
 70
    35
  9
$PDSIZE
 40
0.035200
  0
ENDSEC
  0
SECTION
  2
TABLES
  0
TABLE
  2
LTYPE
 70
     9
  0
LTYPE
  2
CONTINUOUS
 70
    64
  3
Solid line
 72
    65
 73
     0
 40
0.000000
  0
LTYPE
  2
DASHED
 70
    64
  3
__ __ __ __ __ __ __ __ __ __ __ __ __ __ __
 72
    65
 73
     2
 40
0.000330
 49
0.000220
 49
-0.000110
  0
LTYPE
  2
HIDDEN
 70
    64
  3
 _ _ _ _ _ _ _ _ _ _ _ _ _ _ _ _ _ _ _ _ _ _
 72
    65
 73
     2
 40
0.000165
 49
0.000110
 49
-0.000055
  0
LTYPE
  2
CENTER
 70
    64
  3
____ _ ____ _ ____ _ ____ _ ____ _ ____ _ ____
 72
    65
 73
     4
 40
0.000880
 49
0.000550
 49
-0.000110
 49
0.000110
 49
-0.000110
  0
LTYPE
  2
PHANTOM
 70
    64
  3
_____ _ _ _____ _ _ _____ _ _ _____ _ _ ____
 72
    65
 73
     6
 40
0.001100
 49
0.000550
 49
-0.000110
 49
0.000110
 49
-0.000110
 49
0.000110
 49
-0.000110
  0
LTYPE
  2
DOT
 70
    64
  3
...............................................
 72
    65
 73
     2
 40
0.000110
 49
0.000000
 49
-0.000110
  0
LTYPE
  2
DASHDOT
 70
    64
  3
__ . __ . __ . __ . __ . __ . __ . __ . __ . __
 72
    65
 73
     4
 40
0.000440
 49
0.000220
 49
-0.000110
 49
0.000000
 49
-0.000110
  0
LTYPE
  2
BORDER
 70
    64
  3
__ __ . __ __ . __ __ . __ __ . __ __ . __ __
 72
    65
 73
     6
 40
0.000770
 49
0.000220
 49
-0.000110
 49
0.000220
 49
-0.000110
 49
0.000000
 49
-0.000110
  0
LTYPE
  2
DIVIDE
 70
    64
  3
__ . . __ . . __ . . __ . . __ . . __ . . __
 72
    65
 73
     6
 40
0.000550
 49
0.000220
 49
-0.000110
 49
0.000000
 49
-0.000110
 49
0.000000
 49
-0.000110
  0
LTYPE
  2
DOTDOT
 70
    64
  3
 . .  . .  . .  . .  . .  . . 
 72
    65
 73
     5
 40
0.000242
 49
-0.000110
 49
0.000000
 49
-0.000110
 49
0.000000
 49
-0.000110
  0
ENDTAB
  0
TABLE
  2
STYLE
 70
     2
  0
STYLE
 70
     0
  2
SN0
 40
0.000000
 41
0.000440
 50
0.000000
 71
     0
 42
0.000000
  3
ROMAND
  0
STYLE
 70
    68
  2
SV0
 40
0.000000
 41
0.000440
 50
0.000000
 71
     0
 42
0.000000
  3
ROMAND
  0
ENDTAB
  0
TABLE
  2
LAYER
 70
     3
  0
LAYER
  2
FOREGROUND
 70
    64
 62
     7
  6
CONTINUOUS
  0
LAYER
  2
BACKGROUND
 70
    65
 62
    -7
  6
CONTINUOUS
  0
LAYER
  2
0
 70
    64
 62
     7
  6
CONTINUOUS
  0
ENDTAB
  0
ENDSEC
  0
SECTION
  2
ENTITIES
  0
POLYLINE
  8
FOREGROUND
  6
CONTINUOUS
 66
     1
 40
0.000000
 41
0.000000
  0
VERTEX
  8
FOREGROUND
  6
CONTINUOUS
 10
0.000000
 20
12.157200
  0
VERTEX
  8
FOREGROUND
  6
CONTINUOUS
 10
8.499920
 20
12.157200
  0
VERTEX
  8
FOREGROUND
  6
CONTINUOUS
 10
8.499920
 20
1.157200
  0
VERTEX
  8
FOREGROUND
  6
CONTINUOUS
 10
0.000000
 20
1.157200
  0
VERTEX
  8
FOREGROUND
  6
CONTINUOUS
 10
0.000000
 20
12.157200
  0
SEQEND
  8
0
  0
POLYLINE
  8
FOREGROUND
  6
CONTINUOUS
 66
     1
 40
0.000000
 41
0.000000
  0
VERTEX
  8
FOREGROUND
  6
CONTINUOUS
 10
0.000000
 20
12.157200
  0
VERTEX
  8
FOREGROUND
  6
CONTINUOUS
 10
8.499920
 20
12.157200
  0
VERTEX
  8
FOREGROUND
  6
CONTINUOUS
 10
8.499920
 20
1.157200
  0
VERTEX
  8
FOREGROUND
  6
CONTINUOUS
 10
0.000000
 20
1.157200
  0
VERTEX
  8
FOREGROUND
  6
CONTINUOUS
 10
0.000000
 20
12.157200
  0
SEQEND
  8
0
  0
POLYLINE
  8
0
  6
CONTINUOUS
 66
     1
 40
0.014080
 41
0.014080
  0
VERTEX
  8
0
  6
CONTINUOUS
 10
3.120920
 20
8.708920
  0
VERTEX
  8
0
  6
CONTINUOUS
 10
3.120920
 20
9.176200
  0
VERTEX
  8
0
  6
CONTINUOUS
 10
6.625520
 20
9.176200
  0
VERTEX
  8
0
  6
CONTINUOUS
 10
6.631680
 20
9.081600
  0
VERTEX
  8
0
  6
CONTINUOUS
 10
6.657640
 20
9.104040
  0
VERTEX
  8
0
  6
CONTINUOUS
 10
6.682280
 20
9.118560
  0
VERTEX
  8
0
  6
CONTINUOUS
 10
6.698120
 20
9.124720
  0
VERTEX
  8
0
  6
CONTINUOUS
 10
6.721000
 20
9.127800
  0
VERTEX
  8
0
  6
CONTINUOUS
 10
6.742120
 20
9.124720
  0
VERTEX
  8
0
  6
CONTINUOUS
 10
6.755320
 20
9.119000
  0
VERTEX
  8
0
  6
CONTINUOUS
 10
6.767640
 20
9.111520
  0
VERTEX
  8
0
  6
CONTINUOUS
 10
6.779080
 20
9.101840
  0
VERTEX
  8
0
  6
CONTINUOUS
 10
6.799760
 20
9.075880
  0
VERTEX
  8
0
  6
CONTINUOUS
 10
6.816480
 20
9.043320
  0
VERTEX
  8
0
  6
CONTINUOUS
 10
6.829680
 20
9.005040
  0
VERTEX
  8
0
  6
CONTINUOUS
 10
6.858280
 20
8.897680
  0
VERTEX
  8
0
  6
CONTINUOUS
 10
6.865760
 20
8.880960
  0
VERTEX
  8
0
  6
CONTINUOUS
 10
6.874120
 20
8.873040
  0
VERTEX
  8
0
  6
CONTINUOUS
 10
6.893920
 20
8.870840
  0
VERTEX
  8
0
  6
CONTINUOUS
 10
6.912840
 20
8.871720
  0
VERTEX
  8
0
  6
CONTINUOUS
 10
6.917680
 20
8.894160
  0
VERTEX
  8
0
  6
CONTINUOUS
 10
6.925160
 20
8.911760
  0
VERTEX
  8
0
  6
CONTINUOUS
 10
6.934840
 20
8.925400
  0
VERTEX
  8
0
  6
CONTINUOUS
 10
6.946280
 20
8.935080
  0
VERTEX
  8
0
  6
CONTINUOUS
 10
6.959040
 20
8.940800
  0
VERTEX
  8
0
  6
CONTINUOUS
 10
6.973120
 20
8.943000
  0
VERTEX
  8
0
  6
CONTINUOUS
 10
6.994680
 20
8.939920
  0
VERTEX
  8
0
  6
CONTINUOUS
 10
7.009200
 20
8.934640
  0
VERTEX
  8
0
  6
CONTINUOUS
 10
7.029880
 20
8.921440
  0
VERTEX
  8
0
  6
CONTINUOUS
 10
7.043080
 20
8.909560
  0
VERTEX
  8
0
  6
CONTINUOUS
 10
7.059360
 20
8.888440
  0
VERTEX
  8
0
  6
CONTINUOUS
 10
7.071680
 20
8.863360
  0
VERTEX
  8
0
  6
CONTINUOUS
 10
7.078280
 20
8.835200
  0
VERTEX
  8
0
  6
CONTINUOUS
 10
7.078720
 20
8.825520
  0
VERTEX
  8
0
  6
CONTINUOUS
 10
7.175960
 20
8.825520
  0
VERTEX
  8
0
  6
CONTINUOUS
 10
7.175960
 20
8.710240
  0
VERTEX
  8
0
  6
CONTINUOUS
 10
3.120920
 20
8.710240
  0
VERTEX
  8
0
  6
CONTINUOUS
 10
3.120920
 20
8.708920
  0
SEQEND
  8
0
  0
POLYLINE
  8
0
  6
CONTINUOUS
 66
     1
 40
0.000000
 41
0.000000
  0
VERTEX
  8
0
  6
CONTINUOUS
 10
7.001280
 20
2.973520
  0
VERTEX
  8
0
  6
CONTINUOUS
 10
7.001280
 20
3.440800
  0
VERTEX
  8
0
  6
CONTINUOUS
 10
3.496680
 20
3.440800
  0
VERTEX
  8
0
  6
CONTINUOUS
 10
3.490520
 20
3.346200
  0
VERTEX
  8
0
  6
CONTINUOUS
 10
3.464560
 20
3.368640
  0
VERTEX
  8
0
  6
CONTINUOUS
 10
3.439920
 20
3.383160
  0
VERTEX
  8
0
  6
CONTINUOUS
 10
3.424080
 20
3.388880
  0
VERTEX
  8
0
  6
CONTINUOUS
 10
3.408680
 20
3.391960
  0
VERTEX
  8
0
  6
CONTINUOUS
 10
3.387120
 20
3.390640
  0
VERTEX
  8
0
  6
CONTINUOUS
 10
3.367320
 20
3.383600
  0
VERTEX
  8
0
  6
CONTINUOUS
 10
3.354560
 20
3.376120
  0
VERTEX
  8
0
  6
CONTINUOUS
 10
3.332560
 20
3.354120
  0
VERTEX
  8
0
  6
CONTINUOUS
 10
3.322440
 20
3.340480
  0
VERTEX
  8
0
  6
CONTINUOUS
 10
3.305720
 20
3.307920
  0
VERTEX
  8
0
  6
CONTINUOUS
 10
3.292520
 20
3.269640
  0
VERTEX
  8
0
  6
CONTINUOUS
 10
3.263920
 20
3.162280
  0
VERTEX
  8
0
  6
CONTINUOUS
 10
3.256440
 20
3.145560
  0
VERTEX
  8
0
  6
CONTINUOUS
 10
3.248080
 20
3.137640
  0
VERTEX
  8
0
  6
CONTINUOUS
 10
3.228720
 20
3.135440
  0
VERTEX
  8
0
  6
CONTINUOUS
 10
3.209800
 20
3.136320
  0
VERTEX
  8
0
  6
CONTINUOUS
 10
3.204960
 20
3.158760
  0
VERTEX
  8
0
  6
CONTINUOUS
 10
3.197480
 20
3.176360
  0
VERTEX
  8
0
  6
CONTINUOUS
 10
3.187800
 20
3.190000
  0
VERTEX
  8
0
  6
CONTINUOUS
 10
3.176360
 20
3.199680
  0
VERTEX
  8
0
  6
CONTINUOUS
 10
3.163600
 20
3.205400
  0
VERTEX
  8
0
  6
CONTINUOUS
 10
3.149520
 20
3.207600
  0
VERTEX
  8
0
  6
CONTINUOUS
 10
3.127960
 20
3.204520
  0
VERTEX
  8
0
  6
CONTINUOUS
 10
3.106400
 20
3.195280
  0
VERTEX
  8
0
  6
CONTINUOUS
 10
3.085720
 20
3.180320
  0
VERTEX
  8
0
  6
CONTINUOUS
 10
3.062840
 20
3.153040
  0
VERTEX
  8
0
  6
CONTINUOUS
 10
3.050520
 20
3.127960
  0
VERTEX
  8
0
  6
CONTINUOUS
 10
3.044360
 20
3.099800
  0
VERTEX
  8
0
  6
CONTINUOUS
 10
3.043480
 20
3.090120
  0
VERTEX
  8
0
  6
CONTINUOUS
 10
2.946240
 20
3.090120
  0
VERTEX
  8
0
  6
CONTINUOUS
 10
2.946240
 20
2.974840
  0
VERTEX
  8
0
  6
CONTINUOUS
 10
7.001280
 20
2.974840
  0
VERTEX
  8
0
  6
CONTINUOUS
 10
7.001280
 20
2.973520
  0
SEQEND
  8
0
  0
POLYLINE
  8
0
  6
CONTINUOUS
 66
     1
 40
0.000000
 41
0.000000
  0
VERTEX
  8
0
  6
CONTINUOUS
 10
2.927320
 20
3.630440
  0
VERTEX
  8
0
  6
CONTINUOUS
 10
2.927320
 20
4.097280
  0
VERTEX
  8
0
  6
CONTINUOUS
 10
6.431920
 20
4.097280
  0
VERTEX
  8
0
  6
CONTINUOUS
 10
6.438080
 20
4.002680
  0
VERTEX
  8
0
  6
CONTINUOUS
 10
6.464040
 20
4.025120
  0
VERTEX
  8
0
  6
CONTINUOUS
 10
6.488680
 20
4.040080
  0
VERTEX
  8
0
  6
CONTINUOUS
 10
6.512440
 20
4.047560
  0
VERTEX
  8
0
  6
CONTINUOUS
 10
6.527400
 20
4.048880
  0
VERTEX
  8
0
  6
CONTINUOUS
 10
6.548520
 20
4.045800
  0
VERTEX
  8
0
  6
CONTINUOUS
 10
6.561720
 20
4.040520
  0
VERTEX
  8
0
  6
CONTINUOUS
 10
6.574040
 20
4.032600
  0
VERTEX
  8
0
  6
CONTINUOUS
 10
6.585480
 20
4.022920
  0
VERTEX
  8
0
  6
CONTINUOUS
 10
6.606160
 20
3.996960
  0
VERTEX
  8
0
  6
CONTINUOUS
 10
6.622880
 20
3.964400
  0
VERTEX
  8
0
  6
CONTINUOUS
 10
6.636080
 20
3.926120
  0
VERTEX
  8
0
  6
CONTINUOUS
 10
6.664680
 20
3.819200
  0
VERTEX
  8
0
  6
CONTINUOUS
 10
6.672160
 20
3.802040
  0
VERTEX
  8
0
  6
CONTINUOUS
 10
6.680520
 20
3.794560
  0
VERTEX
  8
0
  6
CONTINUOUS
 10
6.700320
 20
3.792360
  0
VERTEX
  8
0
  6
CONTINUOUS
 10
6.718800
 20
3.793240
  0
VERTEX
  8
0
  6
CONTINUOUS
 10
6.723640
 20
3.815680
  0
VERTEX
  8
0
  6
CONTINUOUS
 10
6.731120
 20
3.833280
  0
VERTEX
  8
0
  6
CONTINUOUS
 10
6.740800
 20
3.846920
  0
VERTEX
  8
0
  6
CONTINUOUS
 10
6.752240
 20
3.856600
  0
VERTEX
  8
0
  6
CONTINUOUS
 10
6.765000
 20
3.862320
  0
VERTEX
  8
0
  6
CONTINUOUS
 10
6.779080
 20
3.864520
  0
VERTEX
  8
0
  6
CONTINUOUS
 10
6.800640
 20
3.861440
  0
VERTEX
  8
0
  6
CONTINUOUS
 10
6.815160
 20
3.856160
  0
VERTEX
  8
0
  6
CONTINUOUS
 10
6.836280
 20
3.842960
  0
VERTEX
  8
0
  6
CONTINUOUS
 10
6.849040
 20
3.831080
  0
VERTEX
  8
0
  6
CONTINUOUS
 10
6.865760
 20
3.809520
  0
VERTEX
  8
0
  6
CONTINUOUS
 10
6.878080
 20
3.784440
  0
VERTEX
  8
0
  6
CONTINUOUS
 10
6.884240
 20
3.756280
  0
VERTEX
  8
0
  6
CONTINUOUS
 10
6.885120
 20
3.746600
  0
VERTEX
  8
0
  6
CONTINUOUS
 10
6.981920
 20
3.746600
  0
VERTEX
  8
0
  6
CONTINUOUS
 10
6.981920
 20
3.631760
  0
VERTEX
  8
0
  6
CONTINUOUS
 10
2.927320
 20
3.631760
  0
VERTEX
  8
0
  6
CONTINUOUS
 10
2.927320
 20
3.630440
  0
SEQEND
  8
0
  0
SOLID
  8
0
 62
    15
 10
3.427160
 20
4.694360
 11
4.183520
 21
4.693920
 12
3.425840
 22
4.686880
 13
4.182200
 23
4.686440
  0
POLYLINE
  8
0
  6
CONTINUOUS
 66
     1
 40
0.000000
 41
0.000000
  0
VERTEX
  8
0
  6
CONTINUOUS
 10
3.427160
 20
4.694360
  0
VERTEX
  8
0
  6
CONTINUOUS
 10
4.183520
 20
4.693920
  0
VERTEX
  8
0
  6
CONTINUOUS
 10
4.182200
 20
4.686440
  0
VERTEX
  8
0
  6
CONTINUOUS
 10
3.425840
 20
4.686880
  0
VERTEX
  8
0
  6
CONTINUOUS
 10
3.427160
 20
4.694360
  0
SEQEND
  8
0
  0
SOLID
  8
0
 62
    15
 10
3.635720
 20
4.936800
 11
4.392080
 21
4.936360
 12
3.651560
 22
4.919640
 13
4.407920
 23
4.919200
  0
POLYLINE
  8
0
  6
CONTINUOUS
 66
     1
 40
0.000000
 41
0.000000
  0
VERTEX
  8
0
  6
CONTINUOUS
 10
3.635720
 20
4.936800
  0
VERTEX
  8
0
  6
CONTINUOUS
 10
4.392080
 20
4.936360
  0
VERTEX
  8
0
  6
CONTINUOUS
 10
4.407920
 20
4.919200
  0
VERTEX
  8
0
  6
CONTINUOUS
 10
3.651560
 20
4.919640
  0
VERTEX
  8
0
  6
CONTINUOUS
 10
3.635720
 20
4.936800
  0
SEQEND
  8
0
  0
SOLID
  8
0
 62
    15
 10
3.730320
 20
4.942960
 11
4.486680
 21
4.942520
 12
3.635720
 22
4.936800
 13
4.392080
 23
4.936360
  0
POLYLINE
  8
0
  6
CONTINUOUS
 66
     1
 40
0.000000
 41
0.000000
  0
VERTEX
  8
0
  6
CONTINUOUS
 10
3.730320
 20
4.942960
  0
VERTEX
  8
0
  6
CONTINUOUS
 10
4.486680
 20
4.942520
  0
VERTEX
  8
0
  6
CONTINUOUS
 10
4.392080
 20
4.936360
  0
VERTEX
  8
0
  6
CONTINUOUS
 10
3.635720
 20
4.936800
  0
VERTEX
  8
0
  6
CONTINUOUS
 10
3.730320
 20
4.942960
  0
SEQEND
  8
0
  0
SOLID
  8
0
 62
    15
 10
3.651560
 20
4.919640
 11
4.407920
 21
4.919200
 12
3.663880
 22
4.902480
 13
4.420240
 23
4.902040
  0
POLYLINE
  8
0
  6
CONTINUOUS
 66
     1
 40
0.000000
 41
0.000000
  0
VERTEX
  8
0
  6
CONTINUOUS
 10
3.651560
 20
4.919640
  0
VERTEX
  8
0
  6
CONTINUOUS
 10
4.407920
 20
4.919200
  0
VERTEX
  8
0
  6
CONTINUOUS
 10
4.420240
 20
4.902040
  0
VERTEX
  8
0
  6
CONTINUOUS
 10
3.663880
 20
4.902480
  0
VERTEX
  8
0
  6
CONTINUOUS
 10
3.651560
 20
4.919640
  0
SEQEND
  8
0
  0
SOLID
  8
0
 62
    15
 10
3.663880
 20
4.902480
 11
4.420240
 21
4.902040
 12
3.672680
 22
4.886200
 13
4.429040
 23
4.885760
  0
POLYLINE
  8
0
  6
CONTINUOUS
 66
     1
 40
0.000000
 41
0.000000
  0
VERTEX
  8
0
  6
CONTINUOUS
 10
3.663880
 20
4.902480
  0
VERTEX
  8
0
  6
CONTINUOUS
 10
4.420240
 20
4.902040
  0
VERTEX
  8
0
  6
CONTINUOUS
 10
4.429040
 20
4.885760
  0
VERTEX
  8
0
  6
CONTINUOUS
 10
3.672680
 20
4.886200
  0
VERTEX
  8
0
  6
CONTINUOUS
 10
3.663880
 20
4.902480
  0
SEQEND
  8
0
  0
SOLID
  8
0
 62
    15
 10
3.672680
 20
4.886200
 11
4.429040
 21
4.885760
 12
3.678400
 22
4.870360
 13
4.434760
 23
4.869920
  0
POLYLINE
  8
0
  6
CONTINUOUS
 66
     1
 40
0.000000
 41
0.000000
  0
VERTEX
  8
0
  6
CONTINUOUS
 10
3.672680
 20
4.886200
  0
VERTEX
  8
0
  6
CONTINUOUS
 10
4.429040
 20
4.885760
  0
VERTEX
  8
0
  6
CONTINUOUS
 10
4.434760
 20
4.869920
  0
VERTEX
  8
0
  6
CONTINUOUS
 10
3.678400
 20
4.870360
  0
VERTEX
  8
0
  6
CONTINUOUS
 10
3.672680
 20
4.886200
  0
SEQEND
  8
0
  0
SOLID
  8
0
 62
    15
 10
3.678400
 20
4.870360
 11
4.434760
 21
4.869920
 12
3.681480
 22
4.854960
 13
4.437400
 23
4.854960
  0
POLYLINE
  8
0
  6
CONTINUOUS
 66
     1
 40
0.000000
 41
0.000000
  0
VERTEX
  8
0
  6
CONTINUOUS
 10
3.678400
 20
4.870360
  0
VERTEX
  8
0
  6
CONTINUOUS
 10
4.434760
 20
4.869920
  0
VERTEX
  8
0
  6
CONTINUOUS
 10
4.437400
 20
4.854960
  0
VERTEX
  8
0
  6
CONTINUOUS
 10
3.681480
 20
4.854960
  0
VERTEX
  8
0
  6
CONTINUOUS
 10
3.678400
 20
4.870360
  0
SEQEND
  8
0
  0
SOLID
  8
0
 62
    15
 10
3.681480
 20
4.854960
 11
4.437400
 21
4.854960
 12
3.681480
 22
4.840440
 13
4.437400
 23
4.840000
  0
POLYLINE
  8
0
  6
CONTINUOUS
 66
     1
 40
0.000000
 41
0.000000
  0
VERTEX
  8
0
  6
CONTINUOUS
 10
3.681480
 20
4.854960
  0
VERTEX
  8
0
  6
CONTINUOUS
 10
4.437400
 20
4.854960
  0
VERTEX
  8
0
  6
CONTINUOUS
 10
4.437400
 20
4.840000
  0
VERTEX
  8
0
  6
CONTINUOUS
 10
3.681480
 20
4.840440
  0
VERTEX
  8
0
  6
CONTINUOUS
 10
3.681480
 20
4.854960
  0
SEQEND
  8
0
  0
SOLID
  8
0
 62
    15
 10
3.681480
 20
4.840440
 11
4.437400
 21
4.840000
 12
3.678400
 22
4.826800
 13
4.434760
 23
4.826360
  0
POLYLINE
  8
0
  6
CONTINUOUS
 66
     1
 40
0.000000
 41
0.000000
  0
VERTEX
  8
0
  6
CONTINUOUS
 10
3.681480
 20
4.840440
  0
VERTEX
  8
0
  6
CONTINUOUS
 10
4.437400
 20
4.840000
  0
VERTEX
  8
0
  6
CONTINUOUS
 10
4.434760
 20
4.826360
  0
VERTEX
  8
0
  6
CONTINUOUS
 10
3.678400
 20
4.826800
  0
VERTEX
  8
0
  6
CONTINUOUS
 10
3.681480
 20
4.840440
  0
SEQEND
  8
0
  0
SOLID
  8
0
 62
    15
 10
3.678400
 20
4.826800
 11
4.434760
 21
4.826360
 12
3.673120
 22
4.813600
 13
4.429480
 23
4.813160
  0
POLYLINE
  8
0
  6
CONTINUOUS
 66
     1
 40
0.000000
 41
0.000000
  0
VERTEX
  8
0
  6
CONTINUOUS
 10
3.678400
 20
4.826800
  0
VERTEX
  8
0
  6
CONTINUOUS
 10
4.434760
 20
4.826360
  0
VERTEX
  8
0
  6
CONTINUOUS
 10
4.429480
 20
4.813160
  0
VERTEX
  8
0
  6
CONTINUOUS
 10
3.673120
 20
4.813600
  0
VERTEX
  8
0
  6
CONTINUOUS
 10
3.678400
 20
4.826800
  0
SEQEND
  8
0
  0
SOLID
  8
0
 62
    15
 10
3.673120
 20
4.813600
 11
4.429480
 21
4.813160
 12
3.665640
 22
4.801280
 13
4.422000
 23
4.800840
  0
POLYLINE
  8
0
  6
CONTINUOUS
 66
     1
 40
0.000000
 41
0.000000
  0
VERTEX
  8
0
  6
CONTINUOUS
 10
3.673120
 20
4.813600
  0
VERTEX
  8
0
  6
CONTINUOUS
 10
4.429480
 20
4.813160
  0
VERTEX
  8
0
  6
CONTINUOUS
 10
4.422000
 20
4.800840
  0
VERTEX
  8
0
  6
CONTINUOUS
 10
3.665640
 20
4.801280
  0
VERTEX
  8
0
  6
CONTINUOUS
 10
3.673120
 20
4.813600
  0
SEQEND
  8
0
  0
SOLID
  8
0
 62
    15
 10
3.665640
 20
4.801280
 11
4.422000
 21
4.800840
 12
3.655520
 22
4.789400
 13
4.411880
 23
4.788960
  0
POLYLINE
  8
0
  6
CONTINUOUS
 66
     1
 40
0.000000
 41
0.000000
  0
VERTEX
  8
0
  6
CONTINUOUS
 10
3.665640
 20
4.801280
  0
VERTEX
  8
0
  6
CONTINUOUS
 10
4.422000
 20
4.800840
  0
VERTEX
  8
0
  6
CONTINUOUS
 10
4.411880
 20
4.788960
  0
VERTEX
  8
0
  6
CONTINUOUS
 10
3.655520
 20
4.789400
  0
VERTEX
  8
0
  6
CONTINUOUS
 10
3.665640
 20
4.801280
  0
SEQEND
  8
0
  0
SOLID
  8
0
 62
    15
 10
3.655520
 20
4.789400
 11
4.411880
 21
4.788960
 12
3.630000
 22
4.768720
 13
4.386360
 23
4.768280
  0
POLYLINE
  8
0
  6
CONTINUOUS
 66
     1
 40
0.000000
 41
0.000000
  0
VERTEX
  8
0
  6
CONTINUOUS
 10
3.655520
 20
4.789400
  0
VERTEX
  8
0
  6
CONTINUOUS
 10
4.411880
 20
4.788960
  0
VERTEX
  8
0
  6
CONTINUOUS
 10
4.386360
 20
4.768280
  0
VERTEX
  8
0
  6
CONTINUOUS
 10
3.630000
 20
4.768720
  0
VERTEX
  8
0
  6
CONTINUOUS
 10
3.655520
 20
4.789400
  0
SEQEND
  8
0
  0
SOLID
  8
0
 62
    15
 10
3.630000
 20
4.768720
 11
4.386360
 21
4.768280
 12
3.597440
 22
4.752000
 13
4.353800
 23
4.751560
  0
POLYLINE
  8
0
  6
CONTINUOUS
 66
     1
 40
0.000000
 41
0.000000
  0
VERTEX
  8
0
  6
CONTINUOUS
 10
3.630000
 20
4.768720
  0
VERTEX
  8
0
  6
CONTINUOUS
 10
4.386360
 20
4.768280
  0
VERTEX
  8
0
  6
CONTINUOUS
 10
4.353800
 20
4.751560
  0
VERTEX
  8
0
  6
CONTINUOUS
 10
3.597440
 20
4.752000
  0
VERTEX
  8
0
  6
CONTINUOUS
 10
3.630000
 20
4.768720
  0
SEQEND
  8
0
  0
SOLID
  8
0
 62
    15
 10
3.559160
 20
4.738800
 11
4.315520
 21
4.738360
 12
3.522200
 22
4.729120
 13
4.278560
 23
4.728680
  0
POLYLINE
  8
0
  6
CONTINUOUS
 66
     1
 40
0.000000
 41
0.000000
  0
VERTEX
  8
0
  6
CONTINUOUS
 10
3.559160
 20
4.738800
  0
VERTEX
  8
0
  6
CONTINUOUS
 10
4.315520
 20
4.738360
  0
VERTEX
  8
0
  6
CONTINUOUS
 10
4.278560
 20
4.728680
  0
VERTEX
  8
0
  6
CONTINUOUS
 10
3.522200
 20
4.729120
  0
VERTEX
  8
0
  6
CONTINUOUS
 10
3.559160
 20
4.738800
  0
SEQEND
  8
0
  0
SOLID
  8
0
 62
    15
 10
3.597440
 20
4.752000
 11
4.353800
 21
4.751560
 12
3.559160
 22
4.738800
 13
4.315520
 23
4.738360
  0
POLYLINE
  8
0
  6
CONTINUOUS
 66
     1
 40
0.000000
 41
0.000000
  0
VERTEX
  8
0
  6
CONTINUOUS
 10
3.597440
 20
4.752000
  0
VERTEX
  8
0
  6
CONTINUOUS
 10
4.353800
 20
4.751560
  0
VERTEX
  8
0
  6
CONTINUOUS
 10
4.315520
 20
4.738360
  0
VERTEX
  8
0
  6
CONTINUOUS
 10
3.559160
 20
4.738800
  0
VERTEX
  8
0
  6
CONTINUOUS
 10
3.597440
 20
4.752000
  0
SEQEND
  8
0
  0
SOLID
  8
0
 62
    15
 10
3.522200
 20
4.729120
 11
4.278560
 21
4.728680
 12
3.492720
 22
4.721640
 13
4.248640
 23
4.721200
  0
POLYLINE
  8
0
  6
CONTINUOUS
 66
     1
 40
0.000000
 41
0.000000
  0
VERTEX
  8
0
  6
CONTINUOUS
 10
3.522200
 20
4.729120
  0
VERTEX
  8
0
  6
CONTINUOUS
 10
4.278560
 20
4.728680
  0
VERTEX
  8
0
  6
CONTINUOUS
 10
4.248640
 20
4.721200
  0
VERTEX
  8
0
  6
CONTINUOUS
 10
3.492720
 20
4.721640
  0
VERTEX
  8
0
  6
CONTINUOUS
 10
3.522200
 20
4.729120
  0
SEQEND
  8
0
  0
SOLID
  8
0
 62
    15
 10
3.469400
 20
4.715480
 11
4.225760
 21
4.715040
 12
3.451800
 22
4.710200
 13
4.208160
 23
4.709760
  0
POLYLINE
  8
0
  6
CONTINUOUS
 66
     1
 40
0.000000
 41
0.000000
  0
VERTEX
  8
0
  6
CONTINUOUS
 10
3.469400
 20
4.715480
  0
VERTEX
  8
0
  6
CONTINUOUS
 10
4.225760
 20
4.715040
  0
VERTEX
  8
0
  6
CONTINUOUS
 10
4.208160
 20
4.709760
  0
VERTEX
  8
0
  6
CONTINUOUS
 10
3.451800
 20
4.710200
  0
VERTEX
  8
0
  6
CONTINUOUS
 10
3.469400
 20
4.715480
  0
SEQEND
  8
0
  0
SOLID
  8
0
 62
    15
 10
3.492720
 20
4.721640
 11
4.248640
 21
4.721200
 12
3.469400
 22
4.715480
 13
4.225760
 23
4.715040
  0
POLYLINE
  8
0
  6
CONTINUOUS
 66
     1
 40
0.000000
 41
0.000000
  0
VERTEX
  8
0
  6
CONTINUOUS
 10
3.492720
 20
4.721640
  0
VERTEX
  8
0
  6
CONTINUOUS
 10
4.248640
 20
4.721200
  0
VERTEX
  8
0
  6
CONTINUOUS
 10
4.225760
 20
4.715040
  0
VERTEX
  8
0
  6
CONTINUOUS
 10
3.469400
 20
4.715480
  0
VERTEX
  8
0
  6
CONTINUOUS
 10
3.492720
 20
4.721640
  0
SEQEND
  8
0
  0
SOLID
  8
0
 62
    15
 10
3.451800
 20
4.710200
 11
4.208160
 21
4.709760
 12
3.439480
 22
4.705360
 13
4.195840
 23
4.704920
  0
POLYLINE
  8
0
  6
CONTINUOUS
 66
     1
 40
0.000000
 41
0.000000
  0
VERTEX
  8
0
  6
CONTINUOUS
 10
3.451800
 20
4.710200
  0
VERTEX
  8
0
  6
CONTINUOUS
 10
4.208160
 20
4.709760
  0
VERTEX
  8
0
  6
CONTINUOUS
 10
4.195840
 20
4.704920
  0
VERTEX
  8
0
  6
CONTINUOUS
 10
3.439480
 20
4.705360
  0
VERTEX
  8
0
  6
CONTINUOUS
 10
3.451800
 20
4.710200
  0
SEQEND
  8
0
  0
SOLID
  8
0
 62
    15
 10
3.439480
 20
4.705360
 11
4.195840
 21
4.704920
 12
3.431560
 22
4.700520
 13
4.187920
 23
4.700080
  0
POLYLINE
  8
0
  6
CONTINUOUS
 66
     1
 40
0.000000
 41
0.000000
  0
VERTEX
  8
0
  6
CONTINUOUS
 10
3.439480
 20
4.705360
  0
VERTEX
  8
0
  6
CONTINUOUS
 10
4.195840
 20
4.704920
  0
VERTEX
  8
0
  6
CONTINUOUS
 10
4.187920
 20
4.700080
  0
VERTEX
  8
0
  6
CONTINUOUS
 10
3.431560
 20
4.700520
  0
VERTEX
  8
0
  6
CONTINUOUS
 10
3.439480
 20
4.705360
  0
SEQEND
  8
0
  0
SOLID
  8
0
 62
    15
 10
3.431560
 20
4.700520
 11
4.187920
 21
4.700080
 12
3.427160
 22
4.694360
 13
4.183520
 23
4.693920
  0
POLYLINE
  8
0
  6
CONTINUOUS
 66
     1
 40
0.000000
 41
0.000000
  0
VERTEX
  8
0
  6
CONTINUOUS
 10
3.431560
 20
4.700520
  0
VERTEX
  8
0
  6
CONTINUOUS
 10
4.187920
 20
4.700080
  0
VERTEX
  8
0
  6
CONTINUOUS
 10
4.183520
 20
4.693920
  0
VERTEX
  8
0
  6
CONTINUOUS
 10
3.427160
 20
4.694360
  0
VERTEX
  8
0
  6
CONTINUOUS
 10
3.431560
 20
4.700520
  0
SEQEND
  8
0
  0
SOLID
  8
0
 62
    15
 10
3.264360
 20
8.447560
 11
4.020720
 21
8.447560
 12
3.263040
 22
8.447560
 13
4.019400
 23
8.447560
  0
POLYLINE
  8
0
  6
CONTINUOUS
 66
     1
 40
0.000000
 41
0.000000
  0
VERTEX
  8
0
  6
CONTINUOUS
 10
3.264360
 20
8.447560
  0
VERTEX
  8
0
  6
CONTINUOUS
 10
4.020720
 20
8.447560
  0
VERTEX
  8
0
  6
CONTINUOUS
 10
4.019400
 20
8.447560
  0
VERTEX
  8
0
  6
CONTINUOUS
 10
3.263040
 20
8.447560
  0
VERTEX
  8
0
  6
CONTINUOUS
 10
3.264360
 20
8.447560
  0
SEQEND
  8
0
  0
SOLID
  8
0
 62
    15
 10
3.425840
 20
4.686880
 11
4.182200
 21
4.686440
 12
3.425400
 22
4.675000
 13
4.181320
 23
4.674560
  0
POLYLINE
  8
0
  6
CONTINUOUS
 66
     1
 40
0.000000
 41
0.000000
  0
VERTEX
  8
0
  6
CONTINUOUS
 10
3.425840
 20
4.686880
  0
VERTEX
  8
0
  6
CONTINUOUS
 10
4.182200
 20
4.686440
  0
VERTEX
  8
0
  6
CONTINUOUS
 10
4.181320
 20
4.674560
  0
VERTEX
  8
0
  6
CONTINUOUS
 10
3.425400
 20
4.675000
  0
VERTEX
  8
0
  6
CONTINUOUS
 10
3.425840
 20
4.686880
  0
SEQEND
  8
0
  0
SOLID
  8
0
 62
    15
 10
3.425400
 20
4.675000
 11
4.181320
 21
4.674560
 12
3.424960
 22
4.666640
 13
4.181320
 23
4.666200
  0
POLYLINE
  8
0
  6
CONTINUOUS
 66
     1
 40
0.000000
 41
0.000000
  0
VERTEX
  8
0
  6
CONTINUOUS
 10
3.425400
 20
4.675000
  0
VERTEX
  8
0
  6
CONTINUOUS
 10
4.181320
 20
4.674560
  0
VERTEX
  8
0
  6
CONTINUOUS
 10
4.181320
 20
4.666200
  0
VERTEX
  8
0
  6
CONTINUOUS
 10
3.424960
 20
4.666640
  0
VERTEX
  8
0
  6
CONTINUOUS
 10
3.425400
 20
4.675000
  0
SEQEND
  8
0
  0
SOLID
  8
0
 62
    15
 10
3.424960
 20
4.666640
 11
4.181320
 21
4.666200
 12
3.425840
 22
4.656080
 13
4.182200
 23
4.655640
  0
POLYLINE
  8
0
  6
CONTINUOUS
 66
     1
 40
0.000000
 41
0.000000
  0
VERTEX
  8
0
  6
CONTINUOUS
 10
3.424960
 20
4.666640
  0
VERTEX
  8
0
  6
CONTINUOUS
 10
4.181320
 20
4.666200
  0
VERTEX
  8
0
  6
CONTINUOUS
 10
4.182200
 20
4.655640
  0
VERTEX
  8
0
  6
CONTINUOUS
 10
3.425840
 20
4.656080
  0
VERTEX
  8
0
  6
CONTINUOUS
 10
3.424960
 20
4.666640
  0
SEQEND
  8
0
  0
SOLID
  8
0
 62
    15
 10
3.425840
 20
4.656080
 11
4.182200
 21
4.655640
 12
3.448280
 22
4.651240
 13
4.204640
 23
4.650800
  0
POLYLINE
  8
0
  6
CONTINUOUS
 66
     1
 40
0.000000
 41
0.000000
  0
VERTEX
  8
0
  6
CONTINUOUS
 10
3.425840
 20
4.656080
  0
VERTEX
  8
0
  6
CONTINUOUS
 10
4.182200
 20
4.655640
  0
VERTEX
  8
0
  6
CONTINUOUS
 10
4.204640
 20
4.650800
  0
VERTEX
  8
0
  6
CONTINUOUS
 10
3.448280
 20
4.651240
  0
VERTEX
  8
0
  6
CONTINUOUS
 10
3.425840
 20
4.656080
  0
SEQEND
  8
0
  0
SOLID
  8
0
 62
    15
 10
3.448280
 20
4.651240
 11
4.204640
 21
4.650800
 12
3.465880
 22
4.643760
 13
4.222240
 23
4.643320
  0
POLYLINE
  8
0
  6
CONTINUOUS
 66
     1
 40
0.000000
 41
0.000000
  0
VERTEX
  8
0
  6
CONTINUOUS
 10
3.448280
 20
4.651240
  0
VERTEX
  8
0
  6
CONTINUOUS
 10
4.204640
 20
4.650800
  0
VERTEX
  8
0
  6
CONTINUOUS
 10
4.222240
 20
4.643320
  0
VERTEX
  8
0
  6
CONTINUOUS
 10
3.465880
 20
4.643760
  0
VERTEX
  8
0
  6
CONTINUOUS
 10
3.448280
 20
4.651240
  0
SEQEND
  8
0
  0
SOLID
  8
0
 62
    15
 10
3.465880
 20
4.643760
 11
4.222240
 21
4.643320
 12
3.479520
 22
4.634080
 13
4.235880
 23
4.633640
  0
POLYLINE
  8
0
  6
CONTINUOUS
 66
     1
 40
0.000000
 41
0.000000
  0
VERTEX
  8
0
  6
CONTINUOUS
 10
3.465880
 20
4.643760
  0
VERTEX
  8
0
  6
CONTINUOUS
 10
4.222240
 20
4.643320
  0
VERTEX
  8
0
  6
CONTINUOUS
 10
4.235880
 20
4.633640
  0
VERTEX
  8
0
  6
CONTINUOUS
 10
3.479520
 20
4.634080
  0
VERTEX
  8
0
  6
CONTINUOUS
 10
3.465880
 20
4.643760
  0
SEQEND
  8
0
  0
SOLID
  8
0
 62
    15
 10
3.479520
 20
4.634080
 11
4.235880
 21
4.633640
 12
3.489200
 22
4.622640
 13
4.245560
 23
4.622200
  0
POLYLINE
  8
0
  6
CONTINUOUS
 66
     1
 40
0.000000
 41
0.000000
  0
VERTEX
  8
0
  6
CONTINUOUS
 10
3.479520
 20
4.634080
  0
VERTEX
  8
0
  6
CONTINUOUS
 10
4.235880
 20
4.633640
  0
VERTEX
  8
0
  6
CONTINUOUS
 10
4.245560
 20
4.622200
  0
VERTEX
  8
0
  6
CONTINUOUS
 10
3.489200
 20
4.622640
  0
VERTEX
  8
0
  6
CONTINUOUS
 10
3.479520
 20
4.634080
  0
SEQEND
  8
0
  0
SOLID
  8
0
 62
    15
 10
3.489200
 20
4.622640
 11
4.245560
 21
4.622200
 12
3.494920
 22
4.609880
 13
4.251280
 23
4.609440
  0
POLYLINE
  8
0
  6
CONTINUOUS
 66
     1
 40
0.000000
 41
0.000000
  0
VERTEX
  8
0
  6
CONTINUOUS
 10
3.489200
 20
4.622640
  0
VERTEX
  8
0
  6
CONTINUOUS
 10
4.245560
 20
4.622200
  0
VERTEX
  8
0
  6
CONTINUOUS
 10
4.251280
 20
4.609440
  0
VERTEX
  8
0
  6
CONTINUOUS
 10
3.494920
 20
4.609880
  0
VERTEX
  8
0
  6
CONTINUOUS
 10
3.489200
 20
4.622640
  0
SEQEND
  8
0
  0
SOLID
  8
0
 62
    15
 10
3.494920
 20
4.609880
 11
4.251280
 21
4.609440
 12
3.497120
 22
4.595800
 13
4.253480
 23
4.595360
  0
POLYLINE
  8
0
  6
CONTINUOUS
 66
     1
 40
0.000000
 41
0.000000
  0
VERTEX
  8
0
  6
CONTINUOUS
 10
3.494920
 20
4.609880
  0
VERTEX
  8
0
  6
CONTINUOUS
 10
4.251280
 20
4.609440
  0
VERTEX
  8
0
  6
CONTINUOUS
 10
4.253480
 20
4.595360
  0
VERTEX
  8
0
  6
CONTINUOUS
 10
3.497120
 20
4.595800
  0
VERTEX
  8
0
  6
CONTINUOUS
 10
3.494920
 20
4.609880
  0
SEQEND
  8
0
  0
SOLID
  8
0
 62
    15
 10
3.497120
 20
4.595800
 11
4.253480
 21
4.595360
 12
3.496240
 22
4.581720
 13
4.252160
 23
4.581280
  0
POLYLINE
  8
0
  6
CONTINUOUS
 66
     1
 40
0.000000
 41
0.000000
  0
VERTEX
  8
0
  6
CONTINUOUS
 10
3.497120
 20
4.595800
  0
VERTEX
  8
0
  6
CONTINUOUS
 10
4.253480
 20
4.595360
  0
VERTEX
  8
0
  6
CONTINUOUS
 10
4.252160
 20
4.581280
  0
VERTEX
  8
0
  6
CONTINUOUS
 10
3.496240
 20
4.581720
  0
VERTEX
  8
0
  6
CONTINUOUS
 10
3.497120
 20
4.595800
  0
SEQEND
  8
0
  0
SOLID
  8
0
 62
    15
 10
3.496240
 20
4.581720
 11
4.252160
 21
4.581280
 12
3.491840
 22
4.566760
 13
4.248200
 23
4.566320
  0
POLYLINE
  8
0
  6
CONTINUOUS
 66
     1
 40
0.000000
 41
0.000000
  0
VERTEX
  8
0
  6
CONTINUOUS
 10
3.496240
 20
4.581720
  0
VERTEX
  8
0
  6
CONTINUOUS
 10
4.252160
 20
4.581280
  0
VERTEX
  8
0
  6
CONTINUOUS
 10
4.248200
 20
4.566320
  0
VERTEX
  8
0
  6
CONTINUOUS
 10
3.491840
 20
4.566760
  0
VERTEX
  8
0
  6
CONTINUOUS
 10
3.496240
 20
4.581720
  0
SEQEND
  8
0
  0
SOLID
  8
0
 62
    15
 10
3.491840
 20
4.566760
 11
4.248200
 21
4.566320
 12
3.484800
 22
4.552680
 13
4.241160
 23
4.552240
  0
POLYLINE
  8
0
  6
CONTINUOUS
 66
     1
 40
0.000000
 41
0.000000
  0
VERTEX
  8
0
  6
CONTINUOUS
 10
3.491840
 20
4.566760
  0
VERTEX
  8
0
  6
CONTINUOUS
 10
4.248200
 20
4.566320
  0
VERTEX
  8
0
  6
CONTINUOUS
 10
4.241160
 20
4.552240
  0
VERTEX
  8
0
  6
CONTINUOUS
 10
3.484800
 20
4.552680
  0
VERTEX
  8
0
  6
CONTINUOUS
 10
3.491840
 20
4.566760
  0
SEQEND
  8
0
  0
SOLID
  8
0
 62
    15
 10
3.484800
 20
4.552680
 11
4.241160
 21
4.552240
 12
3.475560
 22
4.538600
 13
4.231920
 23
4.538160
  0
POLYLINE
  8
0
  6
CONTINUOUS
 66
     1
 40
0.000000
 41
0.000000
  0
VERTEX
  8
0
  6
CONTINUOUS
 10
3.484800
 20
4.552680
  0
VERTEX
  8
0
  6
CONTINUOUS
 10
4.241160
 20
4.552240
  0
VERTEX
  8
0
  6
CONTINUOUS
 10
4.231920
 20
4.538160
  0
VERTEX
  8
0
  6
CONTINUOUS
 10
3.475560
 20
4.538600
  0
VERTEX
  8
0
  6
CONTINUOUS
 10
3.484800
 20
4.552680
  0
SEQEND
  8
0
  0
SOLID
  8
0
 62
    15
 10
3.475560
 20
4.538600
 11
4.231920
 21
4.538160
 12
3.463680
 22
4.525840
 13
4.220040
 23
4.525400
  0
POLYLINE
  8
0
  6
CONTINUOUS
 66
     1
 40
0.000000
 41
0.000000
  0
VERTEX
  8
0
  6
CONTINUOUS
 10
3.475560
 20
4.538600
  0
VERTEX
  8
0
  6
CONTINUOUS
 10
4.231920
 20
4.538160
  0
VERTEX
  8
0
  6
CONTINUOUS
 10
4.220040
 20
4.525400
  0
VERTEX
  8
0
  6
CONTINUOUS
 10
3.463680
 20
4.525840
  0
VERTEX
  8
0
  6
CONTINUOUS
 10
3.475560
 20
4.538600
  0
SEQEND
  8
0
  0
SOLID
  8
0
 62
    15
 10
3.463680
 20
4.525840
 11
4.220040
 21
4.525400
 12
3.450040
 22
4.514400
 13
4.206400
 23
4.513960
  0
POLYLINE
  8
0
  6
CONTINUOUS
 66
     1
 40
0.000000
 41
0.000000
  0
VERTEX
  8
0
  6
CONTINUOUS
 10
3.463680
 20
4.525840
  0
VERTEX
  8
0
  6
CONTINUOUS
 10
4.220040
 20
4.525400
  0
VERTEX
  8
0
  6
CONTINUOUS
 10
4.206400
 20
4.513960
  0
VERTEX
  8
0
  6
CONTINUOUS
 10
3.450040
 20
4.514400
  0
VERTEX
  8
0
  6
CONTINUOUS
 10
3.463680
 20
4.525840
  0
SEQEND
  8
0
  0
SOLID
  8
0
 62
    15
 10
3.450040
 20
4.514400
 11
4.206400
 21
4.513960
 12
3.434640
 22
4.504720
 13
4.190560
 23
4.504280
  0
POLYLINE
  8
0
  6
CONTINUOUS
 66
     1
 40
0.000000
 41
0.000000
  0
VERTEX
  8
0
  6
CONTINUOUS
 10
3.450040
 20
4.514400
  0
VERTEX
  8
0
  6
CONTINUOUS
 10
4.206400
 20
4.513960
  0
VERTEX
  8
0
  6
CONTINUOUS
 10
4.190560
 20
4.504280
  0
VERTEX
  8
0
  6
CONTINUOUS
 10
3.434640
 20
4.504720
  0
VERTEX
  8
0
  6
CONTINUOUS
 10
3.450040
 20
4.514400
  0
SEQEND
  8
0
  0
SOLID
  8
0
 62
    15
 10
3.417480
 20
4.497240
 11
4.173840
 21
4.496800
 12
3.399000
 22
4.491960
 13
4.155360
 23
4.491520
  0
POLYLINE
  8
0
  6
CONTINUOUS
 66
     1
 40
0.000000
 41
0.000000
  0
VERTEX
  8
0
  6
CONTINUOUS
 10
3.417480
 20
4.497240
  0
VERTEX
  8
0
  6
CONTINUOUS
 10
4.173840
 20
4.496800
  0
VERTEX
  8
0
  6
CONTINUOUS
 10
4.155360
 20
4.491520
  0
VERTEX
  8
0
  6
CONTINUOUS
 10
3.399000
 20
4.491960
  0
VERTEX
  8
0
  6
CONTINUOUS
 10
3.417480
 20
4.497240
  0
SEQEND
  8
0
  0
SOLID
  8
0
 62
    15
 10
3.434640
 20
4.504720
 11
4.190560
 21
4.504280
 12
3.417480
 22
4.497240
 13
4.173840
 23
4.496800
  0
POLYLINE
  8
0
  6
CONTINUOUS
 66
     1
 40
0.000000
 41
0.000000
  0
VERTEX
  8
0
  6
CONTINUOUS
 10
3.434640
 20
4.504720
  0
VERTEX
  8
0
  6
CONTINUOUS
 10
4.190560
 20
4.504280
  0
VERTEX
  8
0
  6
CONTINUOUS
 10
4.173840
 20
4.496800
  0
VERTEX
  8
0
  6
CONTINUOUS
 10
3.417480
 20
4.497240
  0
VERTEX
  8
0
  6
CONTINUOUS
 10
3.434640
 20
4.504720
  0
SEQEND
  8
0
  0
SOLID
  8
0
 62
    15
 10
3.379640
 20
4.392960
 11
4.136000
 21
4.392520
 12
3.264360
 22
4.392960
 13
4.020720
 23
4.392520
  0
POLYLINE
  8
0
  6
CONTINUOUS
 66
     1
 40
0.000000
 41
0.000000
  0
VERTEX
  8
0
  6
CONTINUOUS
 10
3.379640
 20
4.392960
  0
VERTEX
  8
0
  6
CONTINUOUS
 10
4.136000
 20
4.392520
  0
VERTEX
  8
0
  6
CONTINUOUS
 10
4.020720
 20
4.392520
  0
VERTEX
  8
0
  6
CONTINUOUS
 10
3.264360
 20
4.392960
  0
VERTEX
  8
0
  6
CONTINUOUS
 10
3.379640
 20
4.392960
  0
SEQEND
  8
0
  0
SOLID
  8
0
 62
    15
 10
3.379640
 20
4.489760
 11
4.136000
 21
4.489320
 12
3.379640
 22
4.392960
 13
4.136000
 23
4.392520
  0
POLYLINE
  8
0
  6
CONTINUOUS
 66
     1
 40
0.000000
 41
0.000000
  0
VERTEX
  8
0
  6
CONTINUOUS
 10
3.379640
 20
4.489760
  0
VERTEX
  8
0
  6
CONTINUOUS
 10
4.136000
 20
4.489320
  0
VERTEX
  8
0
  6
CONTINUOUS
 10
4.136000
 20
4.392520
  0
VERTEX
  8
0
  6
CONTINUOUS
 10
3.379640
 20
4.392960
  0
VERTEX
  8
0
  6
CONTINUOUS
 10
3.379640
 20
4.489760
  0
SEQEND
  8
0
  0
SOLID
  8
0
 62
    15
 10
3.399000
 20
4.491960
 11
4.155360
 21
4.491520
 12
3.379640
 22
4.489760
 13
4.136000
 23
4.489320
  0
POLYLINE
  8
0
  6
CONTINUOUS
 66
     1
 40
0.000000
 41
0.000000
  0
VERTEX
  8
0
  6
CONTINUOUS
 10
3.399000
 20
4.491960
  0
VERTEX
  8
0
  6
CONTINUOUS
 10
4.155360
 20
4.491520
  0
VERTEX
  8
0
  6
CONTINUOUS
 10
4.136000
 20
4.489320
  0
VERTEX
  8
0
  6
CONTINUOUS
 10
3.379640
 20
4.489760
  0
VERTEX
  8
0
  6
CONTINUOUS
 10
3.399000
 20
4.491960
  0
SEQEND
  8
0
  0
SOLID
  8
0
 62
    15
 10
3.730320
 20
8.447560
 11
4.486680
 21
8.447560
 12
3.730320
 22
4.942960
 13
4.486680
 23
4.942520
  0
POLYLINE
  8
0
  6
CONTINUOUS
 66
     1
 40
0.000000
 41
0.000000
  0
VERTEX
  8
0
  6
CONTINUOUS
 10
3.730320
 20
8.447560
  0
VERTEX
  8
0
  6
CONTINUOUS
 10
4.486680
 20
8.447560
  0
VERTEX
  8
0
  6
CONTINUOUS
 10
4.486680
 20
4.942520
  0
VERTEX
  8
0
  6
CONTINUOUS
 10
3.730320
 20
4.942960
  0
VERTEX
  8
0
  6
CONTINUOUS
 10
3.730320
 20
8.447560
  0
SEQEND
  8
0
  0
POLYLINE
  8
0
  6
CONTINUOUS
 66
     1
 40
0.000000
 41
0.000000
  0
VERTEX
  8
0
  6
CONTINUOUS
 10
3.263040
 20
8.447560
  0
VERTEX
  8
0
  6
CONTINUOUS
 10
3.730320
 20
8.447560
  0
VERTEX
  8
0
  6
CONTINUOUS
 10
3.730320
 20
4.942960
  0
VERTEX
  8
0
  6
CONTINUOUS
 10
3.635720
 20
4.936800
  0
VERTEX
  8
0
  6
CONTINUOUS
 10
3.651560
 20
4.919640
  0
VERTEX
  8
0
  6
CONTINUOUS
 10
3.663880
 20
4.902480
  0
VERTEX
  8
0
  6
CONTINUOUS
 10
3.672680
 20
4.886200
  0
VERTEX
  8
0
  6
CONTINUOUS
 10
3.678400
 20
4.870360
  0
VERTEX
  8
0
  6
CONTINUOUS
 10
3.681480
 20
4.854960
  0
VERTEX
  8
0
  6
CONTINUOUS
 10
3.681480
 20
4.840440
  0
VERTEX
  8
0
  6
CONTINUOUS
 10
3.678400
 20
4.826800
  0
VERTEX
  8
0
  6
CONTINUOUS
 10
3.673120
 20
4.813600
  0
VERTEX
  8
0
  6
CONTINUOUS
 10
3.665640
 20
4.801280
  0
VERTEX
  8
0
  6
CONTINUOUS
 10
3.655520
 20
4.789400
  0
VERTEX
  8
0
  6
CONTINUOUS
 10
3.630000
 20
4.768720
  0
VERTEX
  8
0
  6
CONTINUOUS
 10
3.597440
 20
4.752000
  0
VERTEX
  8
0
  6
CONTINUOUS
 10
3.559160
 20
4.738800
  0
VERTEX
  8
0
  6
CONTINUOUS
 10
3.522200
 20
4.729120
  0
VERTEX
  8
0
  6
CONTINUOUS
 10
3.492720
 20
4.721640
  0
VERTEX
  8
0
  6
CONTINUOUS
 10
3.469400
 20
4.715480
  0
VERTEX
  8
0
  6
CONTINUOUS
 10
3.451800
 20
4.710200
  0
VERTEX
  8
0
  6
CONTINUOUS
 10
3.439480
 20
4.705360
  0
VERTEX
  8
0
  6
CONTINUOUS
 10
3.431560
 20
4.700520
  0
VERTEX
  8
0
  6
CONTINUOUS
 10
3.427160
 20
4.694360
  0
VERTEX
  8
0
  6
CONTINUOUS
 10
3.425840
 20
4.686880
  0
VERTEX
  8
0
  6
CONTINUOUS
 10
3.425400
 20
4.675000
  0
VERTEX
  8
0
  6
CONTINUOUS
 10
3.424960
 20
4.666640
  0
VERTEX
  8
0
  6
CONTINUOUS
 10
3.425840
 20
4.656080
  0
VERTEX
  8
0
  6
CONTINUOUS
 10
3.448280
 20
4.651240
  0
VERTEX
  8
0
  6
CONTINUOUS
 10
3.465880
 20
4.643760
  0
VERTEX
  8
0
  6
CONTINUOUS
 10
3.479520
 20
4.634080
  0
VERTEX
  8
0
  6
CONTINUOUS
 10
3.489200
 20
4.622640
  0
VERTEX
  8
0
  6
CONTINUOUS
 10
3.494920
 20
4.609880
  0
VERTEX
  8
0
  6
CONTINUOUS
 10
3.497120
 20
4.595800
  0
VERTEX
  8
0
  6
CONTINUOUS
 10
3.496240
 20
4.581720
  0
VERTEX
  8
0
  6
CONTINUOUS
 10
3.491840
 20
4.566760
  0
VERTEX
  8
0
  6
CONTINUOUS
 10
3.484800
 20
4.552680
  0
VERTEX
  8
0
  6
CONTINUOUS
 10
3.475560
 20
4.538600
  0
VERTEX
  8
0
  6
CONTINUOUS
 10
3.463680
 20
4.525840
  0
VERTEX
  8
0
  6
CONTINUOUS
 10
3.450040
 20
4.514400
  0
VERTEX
  8
0
  6
CONTINUOUS
 10
3.434640
 20
4.504720
  0
VERTEX
  8
0
  6
CONTINUOUS
 10
3.417480
 20
4.497240
  0
VERTEX
  8
0
  6
CONTINUOUS
 10
3.399000
 20
4.491960
  0
VERTEX
  8
0
  6
CONTINUOUS
 10
3.379640
 20
4.489760
  0
VERTEX
  8
0
  6
CONTINUOUS
 10
3.379640
 20
4.392960
  0
VERTEX
  8
0
  6
CONTINUOUS
 10
3.264360
 20
4.392960
  0
VERTEX
  8
0
  6
CONTINUOUS
 10
3.264360
 20
8.447560
  0
VERTEX
  8
0
  6
CONTINUOUS
 10
3.263040
 20
8.447560
  0
SEQEND
  8
0
  0
TEXT
  8
0
 10
4.851440
 20
4.607240
 40
0.138052
  1
BA  1216
 41
1.000000
  7
SN0
 71
     0
 72
     5
 11
5.534247
 21
4.607240
  0
TEXT
  8
0
 10
4.649480
 20
4.415840
 40
0.138052
  1
7/16" x 4-1/16"
 41
1.000000
  7
SN0
 71
     0
 72
     5
 11
5.734395
 21
4.415840
  0
TEXT
  8
0
 10
3.793240
 20
8.981720
 40
0.138052
  1
BA  1216
 41
1.000000
  7
SN0
 71
     0
 72
     5
 11
4.476047
 21
8.981720
  0
TEXT
  8
0
 10
3.591280
 20
8.790320
 40
0.138052
  1
7/16" x 4-1/16"
 41
1.000000
  7
SN0
 71
     0
 72
     5
 11
4.676195
 21
8.790320
  0
TEXT
  8
0
 10
5.067040
 20
7.634880
 40
0.138052
  1
chair rail
 41
1.000000
  7
SN0
 71
     0
 72
     5
 11
5.692714
 21
7.634880
  0
ENDSEC
  0
EOF
