  0
SECTION
  2
HEADER
  9
$ACADVER
  1
AC1006
  9
$EXTMIN
 10
1.461680
 20
5.597680
  9
$EXTMAX
 10
5.126440
 20
8.610360
  9
$LTSCALE
 40
0.044000
  9
$PDMODE
 70
    35
  9
$PDSIZE
 40
0.035200
  0
ENDSEC
  0
SECTION
  2
TABLES
  0
TABLE
  2
LTYPE
 70
     9
  0
LTYPE
  2
CONTINUOUS
 70
    64
  3
Solid line
 72
    65
 73
     0
 40
0.000000
  0
LTYPE
  2
DASHED
 70
    64
  3
__ __ __ __ __ __ __ __ __ __ __ __ __ __ __
 72
    65
 73
     2
 40
0.000330
 49
0.000220
 49
-0.000110
  0
LTYPE
  2
HIDDEN
 70
    64
  3
 _ _ _ _ _ _ _ _ _ _ _ _ _ _ _ _ _ _ _ _ _ _
 72
    65
 73
     2
 40
0.000165
 49
0.000110
 49
-0.000055
  0
LTYPE
  2
CENTER
 70
    64
  3
____ _ ____ _ ____ _ ____ _ ____ _ ____ _ ____
 72
    65
 73
     4
 40
0.000880
 49
0.000550
 49
-0.000110
 49
0.000110
 49
-0.000110
  0
LTYPE
  2
PHANTOM
 70
    64
  3
_____ _ _ _____ _ _ _____ _ _ _____ _ _ ____
 72
    65
 73
     6
 40
0.001100
 49
0.000550
 49
-0.000110
 49
0.000110
 49
-0.000110
 49
0.000110
 49
-0.000110
  0
LTYPE
  2
DOT
 70
    64
  3
...............................................
 72
    65
 73
     2
 40
0.000110
 49
0.000000
 49
-0.000110
  0
LTYPE
  2
DASHDOT
 70
    64
  3
__ . __ . __ . __ . __ . __ . __ . __ . __ . __
 72
    65
 73
     4
 40
0.000440
 49
0.000220
 49
-0.000110
 49
0.000000
 49
-0.000110
  0
LTYPE
  2
BORDER
 70
    64
  3
__ __ . __ __ . __ __ . __ __ . __ __ . __ __
 72
    65
 73
     6
 40
0.000770
 49
0.000220
 49
-0.000110
 49
0.000220
 49
-0.000110
 49
0.000000
 49
-0.000110
  0
LTYPE
  2
DIVIDE
 70
    64
  3
__ . . __ . . __ . . __ . . __ . . __ . . __
 72
    65
 73
     6
 40
0.000550
 49
0.000220
 49
-0.000110
 49
0.000000
 49
-0.000110
 49
0.000000
 49
-0.000110
  0
LTYPE
  2
DOTDOT
 70
    64
  3
 . .  . .  . .  . .  . .  . . 
 72
    65
 73
     5
 40
0.000242
 49
-0.000110
 49
0.000000
 49
-0.000110
 49
0.000000
 49
-0.000110
  0
ENDTAB
  0
TABLE
  2
STYLE
 70
     2
  0
STYLE
 70
     0
  2
SN0
 40
0.000000
 41
0.000440
 50
0.000000
 71
     0
 42
0.000000
  3
ROMAND
  0
STYLE
 70
    68
  2
SV0
 40
0.000000
 41
0.000440
 50
0.000000
 71
     0
 42
0.000000
  3
ROMAND
  0
ENDTAB
  0
TABLE
  2
LAYER
 70
     3
  0
LAYER
  2
FOREGROUND
 70
    64
 62
     7
  6
CONTINUOUS
  0
LAYER
  2
BACKGROUND
 70
    65
 62
    -7
  6
CONTINUOUS
  0
LAYER
  2
0
 70
    64
 62
     7
  6
CONTINUOUS
  0
ENDTAB
  0
ENDSEC
  0
SECTION
  2
ENTITIES
  0
POLYLINE
  8
FOREGROUND
  6
CONTINUOUS
 66
     1
 40
0.000000
 41
0.000000
  0
VERTEX
  8
FOREGROUND
  6
CONTINUOUS
 10
0.000000
 20
14.208040
  0
VERTEX
  8
FOREGROUND
  6
CONTINUOUS
 10
8.499920
 20
14.208040
  0
VERTEX
  8
FOREGROUND
  6
CONTINUOUS
 10
8.499920
 20
3.208040
  0
VERTEX
  8
FOREGROUND
  6
CONTINUOUS
 10
0.000000
 20
3.208040
  0
VERTEX
  8
FOREGROUND
  6
CONTINUOUS
 10
0.000000
 20
14.208040
  0
SEQEND
  8
0
  0
POLYLINE
  8
FOREGROUND
  6
CONTINUOUS
 66
     1
 40
0.000000
 41
0.000000
  0
VERTEX
  8
FOREGROUND
  6
CONTINUOUS
 10
0.000000
 20
14.208040
  0
VERTEX
  8
FOREGROUND
  6
CONTINUOUS
 10
8.499920
 20
14.208040
  0
VERTEX
  8
FOREGROUND
  6
CONTINUOUS
 10
8.499920
 20
3.208040
  0
VERTEX
  8
FOREGROUND
  6
CONTINUOUS
 10
0.000000
 20
3.208040
  0
VERTEX
  8
FOREGROUND
  6
CONTINUOUS
 10
0.000000
 20
14.208040
  0
SEQEND
  8
0
  0
SOLID
  8
0
 62
    15
 10
1.894640
 20
7.502000
 11
2.650560
 21
7.502440
 12
1.866040
 22
7.492320
 13
2.622400
 23
7.492760
  0
POLYLINE
  8
0
  6
CONTINUOUS
 66
     1
 40
0.000000
 41
0.000000
  0
VERTEX
  8
0
  6
CONTINUOUS
 10
1.894640
 20
7.502000
  0
VERTEX
  8
0
  6
CONTINUOUS
 10
2.650560
 20
7.502440
  0
VERTEX
  8
0
  6
CONTINUOUS
 10
2.622400
 20
7.492760
  0
VERTEX
  8
0
  6
CONTINUOUS
 10
1.866040
 20
7.492320
  0
VERTEX
  8
0
  6
CONTINUOUS
 10
1.894640
 20
7.502000
  0
SEQEND
  8
0
  0
SOLID
  8
0
 62
    15
 10
2.053920
 20
7.729480
 11
2.809840
 21
7.729920
 12
2.075920
 22
7.697800
 13
2.831840
 23
7.698680
  0
POLYLINE
  8
0
  6
CONTINUOUS
 66
     1
 40
0.000000
 41
0.000000
  0
VERTEX
  8
0
  6
CONTINUOUS
 10
2.053920
 20
7.729480
  0
VERTEX
  8
0
  6
CONTINUOUS
 10
2.809840
 20
7.729920
  0
VERTEX
  8
0
  6
CONTINUOUS
 10
2.831840
 20
7.698680
  0
VERTEX
  8
0
  6
CONTINUOUS
 10
2.075920
 20
7.697800
  0
VERTEX
  8
0
  6
CONTINUOUS
 10
2.053920
 20
7.729480
  0
SEQEND
  8
0
  0
SOLID
  8
0
 62
    15
 10
1.462120
 20
8.048040
 11
2.218480
 21
8.048480
 12
2.156440
 22
8.048040
 13
2.912360
 23
8.048480
  0
POLYLINE
  8
0
  6
CONTINUOUS
 66
     1
 40
0.000000
 41
0.000000
  0
VERTEX
  8
0
  6
CONTINUOUS
 10
1.462120
 20
8.048040
  0
VERTEX
  8
0
  6
CONTINUOUS
 10
2.218480
 20
8.048480
  0
VERTEX
  8
0
  6
CONTINUOUS
 10
2.912360
 20
8.048480
  0
VERTEX
  8
0
  6
CONTINUOUS
 10
2.156440
 20
8.048040
  0
VERTEX
  8
0
  6
CONTINUOUS
 10
1.462120
 20
8.048040
  0
SEQEND
  8
0
  0
SOLID
  8
0
 62
    15
 10
2.075920
 20
7.697800
 11
2.831840
 21
7.698680
 12
2.091320
 22
7.669640
 13
2.847240
 23
7.670080
  0
POLYLINE
  8
0
  6
CONTINUOUS
 66
     1
 40
0.000000
 41
0.000000
  0
VERTEX
  8
0
  6
CONTINUOUS
 10
2.075920
 20
7.697800
  0
VERTEX
  8
0
  6
CONTINUOUS
 10
2.831840
 20
7.698680
  0
VERTEX
  8
0
  6
CONTINUOUS
 10
2.847240
 20
7.670080
  0
VERTEX
  8
0
  6
CONTINUOUS
 10
2.091320
 20
7.669640
  0
VERTEX
  8
0
  6
CONTINUOUS
 10
2.075920
 20
7.697800
  0
SEQEND
  8
0
  0
SOLID
  8
0
 62
    15
 10
2.091320
 20
7.669640
 11
2.847240
 21
7.670080
 12
2.101000
 22
7.644120
 13
2.856920
 23
7.644560
  0
POLYLINE
  8
0
  6
CONTINUOUS
 66
     1
 40
0.000000
 41
0.000000
  0
VERTEX
  8
0
  6
CONTINUOUS
 10
2.091320
 20
7.669640
  0
VERTEX
  8
0
  6
CONTINUOUS
 10
2.847240
 20
7.670080
  0
VERTEX
  8
0
  6
CONTINUOUS
 10
2.856920
 20
7.644560
  0
VERTEX
  8
0
  6
CONTINUOUS
 10
2.101000
 20
7.644120
  0
VERTEX
  8
0
  6
CONTINUOUS
 10
2.091320
 20
7.669640
  0
SEQEND
  8
0
  0
SOLID
  8
0
 62
    15
 10
2.101000
 20
7.644120
 11
2.856920
 21
7.644560
 12
2.105400
 22
7.621240
 13
2.861320
 23
7.621680
  0
POLYLINE
  8
0
  6
CONTINUOUS
 66
     1
 40
0.000000
 41
0.000000
  0
VERTEX
  8
0
  6
CONTINUOUS
 10
2.101000
 20
7.644120
  0
VERTEX
  8
0
  6
CONTINUOUS
 10
2.856920
 20
7.644560
  0
VERTEX
  8
0
  6
CONTINUOUS
 10
2.861320
 20
7.621680
  0
VERTEX
  8
0
  6
CONTINUOUS
 10
2.105400
 20
7.621240
  0
VERTEX
  8
0
  6
CONTINUOUS
 10
2.101000
 20
7.644120
  0
SEQEND
  8
0
  0
SOLID
  8
0
 62
    15
 10
2.105400
 20
7.621240
 11
2.861320
 21
7.621680
 12
2.104520
 22
7.600560
 13
2.860440
 23
7.601440
  0
POLYLINE
  8
0
  6
CONTINUOUS
 66
     1
 40
0.000000
 41
0.000000
  0
VERTEX
  8
0
  6
CONTINUOUS
 10
2.105400
 20
7.621240
  0
VERTEX
  8
0
  6
CONTINUOUS
 10
2.861320
 20
7.621680
  0
VERTEX
  8
0
  6
CONTINUOUS
 10
2.860440
 20
7.601440
  0
VERTEX
  8
0
  6
CONTINUOUS
 10
2.104520
 20
7.600560
  0
VERTEX
  8
0
  6
CONTINUOUS
 10
2.105400
 20
7.621240
  0
SEQEND
  8
0
  0
SOLID
  8
0
 62
    15
 10
2.104520
 20
7.600560
 11
2.860440
 21
7.601440
 12
2.099680
 22
7.582960
 13
2.856040
 23
7.583400
  0
POLYLINE
  8
0
  6
CONTINUOUS
 66
     1
 40
0.000000
 41
0.000000
  0
VERTEX
  8
0
  6
CONTINUOUS
 10
2.104520
 20
7.600560
  0
VERTEX
  8
0
  6
CONTINUOUS
 10
2.860440
 20
7.601440
  0
VERTEX
  8
0
  6
CONTINUOUS
 10
2.856040
 20
7.583400
  0
VERTEX
  8
0
  6
CONTINUOUS
 10
2.099680
 20
7.582960
  0
VERTEX
  8
0
  6
CONTINUOUS
 10
2.104520
 20
7.600560
  0
SEQEND
  8
0
  0
SOLID
  8
0
 62
    15
 10
2.099680
 20
7.582960
 11
2.856040
 21
7.583400
 12
2.091320
 22
7.567120
 13
2.847240
 23
7.568000
  0
POLYLINE
  8
0
  6
CONTINUOUS
 66
     1
 40
0.000000
 41
0.000000
  0
VERTEX
  8
0
  6
CONTINUOUS
 10
2.099680
 20
7.582960
  0
VERTEX
  8
0
  6
CONTINUOUS
 10
2.856040
 20
7.583400
  0
VERTEX
  8
0
  6
CONTINUOUS
 10
2.847240
 20
7.568000
  0
VERTEX
  8
0
  6
CONTINUOUS
 10
2.091320
 20
7.567120
  0
VERTEX
  8
0
  6
CONTINUOUS
 10
2.099680
 20
7.582960
  0
SEQEND
  8
0
  0
SOLID
  8
0
 62
    15
 10
2.091320
 20
7.567120
 11
2.847240
 21
7.568000
 12
2.080320
 22
7.553920
 13
2.836240
 23
7.554360
  0
POLYLINE
  8
0
  6
CONTINUOUS
 66
     1
 40
0.000000
 41
0.000000
  0
VERTEX
  8
0
  6
CONTINUOUS
 10
2.091320
 20
7.567120
  0
VERTEX
  8
0
  6
CONTINUOUS
 10
2.847240
 20
7.568000
  0
VERTEX
  8
0
  6
CONTINUOUS
 10
2.836240
 20
7.554360
  0
VERTEX
  8
0
  6
CONTINUOUS
 10
2.080320
 20
7.553920
  0
VERTEX
  8
0
  6
CONTINUOUS
 10
2.091320
 20
7.567120
  0
SEQEND
  8
0
  0
SOLID
  8
0
 62
    15
 10
2.080320
 20
7.553920
 11
2.836240
 21
7.554360
 12
2.050840
 22
7.533240
 13
2.806760
 23
7.533680
  0
POLYLINE
  8
0
  6
CONTINUOUS
 66
     1
 40
0.000000
 41
0.000000
  0
VERTEX
  8
0
  6
CONTINUOUS
 10
2.080320
 20
7.553920
  0
VERTEX
  8
0
  6
CONTINUOUS
 10
2.836240
 20
7.554360
  0
VERTEX
  8
0
  6
CONTINUOUS
 10
2.806760
 20
7.533680
  0
VERTEX
  8
0
  6
CONTINUOUS
 10
2.050840
 20
7.533240
  0
VERTEX
  8
0
  6
CONTINUOUS
 10
2.080320
 20
7.553920
  0
SEQEND
  8
0
  0
SOLID
  8
0
 62
    15
 10
2.050840
 20
7.533240
 11
2.806760
 21
7.533680
 12
2.016080
 22
7.519600
 13
2.772000
 23
7.520040
  0
POLYLINE
  8
0
  6
CONTINUOUS
 66
     1
 40
0.000000
 41
0.000000
  0
VERTEX
  8
0
  6
CONTINUOUS
 10
2.050840
 20
7.533240
  0
VERTEX
  8
0
  6
CONTINUOUS
 10
2.806760
 20
7.533680
  0
VERTEX
  8
0
  6
CONTINUOUS
 10
2.772000
 20
7.520040
  0
VERTEX
  8
0
  6
CONTINUOUS
 10
2.016080
 20
7.519600
  0
VERTEX
  8
0
  6
CONTINUOUS
 10
2.050840
 20
7.533240
  0
SEQEND
  8
0
  0
SOLID
  8
0
 62
    15
 10
2.016080
 20
7.519600
 11
2.772000
 21
7.520040
 12
1.981320
 22
7.512120
 13
2.737240
 23
7.512560
  0
POLYLINE
  8
0
  6
CONTINUOUS
 66
     1
 40
0.000000
 41
0.000000
  0
VERTEX
  8
0
  6
CONTINUOUS
 10
2.016080
 20
7.519600
  0
VERTEX
  8
0
  6
CONTINUOUS
 10
2.772000
 20
7.520040
  0
VERTEX
  8
0
  6
CONTINUOUS
 10
2.737240
 20
7.512560
  0
VERTEX
  8
0
  6
CONTINUOUS
 10
1.981320
 20
7.512120
  0
VERTEX
  8
0
  6
CONTINUOUS
 10
2.016080
 20
7.519600
  0
SEQEND
  8
0
  0
SOLID
  8
0
 62
    15
 10
1.981320
 20
7.512120
 11
2.737240
 21
7.512560
 12
1.950960
 22
7.509920
 13
2.706880
 23
7.510360
  0
POLYLINE
  8
0
  6
CONTINUOUS
 66
     1
 40
0.000000
 41
0.000000
  0
VERTEX
  8
0
  6
CONTINUOUS
 10
1.981320
 20
7.512120
  0
VERTEX
  8
0
  6
CONTINUOUS
 10
2.737240
 20
7.512560
  0
VERTEX
  8
0
  6
CONTINUOUS
 10
2.706880
 20
7.510360
  0
VERTEX
  8
0
  6
CONTINUOUS
 10
1.950960
 20
7.509920
  0
VERTEX
  8
0
  6
CONTINUOUS
 10
1.981320
 20
7.512120
  0
SEQEND
  8
0
  0
SOLID
  8
0
 62
    15
 10
1.950960
 20
7.509920
 11
2.706880
 21
7.510360
 12
1.923240
 22
7.507720
 13
2.679160
 23
7.508600
  0
POLYLINE
  8
0
  6
CONTINUOUS
 66
     1
 40
0.000000
 41
0.000000
  0
VERTEX
  8
0
  6
CONTINUOUS
 10
1.950960
 20
7.509920
  0
VERTEX
  8
0
  6
CONTINUOUS
 10
2.706880
 20
7.510360
  0
VERTEX
  8
0
  6
CONTINUOUS
 10
2.679160
 20
7.508600
  0
VERTEX
  8
0
  6
CONTINUOUS
 10
1.923240
 20
7.507720
  0
VERTEX
  8
0
  6
CONTINUOUS
 10
1.950960
 20
7.509920
  0
SEQEND
  8
0
  0
SOLID
  8
0
 62
    15
 10
1.923240
 20
7.507720
 11
2.679160
 21
7.508600
 12
1.894640
 22
7.502000
 13
2.650560
 23
7.502440
  0
POLYLINE
  8
0
  6
CONTINUOUS
 66
     1
 40
0.000000
 41
0.000000
  0
VERTEX
  8
0
  6
CONTINUOUS
 10
1.923240
 20
7.507720
  0
VERTEX
  8
0
  6
CONTINUOUS
 10
2.679160
 20
7.508600
  0
VERTEX
  8
0
  6
CONTINUOUS
 10
2.650560
 20
7.502440
  0
VERTEX
  8
0
  6
CONTINUOUS
 10
1.894640
 20
7.502000
  0
VERTEX
  8
0
  6
CONTINUOUS
 10
1.923240
 20
7.507720
  0
SEQEND
  8
0
  0
SOLID
  8
0
 62
    15
 10
2.156440
 20
8.048040
 11
2.912360
 21
8.048480
 12
2.156440
 22
7.729480
 13
2.912360
 23
7.729920
  0
POLYLINE
  8
0
  6
CONTINUOUS
 66
     1
 40
0.000000
 41
0.000000
  0
VERTEX
  8
0
  6
CONTINUOUS
 10
2.156440
 20
8.048040
  0
VERTEX
  8
0
  6
CONTINUOUS
 10
2.912360
 20
8.048480
  0
VERTEX
  8
0
  6
CONTINUOUS
 10
2.912360
 20
7.729920
  0
VERTEX
  8
0
  6
CONTINUOUS
 10
2.156440
 20
7.729480
  0
VERTEX
  8
0
  6
CONTINUOUS
 10
2.156440
 20
8.048040
  0
SEQEND
  8
0
  0
SOLID
  8
0
 62
    15
 10
1.866040
 20
7.492320
 11
2.622400
 21
7.492760
 12
1.839640
 22
7.478240
 13
2.595560
 23
7.478680
  0
POLYLINE
  8
0
  6
CONTINUOUS
 66
     1
 40
0.000000
 41
0.000000
  0
VERTEX
  8
0
  6
CONTINUOUS
 10
1.866040
 20
7.492320
  0
VERTEX
  8
0
  6
CONTINUOUS
 10
2.622400
 20
7.492760
  0
VERTEX
  8
0
  6
CONTINUOUS
 10
2.595560
 20
7.478680
  0
VERTEX
  8
0
  6
CONTINUOUS
 10
1.839640
 20
7.478240
  0
VERTEX
  8
0
  6
CONTINUOUS
 10
1.866040
 20
7.492320
  0
SEQEND
  8
0
  0
SOLID
  8
0
 62
    15
 10
1.839640
 20
7.478240
 11
2.595560
 21
7.478680
 12
1.816320
 22
7.459760
 13
2.572240
 23
7.460200
  0
POLYLINE
  8
0
  6
CONTINUOUS
 66
     1
 40
0.000000
 41
0.000000
  0
VERTEX
  8
0
  6
CONTINUOUS
 10
1.839640
 20
7.478240
  0
VERTEX
  8
0
  6
CONTINUOUS
 10
2.595560
 20
7.478680
  0
VERTEX
  8
0
  6
CONTINUOUS
 10
2.572240
 20
7.460200
  0
VERTEX
  8
0
  6
CONTINUOUS
 10
1.816320
 20
7.459760
  0
VERTEX
  8
0
  6
CONTINUOUS
 10
1.839640
 20
7.478240
  0
SEQEND
  8
0
  0
SOLID
  8
0
 62
    15
 10
1.816320
 20
7.459760
 11
2.572240
 21
7.460200
 12
1.798280
 22
7.436880
 13
2.554200
 23
7.437320
  0
POLYLINE
  8
0
  6
CONTINUOUS
 66
     1
 40
0.000000
 41
0.000000
  0
VERTEX
  8
0
  6
CONTINUOUS
 10
1.816320
 20
7.459760
  0
VERTEX
  8
0
  6
CONTINUOUS
 10
2.572240
 20
7.460200
  0
VERTEX
  8
0
  6
CONTINUOUS
 10
2.554200
 20
7.437320
  0
VERTEX
  8
0
  6
CONTINUOUS
 10
1.798280
 20
7.436880
  0
VERTEX
  8
0
  6
CONTINUOUS
 10
1.816320
 20
7.459760
  0
SEQEND
  8
0
  0
SOLID
  8
0
 62
     7
 10
1.798280
 20
7.436880
 11
2.554200
 21
7.437320
 12
1.786400
 22
7.409600
 13
2.542320
 23
7.410040
  0
POLYLINE
  8
0
  6
CONTINUOUS
 66
     1
 40
0.000000
 41
0.000000
  0
VERTEX
  8
0
  6
CONTINUOUS
 10
1.798280
 20
7.436880
  0
VERTEX
  8
0
  6
CONTINUOUS
 10
2.554200
 20
7.437320
  0
VERTEX
  8
0
  6
CONTINUOUS
 10
2.542320
 20
7.410040
  0
VERTEX
  8
0
  6
CONTINUOUS
 10
1.786400
 20
7.409600
  0
VERTEX
  8
0
  6
CONTINUOUS
 10
1.798280
 20
7.436880
  0
SEQEND
  8
0
  0
SOLID
  8
0
 62
     7
 10
1.786400
 20
7.409600
 11
2.542320
 21
7.410040
 12
1.782000
 22
7.377040
 13
2.537920
 23
7.377920
  0
POLYLINE
  8
0
  6
CONTINUOUS
 66
     1
 40
0.000000
 41
0.000000
  0
VERTEX
  8
0
  6
CONTINUOUS
 10
1.786400
 20
7.409600
  0
VERTEX
  8
0
  6
CONTINUOUS
 10
2.542320
 20
7.410040
  0
VERTEX
  8
0
  6
CONTINUOUS
 10
2.537920
 20
7.377920
  0
VERTEX
  8
0
  6
CONTINUOUS
 10
1.782000
 20
7.377040
  0
VERTEX
  8
0
  6
CONTINUOUS
 10
1.786400
 20
7.409600
  0
SEQEND
  8
0
  0
SOLID
  8
0
 62
    15
 10
1.782000
 20
7.377040
 11
2.537920
 21
7.377920
 12
1.812800
 22
7.355920
 13
2.568720
 23
7.356800
  0
POLYLINE
  8
0
  6
CONTINUOUS
 66
     1
 40
0.000000
 41
0.000000
  0
VERTEX
  8
0
  6
CONTINUOUS
 10
1.782000
 20
7.377040
  0
VERTEX
  8
0
  6
CONTINUOUS
 10
2.537920
 20
7.377920
  0
VERTEX
  8
0
  6
CONTINUOUS
 10
2.568720
 20
7.356800
  0
VERTEX
  8
0
  6
CONTINUOUS
 10
1.812800
 20
7.355920
  0
VERTEX
  8
0
  6
CONTINUOUS
 10
1.782000
 20
7.377040
  0
SEQEND
  8
0
  0
SOLID
  8
0
 62
    15
 10
1.812800
 20
7.355920
 11
2.568720
 21
7.356800
 12
1.834360
 22
7.330840
 13
2.590280
 23
7.331280
  0
POLYLINE
  8
0
  6
CONTINUOUS
 66
     1
 40
0.000000
 41
0.000000
  0
VERTEX
  8
0
  6
CONTINUOUS
 10
1.812800
 20
7.355920
  0
VERTEX
  8
0
  6
CONTINUOUS
 10
2.568720
 20
7.356800
  0
VERTEX
  8
0
  6
CONTINUOUS
 10
2.590280
 20
7.331280
  0
VERTEX
  8
0
  6
CONTINUOUS
 10
1.834360
 20
7.330840
  0
VERTEX
  8
0
  6
CONTINUOUS
 10
1.812800
 20
7.355920
  0
SEQEND
  8
0
  0
SOLID
  8
0
 62
    15
 10
1.834360
 20
7.330840
 11
2.590280
 21
7.331280
 12
1.846240
 22
7.303120
 13
2.602160
 23
7.303560
  0
POLYLINE
  8
0
  6
CONTINUOUS
 66
     1
 40
0.000000
 41
0.000000
  0
VERTEX
  8
0
  6
CONTINUOUS
 10
1.834360
 20
7.330840
  0
VERTEX
  8
0
  6
CONTINUOUS
 10
2.590280
 20
7.331280
  0
VERTEX
  8
0
  6
CONTINUOUS
 10
2.602160
 20
7.303560
  0
VERTEX
  8
0
  6
CONTINUOUS
 10
1.846240
 20
7.303120
  0
VERTEX
  8
0
  6
CONTINUOUS
 10
1.834360
 20
7.330840
  0
SEQEND
  8
0
  0
SOLID
  8
0
 62
    15
 10
1.846240
 20
7.303120
 11
2.602160
 21
7.303560
 12
1.848880
 22
7.274960
 13
2.604800
 23
7.275400
  0
POLYLINE
  8
0
  6
CONTINUOUS
 66
     1
 40
0.000000
 41
0.000000
  0
VERTEX
  8
0
  6
CONTINUOUS
 10
1.846240
 20
7.303120
  0
VERTEX
  8
0
  6
CONTINUOUS
 10
2.602160
 20
7.303560
  0
VERTEX
  8
0
  6
CONTINUOUS
 10
2.604800
 20
7.275400
  0
VERTEX
  8
0
  6
CONTINUOUS
 10
1.848880
 20
7.274960
  0
VERTEX
  8
0
  6
CONTINUOUS
 10
1.846240
 20
7.303120
  0
SEQEND
  8
0
  0
SOLID
  8
0
 62
     7
 10
1.848880
 20
7.274960
 11
2.604800
 21
7.275400
 12
1.840960
 22
7.248120
 13
2.596880
 23
7.248560
  0
POLYLINE
  8
0
  6
CONTINUOUS
 66
     1
 40
0.000000
 41
0.000000
  0
VERTEX
  8
0
  6
CONTINUOUS
 10
1.848880
 20
7.274960
  0
VERTEX
  8
0
  6
CONTINUOUS
 10
2.604800
 20
7.275400
  0
VERTEX
  8
0
  6
CONTINUOUS
 10
2.596880
 20
7.248560
  0
VERTEX
  8
0
  6
CONTINUOUS
 10
1.840960
 20
7.248120
  0
VERTEX
  8
0
  6
CONTINUOUS
 10
1.848880
 20
7.274960
  0
SEQEND
  8
0
  0
SOLID
  8
0
 62
    15
 10
1.840960
 20
7.248120
 11
2.596880
 21
7.248560
 12
1.822920
 22
7.224360
 13
2.578840
 23
7.224800
  0
POLYLINE
  8
0
  6
CONTINUOUS
 66
     1
 40
0.000000
 41
0.000000
  0
VERTEX
  8
0
  6
CONTINUOUS
 10
1.840960
 20
7.248120
  0
VERTEX
  8
0
  6
CONTINUOUS
 10
2.596880
 20
7.248560
  0
VERTEX
  8
0
  6
CONTINUOUS
 10
2.578840
 20
7.224800
  0
VERTEX
  8
0
  6
CONTINUOUS
 10
1.822920
 20
7.224360
  0
VERTEX
  8
0
  6
CONTINUOUS
 10
1.840960
 20
7.248120
  0
SEQEND
  8
0
  0
SOLID
  8
0
 62
    15
 10
1.822920
 20
7.224360
 11
2.578840
 21
7.224800
 12
1.794320
 22
7.205440
 13
2.550240
 23
7.205880
  0
POLYLINE
  8
0
  6
CONTINUOUS
 66
     1
 40
0.000000
 41
0.000000
  0
VERTEX
  8
0
  6
CONTINUOUS
 10
1.822920
 20
7.224360
  0
VERTEX
  8
0
  6
CONTINUOUS
 10
2.578840
 20
7.224800
  0
VERTEX
  8
0
  6
CONTINUOUS
 10
2.550240
 20
7.205880
  0
VERTEX
  8
0
  6
CONTINUOUS
 10
1.794320
 20
7.205440
  0
VERTEX
  8
0
  6
CONTINUOUS
 10
1.822920
 20
7.224360
  0
SEQEND
  8
0
  0
SOLID
  8
0
 62
    15
 10
1.794320
 20
7.205440
 11
2.550240
 21
7.205880
 12
1.775840
 22
7.198400
 13
2.531760
 23
7.199280
  0
POLYLINE
  8
0
  6
CONTINUOUS
 66
     1
 40
0.000000
 41
0.000000
  0
VERTEX
  8
0
  6
CONTINUOUS
 10
1.794320
 20
7.205440
  0
VERTEX
  8
0
  6
CONTINUOUS
 10
2.550240
 20
7.205880
  0
VERTEX
  8
0
  6
CONTINUOUS
 10
2.531760
 20
7.199280
  0
VERTEX
  8
0
  6
CONTINUOUS
 10
1.775840
 20
7.198400
  0
VERTEX
  8
0
  6
CONTINUOUS
 10
1.794320
 20
7.205440
  0
SEQEND
  8
0
  0
SOLID
  8
0
 62
    15
 10
1.775840
 20
7.198400
 11
2.531760
 21
7.199280
 12
1.754280
 22
7.193560
 13
2.510200
 23
7.194000
  0
POLYLINE
  8
0
  6
CONTINUOUS
 66
     1
 40
0.000000
 41
0.000000
  0
VERTEX
  8
0
  6
CONTINUOUS
 10
1.775840
 20
7.198400
  0
VERTEX
  8
0
  6
CONTINUOUS
 10
2.531760
 20
7.199280
  0
VERTEX
  8
0
  6
CONTINUOUS
 10
2.510200
 20
7.194000
  0
VERTEX
  8
0
  6
CONTINUOUS
 10
1.754280
 20
7.193560
  0
VERTEX
  8
0
  6
CONTINUOUS
 10
1.775840
 20
7.198400
  0
SEQEND
  8
0
  0
SOLID
  8
0
 62
     7
 10
1.754280
 20
7.193560
 11
2.510200
 21
7.194000
 12
1.754280
 22
7.113480
 13
2.510200
 23
7.113920
  0
POLYLINE
  8
0
  6
CONTINUOUS
 66
     1
 40
0.000000
 41
0.000000
  0
VERTEX
  8
0
  6
CONTINUOUS
 10
1.754280
 20
7.193560
  0
VERTEX
  8
0
  6
CONTINUOUS
 10
2.510200
 20
7.194000
  0
VERTEX
  8
0
  6
CONTINUOUS
 10
2.510200
 20
7.113920
  0
VERTEX
  8
0
  6
CONTINUOUS
 10
1.754280
 20
7.113480
  0
VERTEX
  8
0
  6
CONTINUOUS
 10
1.754280
 20
7.193560
  0
SEQEND
  8
0
  0
POLYLINE
  8
0
  6
CONTINUOUS
 66
     1
 40
0.000000
 41
0.000000
  0
VERTEX
  8
0
  6
CONTINUOUS
 10
1.462120
 20
7.113480
  0
VERTEX
  8
0
  6
CONTINUOUS
 10
1.462120
 20
8.048040
  0
VERTEX
  8
0
  6
CONTINUOUS
 10
2.156440
 20
8.048040
  0
VERTEX
  8
0
  6
CONTINUOUS
 10
2.156440
 20
7.729480
  0
VERTEX
  8
0
  6
CONTINUOUS
 10
2.053920
 20
7.729480
  0
VERTEX
  8
0
  6
CONTINUOUS
 10
2.075920
 20
7.697800
  0
VERTEX
  8
0
  6
CONTINUOUS
 10
2.091320
 20
7.669640
  0
VERTEX
  8
0
  6
CONTINUOUS
 10
2.101000
 20
7.644120
  0
VERTEX
  8
0
  6
CONTINUOUS
 10
2.105400
 20
7.621240
  0
VERTEX
  8
0
  6
CONTINUOUS
 10
2.104520
 20
7.600560
  0
VERTEX
  8
0
  6
CONTINUOUS
 10
2.099680
 20
7.582960
  0
VERTEX
  8
0
  6
CONTINUOUS
 10
2.091320
 20
7.567120
  0
VERTEX
  8
0
  6
CONTINUOUS
 10
2.080320
 20
7.553920
  0
VERTEX
  8
0
  6
CONTINUOUS
 10
2.050840
 20
7.533240
  0
VERTEX
  8
0
  6
CONTINUOUS
 10
2.016080
 20
7.519600
  0
VERTEX
  8
0
  6
CONTINUOUS
 10
1.981320
 20
7.512120
  0
VERTEX
  8
0
  6
CONTINUOUS
 10
1.950960
 20
7.509920
  0
VERTEX
  8
0
  6
CONTINUOUS
 10
1.923240
 20
7.507720
  0
VERTEX
  8
0
  6
CONTINUOUS
 10
1.894640
 20
7.502000
  0
VERTEX
  8
0
  6
CONTINUOUS
 10
1.866040
 20
7.492320
  0
VERTEX
  8
0
  6
CONTINUOUS
 10
1.839640
 20
7.478240
  0
VERTEX
  8
0
  6
CONTINUOUS
 10
1.816320
 20
7.459760
  0
VERTEX
  8
0
  6
CONTINUOUS
 10
1.798280
 20
7.436880
  0
VERTEX
  8
0
  6
CONTINUOUS
 10
1.786400
 20
7.409600
  0
VERTEX
  8
0
  6
CONTINUOUS
 10
1.782000
 20
7.377040
  0
VERTEX
  8
0
  6
CONTINUOUS
 10
1.812800
 20
7.355920
  0
VERTEX
  8
0
  6
CONTINUOUS
 10
1.834360
 20
7.330840
  0
VERTEX
  8
0
  6
CONTINUOUS
 10
1.846240
 20
7.303120
  0
VERTEX
  8
0
  6
CONTINUOUS
 10
1.848880
 20
7.274960
  0
VERTEX
  8
0
  6
CONTINUOUS
 10
1.840960
 20
7.248120
  0
VERTEX
  8
0
  6
CONTINUOUS
 10
1.822920
 20
7.224360
  0
VERTEX
  8
0
  6
CONTINUOUS
 10
1.794320
 20
7.205440
  0
VERTEX
  8
0
  6
CONTINUOUS
 10
1.775840
 20
7.198400
  0
VERTEX
  8
0
  6
CONTINUOUS
 10
1.754280
 20
7.193560
  0
VERTEX
  8
0
  6
CONTINUOUS
 10
1.754280
 20
7.113480
  0
VERTEX
  8
0
  6
CONTINUOUS
 10
1.463000
 20
7.113480
  0
VERTEX
  8
0
  6
CONTINUOUS
 10
1.462120
 20
7.113480
  0
SEQEND
  8
0
  0
POLYLINE
  8
0
  6
CONTINUOUS
 66
     1
 40
0.014080
 41
0.014080
  0
VERTEX
  8
0
  6
CONTINUOUS
 10
3.448280
 20
7.106000
  0
VERTEX
  8
0
  6
CONTINUOUS
 10
3.448280
 20
8.040560
  0
VERTEX
  8
0
  6
CONTINUOUS
 10
4.142600
 20
8.040560
  0
VERTEX
  8
0
  6
CONTINUOUS
 10
4.142600
 20
7.722000
  0
VERTEX
  8
0
  6
CONTINUOUS
 10
4.040080
 20
7.722000
  0
VERTEX
  8
0
  6
CONTINUOUS
 10
4.062080
 20
7.690760
  0
VERTEX
  8
0
  6
CONTINUOUS
 10
4.077480
 20
7.662160
  0
VERTEX
  8
0
  6
CONTINUOUS
 10
4.087160
 20
7.636640
  0
VERTEX
  8
0
  6
CONTINUOUS
 10
4.091120
 20
7.613760
  0
VERTEX
  8
0
  6
CONTINUOUS
 10
4.091560
 20
7.603200
  0
VERTEX
  8
0
  6
CONTINUOUS
 10
4.088920
 20
7.584280
  0
VERTEX
  8
0
  6
CONTINUOUS
 10
4.082320
 20
7.567560
  0
VERTEX
  8
0
  6
CONTINUOUS
 10
4.066040
 20
7.546440
  0
VERTEX
  8
0
  6
CONTINUOUS
 10
4.052400
 20
7.535000
  0
VERTEX
  8
0
  6
CONTINUOUS
 10
4.036560
 20
7.525760
  0
VERTEX
  8
0
  6
CONTINUOUS
 10
4.002240
 20
7.512120
  0
VERTEX
  8
0
  6
CONTINUOUS
 10
3.967480
 20
7.504640
  0
VERTEX
  8
0
  6
CONTINUOUS
 10
3.909400
 20
7.500680
  0
VERTEX
  8
0
  6
CONTINUOUS
 10
3.880800
 20
7.494520
  0
VERTEX
  8
0
  6
CONTINUOUS
 10
3.852200
 20
7.484840
  0
VERTEX
  8
0
  6
CONTINUOUS
 10
3.825800
 20
7.470760
  0
VERTEX
  8
0
  6
CONTINUOUS
 10
3.802480
 20
7.452280
  0
VERTEX
  8
0
  6
CONTINUOUS
 10
3.784440
 20
7.429400
  0
VERTEX
  8
0
  6
CONTINUOUS
 10
3.777400
 20
7.416200
  0
VERTEX
  8
0
  6
CONTINUOUS
 10
3.772120
 20
7.401680
  0
VERTEX
  8
0
  6
CONTINUOUS
 10
3.768160
 20
7.377920
  0
VERTEX
  8
0
  6
CONTINUOUS
 10
3.768160
 20
7.369560
  0
VERTEX
  8
0
  6
CONTINUOUS
 10
3.791920
 20
7.354160
  0
VERTEX
  8
0
  6
CONTINUOUS
 10
3.810400
 20
7.336120
  0
VERTEX
  8
0
  6
CONTINUOUS
 10
3.820080
 20
7.322920
  0
VERTEX
  8
0
  6
CONTINUOUS
 10
3.827560
 20
7.309720
  0
VERTEX
  8
0
  6
CONTINUOUS
 10
3.832400
 20
7.295640
  0
VERTEX
  8
0
  6
CONTINUOUS
 10
3.834600
 20
7.281560
  0
VERTEX
  8
0
  6
CONTINUOUS
 10
3.833720
 20
7.260440
  0
VERTEX
  8
0
  6
CONTINUOUS
 10
3.827120
 20
7.240640
  0
VERTEX
  8
0
  6
CONTINUOUS
 10
3.814360
 20
7.222600
  0
VERTEX
  8
0
  6
CONTINUOUS
 10
3.795880
 20
7.206760
  0
VERTEX
  8
0
  6
CONTINUOUS
 10
3.771240
 20
7.194440
  0
VERTEX
  8
0
  6
CONTINUOUS
 10
3.740440
 20
7.186080
  0
VERTEX
  8
0
  6
CONTINUOUS
 10
3.740440
 20
7.106000
  0
VERTEX
  8
0
  6
CONTINUOUS
 10
3.448280
 20
7.106000
  0
SEQEND
  8
0
  0
POLYLINE
  8
0
  6
CONTINUOUS
 66
     1
 40
0.000000
 41
0.000000
  0
VERTEX
  8
0
  6
CONTINUOUS
 10
3.524840
 20
5.598120
  0
VERTEX
  8
0
  6
CONTINUOUS
 10
3.524840
 20
6.532680
  0
VERTEX
  8
0
  6
CONTINUOUS
 10
2.830960
 20
6.532680
  0
VERTEX
  8
0
  6
CONTINUOUS
 10
2.830960
 20
6.213680
  0
VERTEX
  8
0
  6
CONTINUOUS
 10
2.933480
 20
6.213680
  0
VERTEX
  8
0
  6
CONTINUOUS
 10
2.911480
 20
6.182440
  0
VERTEX
  8
0
  6
CONTINUOUS
 10
2.895640
 20
6.153840
  0
VERTEX
  8
0
  6
CONTINUOUS
 10
2.886400
 20
6.128320
  0
VERTEX
  8
0
  6
CONTINUOUS
 10
2.883320
 20
6.116440
  0
VERTEX
  8
0
  6
CONTINUOUS
 10
2.882000
 20
6.094880
  0
VERTEX
  8
0
  6
CONTINUOUS
 10
2.882440
 20
6.085200
  0
VERTEX
  8
0
  6
CONTINUOUS
 10
2.887280
 20
6.067160
  0
VERTEX
  8
0
  6
CONTINUOUS
 10
2.895640
 20
6.051760
  0
VERTEX
  8
0
  6
CONTINUOUS
 10
2.913680
 20
6.032400
  0
VERTEX
  8
0
  6
CONTINUOUS
 10
2.936560
 20
6.017440
  0
VERTEX
  8
0
  6
CONTINUOUS
 10
2.971320
 20
6.003800
  0
VERTEX
  8
0
  6
CONTINUOUS
 10
3.006080
 20
5.996320
  0
VERTEX
  8
0
  6
CONTINUOUS
 10
3.064160
 20
5.992360
  0
VERTEX
  8
0
  6
CONTINUOUS
 10
3.092760
 20
5.986200
  0
VERTEX
  8
0
  6
CONTINUOUS
 10
3.121360
 20
5.976520
  0
VERTEX
  8
0
  6
CONTINUOUS
 10
3.147760
 20
5.962440
  0
VERTEX
  8
0
  6
CONTINUOUS
 10
3.160080
 20
5.954080
  0
VERTEX
  8
0
  6
CONTINUOUS
 10
3.171080
 20
5.944400
  0
VERTEX
  8
0
  6
CONTINUOUS
 10
3.189120
 20
5.921520
  0
VERTEX
  8
0
  6
CONTINUOUS
 10
3.196160
 20
5.908320
  0
VERTEX
  8
0
  6
CONTINUOUS
 10
3.201440
 20
5.893800
  0
VERTEX
  8
0
  6
CONTINUOUS
 10
3.205400
 20
5.870040
  0
VERTEX
  8
0
  6
CONTINUOUS
 10
3.205400
 20
5.861680
  0
VERTEX
  8
0
  6
CONTINUOUS
 10
3.174600
 20
5.840560
  0
VERTEX
  8
0
  6
CONTINUOUS
 10
3.157440
 20
5.821640
  0
VERTEX
  8
0
  6
CONTINUOUS
 10
3.146000
 20
5.801400
  0
VERTEX
  8
0
  6
CONTINUOUS
 10
3.141160
 20
5.787760
  0
VERTEX
  8
0
  6
CONTINUOUS
 10
3.138520
 20
5.773680
  0
VERTEX
  8
0
  6
CONTINUOUS
 10
3.139400
 20
5.752560
  0
VERTEX
  8
0
  6
CONTINUOUS
 10
3.146440
 20
5.732760
  0
VERTEX
  8
0
  6
CONTINUOUS
 10
3.158760
 20
5.714280
  0
VERTEX
  8
0
  6
CONTINUOUS
 10
3.177240
 20
5.698880
  0
VERTEX
  8
0
  6
CONTINUOUS
 10
3.202320
 20
5.686120
  0
VERTEX
  8
0
  6
CONTINUOUS
 10
3.233120
 20
5.677760
  0
VERTEX
  8
0
  6
CONTINUOUS
 10
3.233120
 20
5.598120
  0
VERTEX
  8
0
  6
CONTINUOUS
 10
3.524840
 20
5.598120
  0
SEQEND
  8
0
  0
POLYLINE
  8
0
  6
CONTINUOUS
 66
     1
 40
0.000000
 41
0.000000
  0
VERTEX
  8
0
  6
CONTINUOUS
 10
3.714040
 20
5.626720
  0
VERTEX
  8
0
  6
CONTINUOUS
 10
3.714040
 20
6.561280
  0
VERTEX
  8
0
  6
CONTINUOUS
 10
4.408360
 20
6.561280
  0
VERTEX
  8
0
  6
CONTINUOUS
 10
4.408360
 20
6.242720
  0
VERTEX
  8
0
  6
CONTINUOUS
 10
4.305400
 20
6.242720
  0
VERTEX
  8
0
  6
CONTINUOUS
 10
4.327400
 20
6.211480
  0
VERTEX
  8
0
  6
CONTINUOUS
 10
4.343240
 20
6.182880
  0
VERTEX
  8
0
  6
CONTINUOUS
 10
4.352480
 20
6.157360
  0
VERTEX
  8
0
  6
CONTINUOUS
 10
4.355560
 20
6.145480
  0
VERTEX
  8
0
  6
CONTINUOUS
 10
4.357320
 20
6.123920
  0
VERTEX
  8
0
  6
CONTINUOUS
 10
4.354240
 20
6.105000
  0
VERTEX
  8
0
  6
CONTINUOUS
 10
4.347640
 20
6.088280
  0
VERTEX
  8
0
  6
CONTINUOUS
 10
4.337960
 20
6.073760
  0
VERTEX
  8
0
  6
CONTINUOUS
 10
4.318160
 20
6.055720
  0
VERTEX
  8
0
  6
CONTINUOUS
 10
4.302320
 20
6.046480
  0
VERTEX
  8
0
  6
CONTINUOUS
 10
4.268000
 20
6.032840
  0
VERTEX
  8
0
  6
CONTINUOUS
 10
4.233240
 20
6.025360
  0
VERTEX
  8
0
  6
CONTINUOUS
 10
4.175160
 20
6.021400
  0
VERTEX
  8
0
  6
CONTINUOUS
 10
4.146560
 20
6.015240
  0
VERTEX
  8
0
  6
CONTINUOUS
 10
4.117960
 20
6.005560
  0
VERTEX
  8
0
  6
CONTINUOUS
 10
4.091560
 20
5.991480
  0
VERTEX
  8
0
  6
CONTINUOUS
 10
4.068240
 20
5.973440
  0
VERTEX
  8
0
  6
CONTINUOUS
 10
4.050200
 20
5.950560
  0
VERTEX
  8
0
  6
CONTINUOUS
 10
4.043160
 20
5.937360
  0
VERTEX
  8
0
  6
CONTINUOUS
 10
4.037880
 20
5.922840
  0
VERTEX
  8
0
  6
CONTINUOUS
 10
4.033920
 20
5.899080
  0
VERTEX
  8
0
  6
CONTINUOUS
 10
4.033920
 20
5.890720
  0
VERTEX
  8
0
  6
CONTINUOUS
 10
4.057680
 20
5.875320
  0
VERTEX
  8
0
  6
CONTINUOUS
 10
4.076160
 20
5.857280
  0
VERTEX
  8
0
  6
CONTINUOUS
 10
4.085840
 20
5.844080
  0
VERTEX
  8
0
  6
CONTINUOUS
 10
4.093320
 20
5.830440
  0
VERTEX
  8
0
  6
CONTINUOUS
 10
4.098160
 20
5.816360
  0
VERTEX
  8
0
  6
CONTINUOUS
 10
4.100360
 20
5.802280
  0
VERTEX
  8
0
  6
CONTINUOUS
 10
4.099480
 20
5.781160
  0
VERTEX
  8
0
  6
CONTINUOUS
 10
4.092880
 20
5.761360
  0
VERTEX
  8
0
  6
CONTINUOUS
 10
4.080120
 20
5.743320
  0
VERTEX
  8
0
  6
CONTINUOUS
 10
4.061640
 20
5.727480
  0
VERTEX
  8
0
  6
CONTINUOUS
 10
4.037000
 20
5.715160
  0
VERTEX
  8
0
  6
CONTINUOUS
 10
4.006200
 20
5.706800
  0
VERTEX
  8
0
  6
CONTINUOUS
 10
4.006200
 20
5.626720
  0
VERTEX
  8
0
  6
CONTINUOUS
 10
3.714040
 20
5.626720
  0
SEQEND
  8
0
  0
TEXT
  8
0
 10
1.846240
 20
6.886000
 40
0.138075
  1
BA  1215
 41
1.000000
  7
SN0
 71
     0
 72
     5
 11
2.528252
 21
6.886000
  0
TEXT
  8
0
 10
1.625800
 20
6.694160
 40
0.138075
  1
11/16" x 15/16"
 41
1.000000
  7
SN0
 71
     0
 72
     5
 11
2.746850
 21
6.694160
  0
TEXT
  8
0
 10
4.222680
 20
7.272320
 40
0.138075
  1
BA  1215
 41
1.000000
  7
SN0
 71
     0
 72
     5
 11
4.904692
 21
7.272320
  0
TEXT
  8
0
 10
4.002240
 20
7.080480
 40
0.138075
  1
11/16" x 15/16"
 41
1.000000
  7
SN0
 71
     0
 72
     5
 11
5.123290
 21
7.080480
  0
TEXT
  8
0
 10
2.295920
 20
8.459440
 40
0.138075
  1
chair rail
 41
1.000000
  7
SN0
 71
     0
 72
     5
 11
2.921311
 21
8.459440
  0
ENDSEC
  0
EOF
