  0
SECTION
  2
HEADER
  9
$ACADVER
  1
AC1006
  9
$EXTMIN
 10
1.692240
 20
2.097040
  9
$EXTMAX
 10
6.343040
 20
7.458440
  9
$LTSCALE
 40
0.044000
  9
$PDMODE
 70
    35
  9
$PDSIZE
 40
0.035200
  0
ENDSEC
  0
SECTION
  2
TABLES
  0
TABLE
  2
LTYPE
 70
     9
  0
LTYPE
  2
CONTINUOUS
 70
    64
  3
Solid line
 72
    65
 73
     0
 40
0.000000
  0
LTYPE
  2
DASHED
 70
    64
  3
__ __ __ __ __ __ __ __ __ __ __ __ __ __ __
 72
    65
 73
     2
 40
0.000330
 49
0.000220
 49
-0.000110
  0
LTYPE
  2
HIDDEN
 70
    64
  3
 _ _ _ _ _ _ _ _ _ _ _ _ _ _ _ _ _ _ _ _ _ _
 72
    65
 73
     2
 40
0.000165
 49
0.000110
 49
-0.000055
  0
LTYPE
  2
CENTER
 70
    64
  3
____ _ ____ _ ____ _ ____ _ ____ _ ____ _ ____
 72
    65
 73
     4
 40
0.000880
 49
0.000550
 49
-0.000110
 49
0.000110
 49
-0.000110
  0
LTYPE
  2
PHANTOM
 70
    64
  3
_____ _ _ _____ _ _ _____ _ _ _____ _ _ ____
 72
    65
 73
     6
 40
0.001100
 49
0.000550
 49
-0.000110
 49
0.000110
 49
-0.000110
 49
0.000110
 49
-0.000110
  0
LTYPE
  2
DOT
 70
    64
  3
...............................................
 72
    65
 73
     2
 40
0.000110
 49
0.000000
 49
-0.000110
  0
LTYPE
  2
DASHDOT
 70
    64
  3
__ . __ . __ . __ . __ . __ . __ . __ . __ . __
 72
    65
 73
     4
 40
0.000440
 49
0.000220
 49
-0.000110
 49
0.000000
 49
-0.000110
  0
LTYPE
  2
BORDER
 70
    64
  3
__ __ . __ __ . __ __ . __ __ . __ __ . __ __
 72
    65
 73
     6
 40
0.000770
 49
0.000220
 49
-0.000110
 49
0.000220
 49
-0.000110
 49
0.000000
 49
-0.000110
  0
LTYPE
  2
DIVIDE
 70
    64
  3
__ . . __ . . __ . . __ . . __ . . __ . . __
 72
    65
 73
     6
 40
0.000550
 49
0.000220
 49
-0.000110
 49
0.000000
 49
-0.000110
 49
0.000000
 49
-0.000110
  0
LTYPE
  2
DOTDOT
 70
    64
  3
 . .  . .  . .  . .  . .  . . 
 72
    65
 73
     5
 40
0.000242
 49
-0.000110
 49
0.000000
 49
-0.000110
 49
0.000000
 49
-0.000110
  0
ENDTAB
  0
TABLE
  2
STYLE
 70
     2
  0
STYLE
 70
     0
  2
SN0
 40
0.000000
 41
0.000440
 50
0.000000
 71
     0
 42
0.000000
  3
ROMAND
  0
STYLE
 70
    68
  2
SV0
 40
0.000000
 41
0.000440
 50
0.000000
 71
     0
 42
0.000000
  3
ROMAND
  0
ENDTAB
  0
TABLE
  2
LAYER
 70
     3
  0
LAYER
  2
FOREGROUND
 70
    64
 62
     7
  6
CONTINUOUS
  0
LAYER
  2
BACKGROUND
 70
    65
 62
    -7
  6
CONTINUOUS
  0
LAYER
  2
0
 70
    64
 62
     7
  6
CONTINUOUS
  0
ENDTAB
  0
ENDSEC
  0
SECTION
  2
ENTITIES
  0
POLYLINE
  8
FOREGROUND
  6
CONTINUOUS
 66
     1
 40
0.000000
 41
0.000000
  0
VERTEX
  8
FOREGROUND
  6
CONTINUOUS
 10
0.000000
 20
9.555480
  0
VERTEX
  8
FOREGROUND
  6
CONTINUOUS
 10
8.499920
 20
9.555480
  0
VERTEX
  8
FOREGROUND
  6
CONTINUOUS
 10
8.499920
 20
-1.444520
  0
VERTEX
  8
FOREGROUND
  6
CONTINUOUS
 10
0.000000
 20
-1.444520
  0
VERTEX
  8
FOREGROUND
  6
CONTINUOUS
 10
0.000000
 20
9.555480
  0
SEQEND
  8
0
  0
POLYLINE
  8
FOREGROUND
  6
CONTINUOUS
 66
     1
 40
0.000000
 41
0.000000
  0
VERTEX
  8
FOREGROUND
  6
CONTINUOUS
 10
0.000000
 20
9.555480
  0
VERTEX
  8
FOREGROUND
  6
CONTINUOUS
 10
8.499920
 20
9.555480
  0
VERTEX
  8
FOREGROUND
  6
CONTINUOUS
 10
8.499920
 20
-1.444520
  0
VERTEX
  8
FOREGROUND
  6
CONTINUOUS
 10
0.000000
 20
-1.444520
  0
VERTEX
  8
FOREGROUND
  6
CONTINUOUS
 10
0.000000
 20
9.555480
  0
SEQEND
  8
0
  0
SOLID
  8
0
 62
    15
 10
5.836160
 20
4.977280
 11
5.832640
 21
5.720000
 12
5.864760
 22
4.977280
 13
5.861240
 23
5.720000
  0
POLYLINE
  8
0
  6
CONTINUOUS
 66
     1
 40
0.000000
 41
0.000000
  0
VERTEX
  8
0
  6
CONTINUOUS
 10
5.836160
 20
4.977280
  0
VERTEX
  8
0
  6
CONTINUOUS
 10
5.832640
 20
5.720000
  0
VERTEX
  8
0
  6
CONTINUOUS
 10
5.861240
 20
5.720000
  0
VERTEX
  8
0
  6
CONTINUOUS
 10
5.864760
 20
4.977280
  0
VERTEX
  8
0
  6
CONTINUOUS
 10
5.836160
 20
4.977280
  0
SEQEND
  8
0
  0
SOLID
  8
0
 62
    15
 10
1.696200
 20
4.777520
 11
1.693120
 21
5.520240
 12
1.696200
 22
5.583160
 13
1.693120
 23
6.325880
  0
POLYLINE
  8
0
  6
CONTINUOUS
 66
     1
 40
0.000000
 41
0.000000
  0
VERTEX
  8
0
  6
CONTINUOUS
 10
1.696200
 20
4.777520
  0
VERTEX
  8
0
  6
CONTINUOUS
 10
1.693120
 20
5.520240
  0
VERTEX
  8
0
  6
CONTINUOUS
 10
1.693120
 20
6.325880
  0
VERTEX
  8
0
  6
CONTINUOUS
 10
1.696200
 20
5.583160
  0
VERTEX
  8
0
  6
CONTINUOUS
 10
1.696200
 20
4.777520
  0
SEQEND
  8
0
  0
SOLID
  8
0
 62
    15
 10
3.842080
 20
5.583160
 11
3.838560
 21
6.325880
 12
3.849560
 22
5.490320
 13
3.846040
 23
6.233040
  0
POLYLINE
  8
0
  6
CONTINUOUS
 66
     1
 40
0.000000
 41
0.000000
  0
VERTEX
  8
0
  6
CONTINUOUS
 10
3.842080
 20
5.583160
  0
VERTEX
  8
0
  6
CONTINUOUS
 10
3.838560
 20
6.325880
  0
VERTEX
  8
0
  6
CONTINUOUS
 10
3.846040
 20
6.233040
  0
VERTEX
  8
0
  6
CONTINUOUS
 10
3.849560
 20
5.490320
  0
VERTEX
  8
0
  6
CONTINUOUS
 10
3.842080
 20
5.583160
  0
SEQEND
  8
0
  0
SOLID
  8
0
 62
    15
 10
3.849560
 20
5.490320
 11
3.846040
 21
6.233040
 12
3.891360
 22
5.502200
 13
3.887840
 23
6.244920
  0
POLYLINE
  8
0
  6
CONTINUOUS
 66
     1
 40
0.000000
 41
0.000000
  0
VERTEX
  8
0
  6
CONTINUOUS
 10
3.849560
 20
5.490320
  0
VERTEX
  8
0
  6
CONTINUOUS
 10
3.846040
 20
6.233040
  0
VERTEX
  8
0
  6
CONTINUOUS
 10
3.887840
 20
6.244920
  0
VERTEX
  8
0
  6
CONTINUOUS
 10
3.891360
 20
5.502200
  0
VERTEX
  8
0
  6
CONTINUOUS
 10
3.849560
 20
5.490320
  0
SEQEND
  8
0
  0
SOLID
  8
0
 62
    15
 10
3.891360
 20
5.502200
 11
3.887840
 21
6.244920
 12
3.926120
 22
5.503520
 13
3.922600
 23
6.246240
  0
POLYLINE
  8
0
  6
CONTINUOUS
 66
     1
 40
0.000000
 41
0.000000
  0
VERTEX
  8
0
  6
CONTINUOUS
 10
3.891360
 20
5.502200
  0
VERTEX
  8
0
  6
CONTINUOUS
 10
3.887840
 20
6.244920
  0
VERTEX
  8
0
  6
CONTINUOUS
 10
3.922600
 20
6.246240
  0
VERTEX
  8
0
  6
CONTINUOUS
 10
3.926120
 20
5.503520
  0
VERTEX
  8
0
  6
CONTINUOUS
 10
3.891360
 20
5.502200
  0
SEQEND
  8
0
  0
SOLID
  8
0
 62
    15
 10
3.926120
 20
5.503520
 11
3.922600
 21
6.246240
 12
3.954720
 22
5.495160
 13
3.951200
 23
6.237880
  0
POLYLINE
  8
0
  6
CONTINUOUS
 66
     1
 40
0.000000
 41
0.000000
  0
VERTEX
  8
0
  6
CONTINUOUS
 10
3.926120
 20
5.503520
  0
VERTEX
  8
0
  6
CONTINUOUS
 10
3.922600
 20
6.246240
  0
VERTEX
  8
0
  6
CONTINUOUS
 10
3.951200
 20
6.237880
  0
VERTEX
  8
0
  6
CONTINUOUS
 10
3.954720
 20
5.495160
  0
VERTEX
  8
0
  6
CONTINUOUS
 10
3.926120
 20
5.503520
  0
SEQEND
  8
0
  0
SOLID
  8
0
 62
    15
 10
3.954720
 20
5.495160
 11
3.951200
 21
6.237880
 12
3.977160
 22
5.478000
 13
3.974080
 23
6.220720
  0
POLYLINE
  8
0
  6
CONTINUOUS
 66
     1
 40
0.000000
 41
0.000000
  0
VERTEX
  8
0
  6
CONTINUOUS
 10
3.954720
 20
5.495160
  0
VERTEX
  8
0
  6
CONTINUOUS
 10
3.951200
 20
6.237880
  0
VERTEX
  8
0
  6
CONTINUOUS
 10
3.974080
 20
6.220720
  0
VERTEX
  8
0
  6
CONTINUOUS
 10
3.977160
 20
5.478000
  0
VERTEX
  8
0
  6
CONTINUOUS
 10
3.954720
 20
5.495160
  0
SEQEND
  8
0
  0
SOLID
  8
0
 62
    15
 10
3.977160
 20
5.478000
 11
3.974080
 21
6.220720
 12
3.994760
 22
5.453800
 13
3.991240
 23
6.196520
  0
POLYLINE
  8
0
  6
CONTINUOUS
 66
     1
 40
0.000000
 41
0.000000
  0
VERTEX
  8
0
  6
CONTINUOUS
 10
3.977160
 20
5.478000
  0
VERTEX
  8
0
  6
CONTINUOUS
 10
3.974080
 20
6.220720
  0
VERTEX
  8
0
  6
CONTINUOUS
 10
3.991240
 20
6.196520
  0
VERTEX
  8
0
  6
CONTINUOUS
 10
3.994760
 20
5.453800
  0
VERTEX
  8
0
  6
CONTINUOUS
 10
3.977160
 20
5.478000
  0
SEQEND
  8
0
  0
SOLID
  8
0
 62
    15
 10
3.994760
 20
5.453800
 11
3.991240
 21
6.196520
 12
4.007080
 22
5.423440
 13
4.003560
 23
6.166160
  0
POLYLINE
  8
0
  6
CONTINUOUS
 66
     1
 40
0.000000
 41
0.000000
  0
VERTEX
  8
0
  6
CONTINUOUS
 10
3.994760
 20
5.453800
  0
VERTEX
  8
0
  6
CONTINUOUS
 10
3.991240
 20
6.196520
  0
VERTEX
  8
0
  6
CONTINUOUS
 10
4.003560
 20
6.166160
  0
VERTEX
  8
0
  6
CONTINUOUS
 10
4.007080
 20
5.423440
  0
VERTEX
  8
0
  6
CONTINUOUS
 10
3.994760
 20
5.453800
  0
SEQEND
  8
0
  0
SOLID
  8
0
 62
    15
 10
4.007080
 20
5.423440
 11
4.003560
 21
6.166160
 12
4.015440
 22
5.388680
 13
4.011920
 23
6.131400
  0
POLYLINE
  8
0
  6
CONTINUOUS
 66
     1
 40
0.000000
 41
0.000000
  0
VERTEX
  8
0
  6
CONTINUOUS
 10
4.007080
 20
5.423440
  0
VERTEX
  8
0
  6
CONTINUOUS
 10
4.003560
 20
6.166160
  0
VERTEX
  8
0
  6
CONTINUOUS
 10
4.011920
 20
6.131400
  0
VERTEX
  8
0
  6
CONTINUOUS
 10
4.015440
 20
5.388680
  0
VERTEX
  8
0
  6
CONTINUOUS
 10
4.007080
 20
5.423440
  0
SEQEND
  8
0
  0
SOLID
  8
0
 62
    15
 10
4.015440
 20
5.388680
 11
4.011920
 21
6.131400
 12
4.019840
 22
5.350400
 13
4.016760
 23
6.092680
  0
POLYLINE
  8
0
  6
CONTINUOUS
 66
     1
 40
0.000000
 41
0.000000
  0
VERTEX
  8
0
  6
CONTINUOUS
 10
4.015440
 20
5.388680
  0
VERTEX
  8
0
  6
CONTINUOUS
 10
4.011920
 20
6.131400
  0
VERTEX
  8
0
  6
CONTINUOUS
 10
4.016760
 20
6.092680
  0
VERTEX
  8
0
  6
CONTINUOUS
 10
4.019840
 20
5.350400
  0
VERTEX
  8
0
  6
CONTINUOUS
 10
4.015440
 20
5.388680
  0
SEQEND
  8
0
  0
SOLID
  8
0
 62
    15
 10
4.019840
 20
5.350400
 11
4.016760
 21
6.092680
 12
4.024680
 22
5.314760
 13
4.021600
 23
6.057480
  0
POLYLINE
  8
0
  6
CONTINUOUS
 66
     1
 40
0.000000
 41
0.000000
  0
VERTEX
  8
0
  6
CONTINUOUS
 10
4.019840
 20
5.350400
  0
VERTEX
  8
0
  6
CONTINUOUS
 10
4.016760
 20
6.092680
  0
VERTEX
  8
0
  6
CONTINUOUS
 10
4.021600
 20
6.057480
  0
VERTEX
  8
0
  6
CONTINUOUS
 10
4.024680
 20
5.314760
  0
VERTEX
  8
0
  6
CONTINUOUS
 10
4.019840
 20
5.350400
  0
SEQEND
  8
0
  0
SOLID
  8
0
 62
    15
 10
4.024680
 20
5.314760
 11
4.021600
 21
6.057480
 12
4.033040
 22
5.287040
 13
4.029960
 23
6.029760
  0
POLYLINE
  8
0
  6
CONTINUOUS
 66
     1
 40
0.000000
 41
0.000000
  0
VERTEX
  8
0
  6
CONTINUOUS
 10
4.024680
 20
5.314760
  0
VERTEX
  8
0
  6
CONTINUOUS
 10
4.021600
 20
6.057480
  0
VERTEX
  8
0
  6
CONTINUOUS
 10
4.029960
 20
6.029760
  0
VERTEX
  8
0
  6
CONTINUOUS
 10
4.033040
 20
5.287040
  0
VERTEX
  8
0
  6
CONTINUOUS
 10
4.024680
 20
5.314760
  0
SEQEND
  8
0
  0
SOLID
  8
0
 62
    15
 10
4.033040
 20
5.287040
 11
4.029960
 21
6.029760
 12
4.044040
 22
5.265920
 13
4.040520
 23
6.008640
  0
POLYLINE
  8
0
  6
CONTINUOUS
 66
     1
 40
0.000000
 41
0.000000
  0
VERTEX
  8
0
  6
CONTINUOUS
 10
4.033040
 20
5.287040
  0
VERTEX
  8
0
  6
CONTINUOUS
 10
4.029960
 20
6.029760
  0
VERTEX
  8
0
  6
CONTINUOUS
 10
4.040520
 20
6.008640
  0
VERTEX
  8
0
  6
CONTINUOUS
 10
4.044040
 20
5.265920
  0
VERTEX
  8
0
  6
CONTINUOUS
 10
4.033040
 20
5.287040
  0
SEQEND
  8
0
  0
SOLID
  8
0
 62
    15
 10
4.044040
 20
5.265920
 11
4.040520
 21
6.008640
 12
4.056800
 22
5.250960
 13
4.053280
 23
5.993680
  0
POLYLINE
  8
0
  6
CONTINUOUS
 66
     1
 40
0.000000
 41
0.000000
  0
VERTEX
  8
0
  6
CONTINUOUS
 10
4.044040
 20
5.265920
  0
VERTEX
  8
0
  6
CONTINUOUS
 10
4.040520
 20
6.008640
  0
VERTEX
  8
0
  6
CONTINUOUS
 10
4.053280
 20
5.993680
  0
VERTEX
  8
0
  6
CONTINUOUS
 10
4.056800
 20
5.250960
  0
VERTEX
  8
0
  6
CONTINUOUS
 10
4.044040
 20
5.265920
  0
SEQEND
  8
0
  0
SOLID
  8
0
 62
    15
 10
4.056800
 20
5.250960
 11
4.053280
 21
5.993680
 12
4.083640
 22
5.234680
 13
4.080560
 23
5.976960
  0
POLYLINE
  8
0
  6
CONTINUOUS
 66
     1
 40
0.000000
 41
0.000000
  0
VERTEX
  8
0
  6
CONTINUOUS
 10
4.056800
 20
5.250960
  0
VERTEX
  8
0
  6
CONTINUOUS
 10
4.053280
 20
5.993680
  0
VERTEX
  8
0
  6
CONTINUOUS
 10
4.080560
 20
5.976960
  0
VERTEX
  8
0
  6
CONTINUOUS
 10
4.083640
 20
5.234680
  0
VERTEX
  8
0
  6
CONTINUOUS
 10
4.056800
 20
5.250960
  0
SEQEND
  8
0
  0
SOLID
  8
0
 62
    15
 10
4.083640
 20
5.234680
 11
4.080560
 21
5.976960
 12
4.107840
 22
5.229840
 13
4.104320
 23
5.972560
  0
POLYLINE
  8
0
  6
CONTINUOUS
 66
     1
 40
0.000000
 41
0.000000
  0
VERTEX
  8
0
  6
CONTINUOUS
 10
4.083640
 20
5.234680
  0
VERTEX
  8
0
  6
CONTINUOUS
 10
4.080560
 20
5.976960
  0
VERTEX
  8
0
  6
CONTINUOUS
 10
4.104320
 20
5.972560
  0
VERTEX
  8
0
  6
CONTINUOUS
 10
4.107840
 20
5.229840
  0
VERTEX
  8
0
  6
CONTINUOUS
 10
4.083640
 20
5.234680
  0
SEQEND
  8
0
  0
SOLID
  8
0
 62
    15
 10
4.107840
 20
5.229840
 11
4.104320
 21
5.972560
 12
4.168120
 22
5.229840
 13
4.164600
 23
5.972560
  0
POLYLINE
  8
0
  6
CONTINUOUS
 66
     1
 40
0.000000
 41
0.000000
  0
VERTEX
  8
0
  6
CONTINUOUS
 10
4.107840
 20
5.229840
  0
VERTEX
  8
0
  6
CONTINUOUS
 10
4.104320
 20
5.972560
  0
VERTEX
  8
0
  6
CONTINUOUS
 10
4.164600
 20
5.972560
  0
VERTEX
  8
0
  6
CONTINUOUS
 10
4.168120
 20
5.229840
  0
VERTEX
  8
0
  6
CONTINUOUS
 10
4.107840
 20
5.229840
  0
SEQEND
  8
0
  0
SOLID
  8
0
 62
    15
 10
4.168120
 20
5.229840
 11
4.164600
 21
5.972560
 12
4.178680
 22
5.126000
 13
4.175160
 23
5.868280
  0
POLYLINE
  8
0
  6
CONTINUOUS
 66
     1
 40
0.000000
 41
0.000000
  0
VERTEX
  8
0
  6
CONTINUOUS
 10
4.168120
 20
5.229840
  0
VERTEX
  8
0
  6
CONTINUOUS
 10
4.164600
 20
5.972560
  0
VERTEX
  8
0
  6
CONTINUOUS
 10
4.175160
 20
5.868280
  0
VERTEX
  8
0
  6
CONTINUOUS
 10
4.178680
 20
5.126000
  0
VERTEX
  8
0
  6
CONTINUOUS
 10
4.168120
 20
5.229840
  0
SEQEND
  8
0
  0
SOLID
  8
0
 62
    15
 10
4.178680
 20
5.126000
 11
4.175160
 21
5.868280
 12
4.179120
 22
5.126000
 13
4.175600
 23
5.868720
  0
POLYLINE
  8
0
  6
CONTINUOUS
 66
     1
 40
0.000000
 41
0.000000
  0
VERTEX
  8
0
  6
CONTINUOUS
 10
4.178680
 20
5.126000
  0
VERTEX
  8
0
  6
CONTINUOUS
 10
4.175160
 20
5.868280
  0
VERTEX
  8
0
  6
CONTINUOUS
 10
4.175600
 20
5.868720
  0
VERTEX
  8
0
  6
CONTINUOUS
 10
4.179120
 20
5.126000
  0
VERTEX
  8
0
  6
CONTINUOUS
 10
4.178680
 20
5.126000
  0
SEQEND
  8
0
  0
SOLID
  8
0
 62
    15
 10
1.696200
 20
5.583160
 11
1.693120
 21
6.325880
 12
3.842080
 22
5.583160
 13
3.838560
 23
6.325880
  0
POLYLINE
  8
0
  6
CONTINUOUS
 66
     1
 40
0.000000
 41
0.000000
  0
VERTEX
  8
0
  6
CONTINUOUS
 10
1.696200
 20
5.583160
  0
VERTEX
  8
0
  6
CONTINUOUS
 10
1.693120
 20
6.325880
  0
VERTEX
  8
0
  6
CONTINUOUS
 10
3.838560
 20
6.325880
  0
VERTEX
  8
0
  6
CONTINUOUS
 10
3.842080
 20
5.583160
  0
VERTEX
  8
0
  6
CONTINUOUS
 10
1.696200
 20
5.583160
  0
SEQEND
  8
0
  0
SOLID
  8
0
 62
    15
 10
5.828240
 20
5.126000
 11
5.824720
 21
5.868720
 12
5.836160
 22
4.977280
 13
5.832640
 23
5.720000
  0
POLYLINE
  8
0
  6
CONTINUOUS
 66
     1
 40
0.000000
 41
0.000000
  0
VERTEX
  8
0
  6
CONTINUOUS
 10
5.828240
 20
5.126000
  0
VERTEX
  8
0
  6
CONTINUOUS
 10
5.824720
 20
5.868720
  0
VERTEX
  8
0
  6
CONTINUOUS
 10
5.832640
 20
5.720000
  0
VERTEX
  8
0
  6
CONTINUOUS
 10
5.836160
 20
4.977280
  0
VERTEX
  8
0
  6
CONTINUOUS
 10
5.828240
 20
5.126000
  0
SEQEND
  8
0
  0
SOLID
  8
0
 62
    15
 10
4.179120
 20
5.126000
 11
4.175600
 21
5.868720
 12
5.828240
 22
5.126000
 13
5.824720
 23
5.868720
  0
POLYLINE
  8
0
  6
CONTINUOUS
 66
     1
 40
0.000000
 41
0.000000
  0
VERTEX
  8
0
  6
CONTINUOUS
 10
4.179120
 20
5.126000
  0
VERTEX
  8
0
  6
CONTINUOUS
 10
4.175600
 20
5.868720
  0
VERTEX
  8
0
  6
CONTINUOUS
 10
5.824720
 20
5.868720
  0
VERTEX
  8
0
  6
CONTINUOUS
 10
5.828240
 20
5.126000
  0
VERTEX
  8
0
  6
CONTINUOUS
 10
4.179120
 20
5.126000
  0
SEQEND
  8
0
  0
SOLID
  8
0
 62
    15
 10
5.864760
 20
4.977280
 11
5.861240
 21
5.720000
 12
5.868280
 22
5.011600
 13
5.864760
 23
5.754320
  0
POLYLINE
  8
0
  6
CONTINUOUS
 66
     1
 40
0.000000
 41
0.000000
  0
VERTEX
  8
0
  6
CONTINUOUS
 10
5.864760
 20
4.977280
  0
VERTEX
  8
0
  6
CONTINUOUS
 10
5.861240
 20
5.720000
  0
VERTEX
  8
0
  6
CONTINUOUS
 10
5.864760
 20
5.754320
  0
VERTEX
  8
0
  6
CONTINUOUS
 10
5.868280
 20
5.011600
  0
VERTEX
  8
0
  6
CONTINUOUS
 10
5.864760
 20
4.977280
  0
SEQEND
  8
0
  0
SOLID
  8
0
 62
    15
 10
5.868280
 20
5.011600
 11
5.864760
 21
5.754320
 12
5.878840
 22
5.041080
 13
5.875320
 23
5.783800
  0
POLYLINE
  8
0
  6
CONTINUOUS
 66
     1
 40
0.000000
 41
0.000000
  0
VERTEX
  8
0
  6
CONTINUOUS
 10
5.868280
 20
5.011600
  0
VERTEX
  8
0
  6
CONTINUOUS
 10
5.864760
 20
5.754320
  0
VERTEX
  8
0
  6
CONTINUOUS
 10
5.875320
 20
5.783800
  0
VERTEX
  8
0
  6
CONTINUOUS
 10
5.878840
 20
5.041080
  0
VERTEX
  8
0
  6
CONTINUOUS
 10
5.868280
 20
5.011600
  0
SEQEND
  8
0
  0
SOLID
  8
0
 62
    15
 10
5.878840
 20
5.041080
 11
5.875320
 21
5.783800
 12
5.895120
 22
5.066160
 13
5.891600
 23
5.808880
  0
POLYLINE
  8
0
  6
CONTINUOUS
 66
     1
 40
0.000000
 41
0.000000
  0
VERTEX
  8
0
  6
CONTINUOUS
 10
5.878840
 20
5.041080
  0
VERTEX
  8
0
  6
CONTINUOUS
 10
5.875320
 20
5.783800
  0
VERTEX
  8
0
  6
CONTINUOUS
 10
5.891600
 20
5.808880
  0
VERTEX
  8
0
  6
CONTINUOUS
 10
5.895120
 20
5.066160
  0
VERTEX
  8
0
  6
CONTINUOUS
 10
5.878840
 20
5.041080
  0
SEQEND
  8
0
  0
SOLID
  8
0
 62
    15
 10
5.895120
 20
5.066160
 11
5.891600
 21
5.808880
 12
5.916240
 22
5.086400
 13
5.912720
 23
5.829120
  0
POLYLINE
  8
0
  6
CONTINUOUS
 66
     1
 40
0.000000
 41
0.000000
  0
VERTEX
  8
0
  6
CONTINUOUS
 10
5.895120
 20
5.066160
  0
VERTEX
  8
0
  6
CONTINUOUS
 10
5.891600
 20
5.808880
  0
VERTEX
  8
0
  6
CONTINUOUS
 10
5.912720
 20
5.829120
  0
VERTEX
  8
0
  6
CONTINUOUS
 10
5.916240
 20
5.086400
  0
VERTEX
  8
0
  6
CONTINUOUS
 10
5.895120
 20
5.066160
  0
SEQEND
  8
0
  0
SOLID
  8
0
 62
    15
 10
5.916240
 20
5.086400
 11
5.912720
 21
5.829120
 12
5.941320
 22
5.102240
 13
5.937800
 23
5.844520
  0
POLYLINE
  8
0
  6
CONTINUOUS
 66
     1
 40
0.000000
 41
0.000000
  0
VERTEX
  8
0
  6
CONTINUOUS
 10
5.916240
 20
5.086400
  0
VERTEX
  8
0
  6
CONTINUOUS
 10
5.912720
 20
5.829120
  0
VERTEX
  8
0
  6
CONTINUOUS
 10
5.937800
 20
5.844520
  0
VERTEX
  8
0
  6
CONTINUOUS
 10
5.941320
 20
5.102240
  0
VERTEX
  8
0
  6
CONTINUOUS
 10
5.916240
 20
5.086400
  0
SEQEND
  8
0
  0
SOLID
  8
0
 62
    15
 10
5.941320
 20
5.102240
 11
5.937800
 21
5.844520
 12
5.969040
 22
5.113240
 13
5.965520
 23
5.855520
  0
POLYLINE
  8
0
  6
CONTINUOUS
 66
     1
 40
0.000000
 41
0.000000
  0
VERTEX
  8
0
  6
CONTINUOUS
 10
5.941320
 20
5.102240
  0
VERTEX
  8
0
  6
CONTINUOUS
 10
5.937800
 20
5.844520
  0
VERTEX
  8
0
  6
CONTINUOUS
 10
5.965520
 20
5.855520
  0
VERTEX
  8
0
  6
CONTINUOUS
 10
5.969040
 20
5.113240
  0
VERTEX
  8
0
  6
CONTINUOUS
 10
5.941320
 20
5.102240
  0
SEQEND
  8
0
  0
SOLID
  8
0
 62
    15
 10
5.969040
 20
5.113240
 11
5.965520
 21
5.855520
 12
5.998960
 22
5.119400
 13
5.995440
 23
5.862120
  0
POLYLINE
  8
0
  6
CONTINUOUS
 66
     1
 40
0.000000
 41
0.000000
  0
VERTEX
  8
0
  6
CONTINUOUS
 10
5.969040
 20
5.113240
  0
VERTEX
  8
0
  6
CONTINUOUS
 10
5.965520
 20
5.855520
  0
VERTEX
  8
0
  6
CONTINUOUS
 10
5.995440
 20
5.862120
  0
VERTEX
  8
0
  6
CONTINUOUS
 10
5.998960
 20
5.119400
  0
VERTEX
  8
0
  6
CONTINUOUS
 10
5.969040
 20
5.113240
  0
SEQEND
  8
0
  0
SOLID
  8
0
 62
    15
 10
5.998960
 20
5.119400
 11
5.995440
 21
5.862120
 12
6.029760
 22
5.120720
 13
6.026240
 23
5.863440
  0
POLYLINE
  8
0
  6
CONTINUOUS
 66
     1
 40
0.000000
 41
0.000000
  0
VERTEX
  8
0
  6
CONTINUOUS
 10
5.998960
 20
5.119400
  0
VERTEX
  8
0
  6
CONTINUOUS
 10
5.995440
 20
5.862120
  0
VERTEX
  8
0
  6
CONTINUOUS
 10
6.026240
 20
5.863440
  0
VERTEX
  8
0
  6
CONTINUOUS
 10
6.029760
 20
5.120720
  0
VERTEX
  8
0
  6
CONTINUOUS
 10
5.998960
 20
5.119400
  0
SEQEND
  8
0
  0
SOLID
  8
0
 62
    15
 10
6.029760
 20
5.120720
 11
6.026240
 21
5.863440
 12
6.060120
 22
5.117640
 13
6.056600
 23
5.860360
  0
POLYLINE
  8
0
  6
CONTINUOUS
 66
     1
 40
0.000000
 41
0.000000
  0
VERTEX
  8
0
  6
CONTINUOUS
 10
6.029760
 20
5.120720
  0
VERTEX
  8
0
  6
CONTINUOUS
 10
6.026240
 20
5.863440
  0
VERTEX
  8
0
  6
CONTINUOUS
 10
6.056600
 20
5.860360
  0
VERTEX
  8
0
  6
CONTINUOUS
 10
6.060120
 20
5.117640
  0
VERTEX
  8
0
  6
CONTINUOUS
 10
6.029760
 20
5.120720
  0
SEQEND
  8
0
  0
SOLID
  8
0
 62
    15
 10
6.060120
 20
5.117640
 11
6.056600
 21
5.860360
 12
6.090040
 22
5.109720
 13
6.086520
 23
5.852000
  0
POLYLINE
  8
0
  6
CONTINUOUS
 66
     1
 40
0.000000
 41
0.000000
  0
VERTEX
  8
0
  6
CONTINUOUS
 10
6.060120
 20
5.117640
  0
VERTEX
  8
0
  6
CONTINUOUS
 10
6.056600
 20
5.860360
  0
VERTEX
  8
0
  6
CONTINUOUS
 10
6.086520
 20
5.852000
  0
VERTEX
  8
0
  6
CONTINUOUS
 10
6.090040
 20
5.109720
  0
VERTEX
  8
0
  6
CONTINUOUS
 10
6.060120
 20
5.117640
  0
SEQEND
  8
0
  0
SOLID
  8
0
 62
    15
 10
6.090040
 20
5.109720
 11
6.086520
 21
5.852000
 12
6.117760
 22
5.096520
 13
6.114240
 23
5.839240
  0
POLYLINE
  8
0
  6
CONTINUOUS
 66
     1
 40
0.000000
 41
0.000000
  0
VERTEX
  8
0
  6
CONTINUOUS
 10
6.090040
 20
5.109720
  0
VERTEX
  8
0
  6
CONTINUOUS
 10
6.086520
 20
5.852000
  0
VERTEX
  8
0
  6
CONTINUOUS
 10
6.114240
 20
5.839240
  0
VERTEX
  8
0
  6
CONTINUOUS
 10
6.117760
 20
5.096520
  0
VERTEX
  8
0
  6
CONTINUOUS
 10
6.090040
 20
5.109720
  0
SEQEND
  8
0
  0
SOLID
  8
0
 62
    15
 10
6.117760
 20
5.096520
 11
6.114240
 21
5.839240
 12
6.142840
 22
5.078920
 13
6.139320
 23
5.821640
  0
POLYLINE
  8
0
  6
CONTINUOUS
 66
     1
 40
0.000000
 41
0.000000
  0
VERTEX
  8
0
  6
CONTINUOUS
 10
6.117760
 20
5.096520
  0
VERTEX
  8
0
  6
CONTINUOUS
 10
6.114240
 20
5.839240
  0
VERTEX
  8
0
  6
CONTINUOUS
 10
6.139320
 20
5.821640
  0
VERTEX
  8
0
  6
CONTINUOUS
 10
6.142840
 20
5.078920
  0
VERTEX
  8
0
  6
CONTINUOUS
 10
6.117760
 20
5.096520
  0
SEQEND
  8
0
  0
SOLID
  8
0
 62
    15
 10
6.142840
 20
5.078920
 11
6.139320
 21
5.821640
 12
6.163960
 22
5.056480
 13
6.160440
 23
5.799200
  0
POLYLINE
  8
0
  6
CONTINUOUS
 66
     1
 40
0.000000
 41
0.000000
  0
VERTEX
  8
0
  6
CONTINUOUS
 10
6.142840
 20
5.078920
  0
VERTEX
  8
0
  6
CONTINUOUS
 10
6.139320
 20
5.821640
  0
VERTEX
  8
0
  6
CONTINUOUS
 10
6.160440
 20
5.799200
  0
VERTEX
  8
0
  6
CONTINUOUS
 10
6.163960
 20
5.056480
  0
VERTEX
  8
0
  6
CONTINUOUS
 10
6.142840
 20
5.078920
  0
SEQEND
  8
0
  0
SOLID
  8
0
 62
    15
 10
6.180240
 20
5.028760
 11
6.176720
 21
5.771480
 12
6.190800
 22
4.996640
 13
6.187280
 23
5.739360
  0
POLYLINE
  8
0
  6
CONTINUOUS
 66
     1
 40
0.000000
 41
0.000000
  0
VERTEX
  8
0
  6
CONTINUOUS
 10
6.180240
 20
5.028760
  0
VERTEX
  8
0
  6
CONTINUOUS
 10
6.176720
 20
5.771480
  0
VERTEX
  8
0
  6
CONTINUOUS
 10
6.187280
 20
5.739360
  0
VERTEX
  8
0
  6
CONTINUOUS
 10
6.190800
 20
4.996640
  0
VERTEX
  8
0
  6
CONTINUOUS
 10
6.180240
 20
5.028760
  0
SEQEND
  8
0
  0
SOLID
  8
0
 62
    15
 10
6.163960
 20
5.056480
 11
6.160440
 21
5.799200
 12
6.180240
 22
5.028760
 13
6.176720
 23
5.771480
  0
POLYLINE
  8
0
  6
CONTINUOUS
 66
     1
 40
0.000000
 41
0.000000
  0
VERTEX
  8
0
  6
CONTINUOUS
 10
6.163960
 20
5.056480
  0
VERTEX
  8
0
  6
CONTINUOUS
 10
6.160440
 20
5.799200
  0
VERTEX
  8
0
  6
CONTINUOUS
 10
6.176720
 20
5.771480
  0
VERTEX
  8
0
  6
CONTINUOUS
 10
6.180240
 20
5.028760
  0
VERTEX
  8
0
  6
CONTINUOUS
 10
6.163960
 20
5.056480
  0
SEQEND
  8
0
  0
SOLID
  8
0
 62
    15
 10
6.190800
 20
4.996640
 11
6.187280
 21
5.739360
 12
6.194760
 22
4.959240
 13
6.191240
 23
5.701960
  0
POLYLINE
  8
0
  6
CONTINUOUS
 66
     1
 40
0.000000
 41
0.000000
  0
VERTEX
  8
0
  6
CONTINUOUS
 10
6.190800
 20
4.996640
  0
VERTEX
  8
0
  6
CONTINUOUS
 10
6.187280
 20
5.739360
  0
VERTEX
  8
0
  6
CONTINUOUS
 10
6.191240
 20
5.701960
  0
VERTEX
  8
0
  6
CONTINUOUS
 10
6.194760
 20
4.959240
  0
VERTEX
  8
0
  6
CONTINUOUS
 10
6.190800
 20
4.996640
  0
SEQEND
  8
0
  0
SOLID
  8
0
 62
    15
 10
6.194760
 20
4.959240
 11
6.191240
 21
5.701960
 12
6.196080
 22
4.802600
 13
6.193000
 23
5.544880
  0
POLYLINE
  8
0
  6
CONTINUOUS
 66
     1
 40
0.000000
 41
0.000000
  0
VERTEX
  8
0
  6
CONTINUOUS
 10
6.194760
 20
4.959240
  0
VERTEX
  8
0
  6
CONTINUOUS
 10
6.191240
 20
5.701960
  0
VERTEX
  8
0
  6
CONTINUOUS
 10
6.193000
 20
5.544880
  0
VERTEX
  8
0
  6
CONTINUOUS
 10
6.196080
 20
4.802600
  0
VERTEX
  8
0
  6
CONTINUOUS
 10
6.194760
 20
4.959240
  0
SEQEND
  8
0
  0
POLYLINE
  8
0
  6
CONTINUOUS
 66
     1
 40
0.000000
 41
0.000000
  0
VERTEX
  8
0
  6
CONTINUOUS
 10
6.195640
 20
4.777520
  0
VERTEX
  8
0
  6
CONTINUOUS
 10
1.696200
 20
4.777520
  0
VERTEX
  8
0
  6
CONTINUOUS
 10
1.696200
 20
5.583160
  0
VERTEX
  8
0
  6
CONTINUOUS
 10
3.842080
 20
5.583160
  0
VERTEX
  8
0
  6
CONTINUOUS
 10
3.849560
 20
5.490320
  0
VERTEX
  8
0
  6
CONTINUOUS
 10
3.891360
 20
5.502200
  0
VERTEX
  8
0
  6
CONTINUOUS
 10
3.926120
 20
5.503520
  0
VERTEX
  8
0
  6
CONTINUOUS
 10
3.954720
 20
5.495160
  0
VERTEX
  8
0
  6
CONTINUOUS
 10
3.977160
 20
5.478000
  0
VERTEX
  8
0
  6
CONTINUOUS
 10
3.994760
 20
5.453800
  0
VERTEX
  8
0
  6
CONTINUOUS
 10
4.007080
 20
5.423440
  0
VERTEX
  8
0
  6
CONTINUOUS
 10
4.015440
 20
5.388680
  0
VERTEX
  8
0
  6
CONTINUOUS
 10
4.019840
 20
5.350400
  0
VERTEX
  8
0
  6
CONTINUOUS
 10
4.024680
 20
5.314760
  0
VERTEX
  8
0
  6
CONTINUOUS
 10
4.033040
 20
5.287040
  0
VERTEX
  8
0
  6
CONTINUOUS
 10
4.044040
 20
5.265920
  0
VERTEX
  8
0
  6
CONTINUOUS
 10
4.056800
 20
5.250960
  0
VERTEX
  8
0
  6
CONTINUOUS
 10
4.083640
 20
5.234680
  0
VERTEX
  8
0
  6
CONTINUOUS
 10
4.107840
 20
5.229840
  0
VERTEX
  8
0
  6
CONTINUOUS
 10
4.168120
 20
5.229840
  0
VERTEX
  8
0
  6
CONTINUOUS
 10
4.178680
 20
5.126000
  0
VERTEX
  8
0
  6
CONTINUOUS
 10
4.179120
 20
5.126000
  0
VERTEX
  8
0
  6
CONTINUOUS
 10
5.828240
 20
5.126000
  0
VERTEX
  8
0
  6
CONTINUOUS
 10
5.836160
 20
4.977280
  0
VERTEX
  8
0
  6
CONTINUOUS
 10
5.864760
 20
4.977280
  0
VERTEX
  8
0
  6
CONTINUOUS
 10
5.868280
 20
5.011600
  0
VERTEX
  8
0
  6
CONTINUOUS
 10
5.878840
 20
5.041080
  0
VERTEX
  8
0
  6
CONTINUOUS
 10
5.895120
 20
5.066160
  0
VERTEX
  8
0
  6
CONTINUOUS
 10
5.916240
 20
5.086400
  0
VERTEX
  8
0
  6
CONTINUOUS
 10
5.941320
 20
5.102240
  0
VERTEX
  8
0
  6
CONTINUOUS
 10
5.969040
 20
5.113240
  0
VERTEX
  8
0
  6
CONTINUOUS
 10
5.998960
 20
5.119400
  0
VERTEX
  8
0
  6
CONTINUOUS
 10
6.029760
 20
5.120720
  0
VERTEX
  8
0
  6
CONTINUOUS
 10
6.060120
 20
5.117640
  0
VERTEX
  8
0
  6
CONTINUOUS
 10
6.090040
 20
5.109720
  0
VERTEX
  8
0
  6
CONTINUOUS
 10
6.117760
 20
5.096520
  0
VERTEX
  8
0
  6
CONTINUOUS
 10
6.142840
 20
5.078920
  0
VERTEX
  8
0
  6
CONTINUOUS
 10
6.163960
 20
5.056480
  0
VERTEX
  8
0
  6
CONTINUOUS
 10
6.180240
 20
5.028760
  0
VERTEX
  8
0
  6
CONTINUOUS
 10
6.190800
 20
4.996640
  0
VERTEX
  8
0
  6
CONTINUOUS
 10
6.194760
 20
4.959240
  0
VERTEX
  8
0
  6
CONTINUOUS
 10
6.196080
 20
4.802600
  0
VERTEX
  8
0
  6
CONTINUOUS
 10
6.196080
 20
4.777520
  0
VERTEX
  8
0
  6
CONTINUOUS
 10
6.195640
 20
4.777520
  0
SEQEND
  8
0
  0
TEXT
  8
0
 10
3.603160
 20
4.537720
 40
0.138106
  1
BA  1214
 41
1.000000
  7
SN0
 71
     0
 72
     5
 11
4.285934
 21
4.537720
  0
TEXT
  8
0
 10
3.401200
 20
4.345880
 40
0.138106
  1
13/16" x 4-1/2"
 41
1.000000
  7
SN0
 71
     0
 72
     5
 11
4.487152
 21
4.345880
  0
POLYLINE
  8
0
  6
CONTINUOUS
 66
     1
 40
0.014080
 41
0.014080
  0
VERTEX
  8
0
  6
CONTINUOUS
 10
6.224680
 20
6.644880
  0
VERTEX
  8
0
  6
CONTINUOUS
 10
1.725680
 20
6.644880
  0
VERTEX
  8
0
  6
CONTINUOUS
 10
1.725680
 20
7.450520
  0
VERTEX
  8
0
  6
CONTINUOUS
 10
3.871120
 20
7.450520
  0
VERTEX
  8
0
  6
CONTINUOUS
 10
3.878600
 20
7.357680
  0
VERTEX
  8
0
  6
CONTINUOUS
 10
3.910720
 20
7.367800
  0
VERTEX
  8
0
  6
CONTINUOUS
 10
3.929640
 20
7.371320
  0
VERTEX
  8
0
  6
CONTINUOUS
 10
3.955600
 20
7.371320
  0
VERTEX
  8
0
  6
CONTINUOUS
 10
3.970560
 20
7.368240
  0
VERTEX
  8
0
  6
CONTINUOUS
 10
3.989920
 20
7.359000
  0
VERTEX
  8
0
  6
CONTINUOUS
 10
4.006640
 20
7.345800
  0
VERTEX
  8
0
  6
CONTINUOUS
 10
4.015880
 20
7.334360
  0
VERTEX
  8
0
  6
CONTINUOUS
 10
4.023800
 20
7.321600
  0
VERTEX
  8
0
  6
CONTINUOUS
 10
4.036120
 20
7.291240
  0
VERTEX
  8
0
  6
CONTINUOUS
 10
4.044480
 20
7.256040
  0
VERTEX
  8
0
  6
CONTINUOUS
 10
4.053720
 20
7.182120
  0
VERTEX
  8
0
  6
CONTINUOUS
 10
4.062080
 20
7.154400
  0
VERTEX
  8
0
  6
CONTINUOUS
 10
4.073080
 20
7.133720
  0
VERTEX
  8
0
  6
CONTINUOUS
 10
4.085840
 20
7.118320
  0
VERTEX
  8
0
  6
CONTINUOUS
 10
4.106080
 20
7.104680
  0
VERTEX
  8
0
  6
CONTINUOUS
 10
4.125880
 20
7.098520
  0
VERTEX
  8
0
  6
CONTINUOUS
 10
4.136880
 20
7.097200
  0
VERTEX
  8
0
  6
CONTINUOUS
 10
4.197160
 20
7.097200
  0
VERTEX
  8
0
  6
CONTINUOUS
 10
4.208160
 20
6.993360
  0
VERTEX
  8
0
  6
CONTINUOUS
 10
5.857280
 20
6.993360
  0
VERTEX
  8
0
  6
CONTINUOUS
 10
5.865200
 20
6.845080
  0
VERTEX
  8
0
  6
CONTINUOUS
 10
5.893800
 20
6.845080
  0
VERTEX
  8
0
  6
CONTINUOUS
 10
5.894680
 20
6.862680
  0
VERTEX
  8
0
  6
CONTINUOUS
 10
5.897760
 20
6.879400
  0
VERTEX
  8
0
  6
CONTINUOUS
 10
5.907880
 20
6.908880
  0
VERTEX
  8
0
  6
CONTINUOUS
 10
5.924160
 20
6.933520
  0
VERTEX
  8
0
  6
CONTINUOUS
 10
5.934280
 20
6.944520
  0
VERTEX
  8
0
  6
CONTINUOUS
 10
5.957600
 20
6.962560
  0
VERTEX
  8
0
  6
CONTINUOUS
 10
5.984000
 20
6.975760
  0
VERTEX
  8
0
  6
CONTINUOUS
 10
6.013040
 20
6.984120
  0
VERTEX
  8
0
  6
CONTINUOUS
 10
6.043400
 20
6.988080
  0
VERTEX
  8
0
  6
CONTINUOUS
 10
6.074200
 20
6.987200
  0
VERTEX
  8
0
  6
CONTINUOUS
 10
6.104560
 20
6.981480
  0
VERTEX
  8
0
  6
CONTINUOUS
 10
6.133600
 20
6.971360
  0
VERTEX
  8
0
  6
CONTINUOUS
 10
6.160000
 20
6.955960
  0
VERTEX
  8
0
  6
CONTINUOUS
 10
6.183320
 20
6.935720
  0
VERTEX
  8
0
  6
CONTINUOUS
 10
6.193440
 20
6.923840
  0
VERTEX
  8
0
  6
CONTINUOUS
 10
6.209720
 20
6.896560
  0
VERTEX
  8
0
  6
CONTINUOUS
 10
6.219840
 20
6.864000
  0
VERTEX
  8
0
  6
CONTINUOUS
 10
6.222920
 20
6.845960
  0
VERTEX
  8
0
  6
CONTINUOUS
 10
6.225560
 20
6.644880
  0
VERTEX
  8
0
  6
CONTINUOUS
 10
6.224680
 20
6.644880
  0
SEQEND
  8
0
  0
TEXT
  8
0
 10
2.308240
 20
6.943200
 40
0.138106
  1
BA  1214
 41
1.000000
  7
SN0
 71
     0
 72
     5
 11
2.991014
 21
6.943200
  0
TEXT
  8
0
 10
2.106280
 20
6.751800
 40
0.138106
  1
13/16" x 4-1/2"
 41
1.000000
  7
SN0
 71
     0
 72
     5
 11
3.192232
 21
6.751800
  0
POLYLINE
  8
0
  6
CONTINUOUS
 66
     1
 40
0.000000
 41
0.000000
  0
VERTEX
  8
0
  6
CONTINUOUS
 10
1.809720
 20
2.097480
  0
VERTEX
  8
0
  6
CONTINUOUS
 10
6.309160
 20
2.097480
  0
VERTEX
  8
0
  6
CONTINUOUS
 10
6.309160
 20
2.903120
  0
VERTEX
  8
0
  6
CONTINUOUS
 10
4.163720
 20
2.903120
  0
VERTEX
  8
0
  6
CONTINUOUS
 10
4.156240
 20
2.809840
  0
VERTEX
  8
0
  6
CONTINUOUS
 10
4.124120
 20
2.819960
  0
VERTEX
  8
0
  6
CONTINUOUS
 10
4.105200
 20
2.823480
  0
VERTEX
  8
0
  6
CONTINUOUS
 10
4.079240
 20
2.823480
  0
VERTEX
  8
0
  6
CONTINUOUS
 10
4.064280
 20
2.820400
  0
VERTEX
  8
0
  6
CONTINUOUS
 10
4.044920
 20
2.811160
  0
VERTEX
  8
0
  6
CONTINUOUS
 10
4.028200
 20
2.797960
  0
VERTEX
  8
0
  6
CONTINUOUS
 10
4.011040
 20
2.773760
  0
VERTEX
  8
0
  6
CONTINUOUS
 10
3.998280
 20
2.743400
  0
VERTEX
  8
0
  6
CONTINUOUS
 10
3.990360
 20
2.708200
  0
VERTEX
  8
0
  6
CONTINUOUS
 10
3.985520
 20
2.669920
  0
VERTEX
  8
0
  6
CONTINUOUS
 10
3.983760
 20
2.651000
  0
VERTEX
  8
0
  6
CONTINUOUS
 10
3.977160
 20
2.619760
  0
VERTEX
  8
0
  6
CONTINUOUS
 10
3.967480
 20
2.595560
  0
VERTEX
  8
0
  6
CONTINUOUS
 10
3.955600
 20
2.577520
  0
VERTEX
  8
0
  6
CONTINUOUS
 10
3.942400
 20
2.565200
  0
VERTEX
  8
0
  6
CONTINUOUS
 10
3.928760
 20
2.556840
  0
VERTEX
  8
0
  6
CONTINUOUS
 10
3.908960
 20
2.550680
  0
VERTEX
  8
0
  6
CONTINUOUS
 10
3.897960
 20
2.549360
  0
VERTEX
  8
0
  6
CONTINUOUS
 10
3.837240
 20
2.549360
  0
VERTEX
  8
0
  6
CONTINUOUS
 10
3.826680
 20
2.445520
  0
VERTEX
  8
0
  6
CONTINUOUS
 10
2.177560
 20
2.445520
  0
VERTEX
  8
0
  6
CONTINUOUS
 10
2.169640
 20
2.297240
  0
VERTEX
  8
0
  6
CONTINUOUS
 10
2.141040
 20
2.297240
  0
VERTEX
  8
0
  6
CONTINUOUS
 10
2.140160
 20
2.314840
  0
VERTEX
  8
0
  6
CONTINUOUS
 10
2.137080
 20
2.331560
  0
VERTEX
  8
0
  6
CONTINUOUS
 10
2.126960
 20
2.361040
  0
VERTEX
  8
0
  6
CONTINUOUS
 10
2.110680
 20
2.385680
  0
VERTEX
  8
0
  6
CONTINUOUS
 10
2.100560
 20
2.396680
  0
VERTEX
  8
0
  6
CONTINUOUS
 10
2.077240
 20
2.414720
  0
VERTEX
  8
0
  6
CONTINUOUS
 10
2.050840
 20
2.427920
  0
VERTEX
  8
0
  6
CONTINUOUS
 10
2.021800
 20
2.436280
  0
VERTEX
  8
0
  6
CONTINUOUS
 10
1.991440
 20
2.440240
  0
VERTEX
  8
0
  6
CONTINUOUS
 10
1.960640
 20
2.439360
  0
VERTEX
  8
0
  6
CONTINUOUS
 10
1.930280
 20
2.433640
  0
VERTEX
  8
0
  6
CONTINUOUS
 10
1.901240
 20
2.423520
  0
VERTEX
  8
0
  6
CONTINUOUS
 10
1.874840
 20
2.408120
  0
VERTEX
  8
0
  6
CONTINUOUS
 10
1.851520
 20
2.387880
  0
VERTEX
  8
0
  6
CONTINUOUS
 10
1.832600
 20
2.362800
  0
VERTEX
  8
0
  6
CONTINUOUS
 10
1.825120
 20
2.348720
  0
VERTEX
  8
0
  6
CONTINUOUS
 10
1.815000
 20
2.316160
  0
VERTEX
  8
0
  6
CONTINUOUS
 10
1.811920
 20
2.298120
  0
VERTEX
  8
0
  6
CONTINUOUS
 10
1.809280
 20
2.097480
  0
VERTEX
  8
0
  6
CONTINUOUS
 10
1.809720
 20
2.097480
  0
SEQEND
  8
0
  0
POLYLINE
  8
0
  6
CONTINUOUS
 66
     1
 40
0.000000
 41
0.000000
  0
VERTEX
  8
0
  6
CONTINUOUS
 10
6.342160
 20
3.204960
  0
VERTEX
  8
0
  6
CONTINUOUS
 10
1.843160
 20
3.204960
  0
VERTEX
  8
0
  6
CONTINUOUS
 10
1.843160
 20
4.010600
  0
VERTEX
  8
0
  6
CONTINUOUS
 10
3.988600
 20
4.010600
  0
VERTEX
  8
0
  6
CONTINUOUS
 10
3.996080
 20
3.917320
  0
VERTEX
  8
0
  6
CONTINUOUS
 10
4.028200
 20
3.927440
  0
VERTEX
  8
0
  6
CONTINUOUS
 10
4.047120
 20
3.930960
  0
VERTEX
  8
0
  6
CONTINUOUS
 10
4.073080
 20
3.930960
  0
VERTEX
  8
0
  6
CONTINUOUS
 10
4.088040
 20
3.927880
  0
VERTEX
  8
0
  6
CONTINUOUS
 10
4.107400
 20
3.918640
  0
VERTEX
  8
0
  6
CONTINUOUS
 10
4.124120
 20
3.905440
  0
VERTEX
  8
0
  6
CONTINUOUS
 10
4.133360
 20
3.894000
  0
VERTEX
  8
0
  6
CONTINUOUS
 10
4.141280
 20
3.881240
  0
VERTEX
  8
0
  6
CONTINUOUS
 10
4.153600
 20
3.850880
  0
VERTEX
  8
0
  6
CONTINUOUS
 10
4.161960
 20
3.815680
  0
VERTEX
  8
0
  6
CONTINUOUS
 10
4.171200
 20
3.741760
  0
VERTEX
  8
0
  6
CONTINUOUS
 10
4.179560
 20
3.714040
  0
VERTEX
  8
0
  6
CONTINUOUS
 10
4.190560
 20
3.693360
  0
VERTEX
  8
0
  6
CONTINUOUS
 10
4.203320
 20
3.678400
  0
VERTEX
  8
0
  6
CONTINUOUS
 10
4.216960
 20
3.668280
  0
VERTEX
  8
0
  6
CONTINUOUS
 10
4.236760
 20
3.659920
  0
VERTEX
  8
0
  6
CONTINUOUS
 10
4.254360
 20
3.657280
  0
VERTEX
  8
0
  6
CONTINUOUS
 10
4.314640
 20
3.657280
  0
VERTEX
  8
0
  6
CONTINUOUS
 10
4.325200
 20
3.553000
  0
VERTEX
  8
0
  6
CONTINUOUS
 10
5.974760
 20
3.553440
  0
VERTEX
  8
0
  6
CONTINUOUS
 10
5.982680
 20
3.404720
  0
VERTEX
  8
0
  6
CONTINUOUS
 10
6.011280
 20
3.404720
  0
VERTEX
  8
0
  6
CONTINUOUS
 10
6.012160
 20
3.422320
  0
VERTEX
  8
0
  6
CONTINUOUS
 10
6.015240
 20
3.439040
  0
VERTEX
  8
0
  6
CONTINUOUS
 10
6.025360
 20
3.468520
  0
VERTEX
  8
0
  6
CONTINUOUS
 10
6.041640
 20
3.493160
  0
VERTEX
  8
0
  6
CONTINUOUS
 10
6.051760
 20
3.504160
  0
VERTEX
  8
0
  6
CONTINUOUS
 10
6.075080
 20
3.522200
  0
VERTEX
  8
0
  6
CONTINUOUS
 10
6.101480
 20
3.535400
  0
VERTEX
  8
0
  6
CONTINUOUS
 10
6.130520
 20
3.543760
  0
VERTEX
  8
0
  6
CONTINUOUS
 10
6.160880
 20
3.547720
  0
VERTEX
  8
0
  6
CONTINUOUS
 10
6.176280
 20
3.548160
  0
VERTEX
  8
0
  6
CONTINUOUS
 10
6.206640
 20
3.544640
  0
VERTEX
  8
0
  6
CONTINUOUS
 10
6.222040
 20
3.541560
  0
VERTEX
  8
0
  6
CONTINUOUS
 10
6.250640
 20
3.531000
  0
VERTEX
  8
0
  6
CONTINUOUS
 10
6.277480
 20
3.515600
  0
VERTEX
  8
0
  6
CONTINUOUS
 10
6.300360
 20
3.495800
  0
VERTEX
  8
0
  6
CONTINUOUS
 10
6.310480
 20
3.483920
  0
VERTEX
  8
0
  6
CONTINUOUS
 10
6.319280
 20
3.470720
  0
VERTEX
  8
0
  6
CONTINUOUS
 10
6.332920
 20
3.440800
  0
VERTEX
  8
0
  6
CONTINUOUS
 10
6.337320
 20
3.424080
  0
VERTEX
  8
0
  6
CONTINUOUS
 10
6.340400
 20
3.406040
  0
VERTEX
  8
0
  6
CONTINUOUS
 10
6.342600
 20
3.229600
  0
VERTEX
  8
0
  6
CONTINUOUS
 10
6.342160
 20
3.204960
  0
SEQEND
  8
0
  0
ENDSEC
  0
EOF
