  0
SECTION
  2
HEADER
  9
$ACADVER
  1
AC1006
  9
$EXTMIN
 10
2.951960
 20
0.664400
  9
$EXTMAX
 10
6.826600
 20
4.129840
  9
$LTSCALE
 40
0.044000
  9
$PDMODE
 70
    35
  9
$PDSIZE
 40
0.035200
  0
ENDSEC
  0
SECTION
  2
TABLES
  0
TABLE
  2
LTYPE
 70
     9
  0
LTYPE
  2
CONTINUOUS
 70
    64
  3
Solid line
 72
    65
 73
     0
 40
0.000000
  0
LTYPE
  2
DASHED
 70
    64
  3
__ __ __ __ __ __ __ __ __ __ __ __ __ __ __
 72
    65
 73
     2
 40
0.000330
 49
0.000220
 49
-0.000110
  0
LTYPE
  2
HIDDEN
 70
    64
  3
 _ _ _ _ _ _ _ _ _ _ _ _ _ _ _ _ _ _ _ _ _ _
 72
    65
 73
     2
 40
0.000165
 49
0.000110
 49
-0.000055
  0
LTYPE
  2
CENTER
 70
    64
  3
____ _ ____ _ ____ _ ____ _ ____ _ ____ _ ____
 72
    65
 73
     4
 40
0.000880
 49
0.000550
 49
-0.000110
 49
0.000110
 49
-0.000110
  0
LTYPE
  2
PHANTOM
 70
    64
  3
_____ _ _ _____ _ _ _____ _ _ _____ _ _ ____
 72
    65
 73
     6
 40
0.001100
 49
0.000550
 49
-0.000110
 49
0.000110
 49
-0.000110
 49
0.000110
 49
-0.000110
  0
LTYPE
  2
DOT
 70
    64
  3
...............................................
 72
    65
 73
     2
 40
0.000110
 49
0.000000
 49
-0.000110
  0
LTYPE
  2
DASHDOT
 70
    64
  3
__ . __ . __ . __ . __ . __ . __ . __ . __ . __
 72
    65
 73
     4
 40
0.000440
 49
0.000220
 49
-0.000110
 49
0.000000
 49
-0.000110
  0
LTYPE
  2
BORDER
 70
    64
  3
__ __ . __ __ . __ __ . __ __ . __ __ . __ __
 72
    65
 73
     6
 40
0.000770
 49
0.000220
 49
-0.000110
 49
0.000220
 49
-0.000110
 49
0.000000
 49
-0.000110
  0
LTYPE
  2
DIVIDE
 70
    64
  3
__ . . __ . . __ . . __ . . __ . . __ . . __
 72
    65
 73
     6
 40
0.000550
 49
0.000220
 49
-0.000110
 49
0.000000
 49
-0.000110
 49
0.000000
 49
-0.000110
  0
LTYPE
  2
DOTDOT
 70
    64
  3
 . .  . .  . .  . .  . .  . . 
 72
    65
 73
     5
 40
0.000242
 49
-0.000110
 49
0.000000
 49
-0.000110
 49
0.000000
 49
-0.000110
  0
ENDTAB
  0
TABLE
  2
STYLE
 70
     2
  0
STYLE
 70
     0
  2
SN0
 40
0.000000
 41
0.000440
 50
0.000000
 71
     0
 42
0.000000
  3
ROMAND
  0
STYLE
 70
    68
  2
SV0
 40
0.000000
 41
0.000440
 50
0.000000
 71
     0
 42
0.000000
  3
ROMAND
  0
ENDTAB
  0
TABLE
  2
LAYER
 70
     3
  0
LAYER
  2
FOREGROUND
 70
    64
 62
     7
  6
CONTINUOUS
  0
LAYER
  2
BACKGROUND
 70
    65
 62
    -7
  6
CONTINUOUS
  0
LAYER
  2
0
 70
    64
 62
     7
  6
CONTINUOUS
  0
ENDTAB
  0
ENDSEC
  0
SECTION
  2
ENTITIES
  0
POLYLINE
  8
FOREGROUND
  6
CONTINUOUS
 66
     1
 40
0.000000
 41
0.000000
  0
VERTEX
  8
FOREGROUND
  6
CONTINUOUS
 10
0.000000
 20
4.794240
  0
VERTEX
  8
FOREGROUND
  6
CONTINUOUS
 10
8.499920
 20
4.794240
  0
VERTEX
  8
FOREGROUND
  6
CONTINUOUS
 10
8.499920
 20
-6.205760
  0
VERTEX
  8
FOREGROUND
  6
CONTINUOUS
 10
0.000000
 20
-6.205760
  0
VERTEX
  8
FOREGROUND
  6
CONTINUOUS
 10
0.000000
 20
4.794240
  0
SEQEND
  8
0
  0
POLYLINE
  8
FOREGROUND
  6
CONTINUOUS
 66
     1
 40
0.000000
 41
0.000000
  0
VERTEX
  8
FOREGROUND
  6
CONTINUOUS
 10
0.000000
 20
4.794240
  0
VERTEX
  8
FOREGROUND
  6
CONTINUOUS
 10
8.499920
 20
4.794240
  0
VERTEX
  8
FOREGROUND
  6
CONTINUOUS
 10
8.499920
 20
-6.205760
  0
VERTEX
  8
FOREGROUND
  6
CONTINUOUS
 10
0.000000
 20
-6.205760
  0
VERTEX
  8
FOREGROUND
  6
CONTINUOUS
 10
0.000000
 20
4.794240
  0
SEQEND
  8
0
  0
POLYLINE
  8
0
  6
CONTINUOUS
 66
     1
 40
0.000000
 41
0.000000
  0
VERTEX
  8
0
  6
CONTINUOUS
 10
6.568760
 20
0.680240
  0
VERTEX
  8
0
  6
CONTINUOUS
 10
4.886200
 20
0.680240
  0
VERTEX
  8
0
  6
CONTINUOUS
 10
4.886200
 20
1.549680
  0
VERTEX
  8
0
  6
CONTINUOUS
 10
5.438400
 20
1.549680
  0
VERTEX
  8
0
  6
CONTINUOUS
 10
5.483280
 20
1.335400
  0
VERTEX
  8
0
  6
CONTINUOUS
 10
5.674680
 20
1.338480
  0
VERTEX
  8
0
  6
CONTINUOUS
 10
5.681280
 20
1.300200
  0
VERTEX
  8
0
  6
CONTINUOUS
 10
5.694920
 20
1.244760
  0
VERTEX
  8
0
  6
CONTINUOUS
 10
5.714280
 20
1.191080
  0
VERTEX
  8
0
  6
CONTINUOUS
 10
5.730560
 20
1.156760
  0
VERTEX
  8
0
  6
CONTINUOUS
 10
5.749920
 20
1.123320
  0
VERTEX
  8
0
  6
CONTINUOUS
 10
5.772800
 20
1.091200
  0
VERTEX
  8
0
  6
CONTINUOUS
 10
5.799640
 20
1.060400
  0
VERTEX
  8
0
  6
CONTINUOUS
 10
5.830440
 20
1.030480
  0
VERTEX
  8
0
  6
CONTINUOUS
 10
5.865640
 20
1.002320
  0
VERTEX
  8
0
  6
CONTINUOUS
 10
5.906120
 20
0.975040
  0
VERTEX
  8
0
  6
CONTINUOUS
 10
5.951000
 20
0.949520
  0
VERTEX
  8
0
  6
CONTINUOUS
 10
6.002040
 20
0.925320
  0
VERTEX
  8
0
  6
CONTINUOUS
 10
6.058360
 20
0.902880
  0
VERTEX
  8
0
  6
CONTINUOUS
 10
6.120840
 20
0.881760
  0
VERTEX
  8
0
  6
CONTINUOUS
 10
6.189920
 20
0.862400
  0
VERTEX
  8
0
  6
CONTINUOUS
 10
6.192560
 20
0.890560
  0
VERTEX
  8
0
  6
CONTINUOUS
 10
6.199600
 20
0.914760
  0
VERTEX
  8
0
  6
CONTINUOUS
 10
6.210160
 20
0.935440
  0
VERTEX
  8
0
  6
CONTINUOUS
 10
6.224240
 20
0.952160
  0
VERTEX
  8
0
  6
CONTINUOUS
 10
6.240960
 20
0.965360
  0
VERTEX
  8
0
  6
CONTINUOUS
 10
6.259440
 20
0.974160
  0
VERTEX
  8
0
  6
CONTINUOUS
 10
6.279240
 20
0.979440
  0
VERTEX
  8
0
  6
CONTINUOUS
 10
6.299480
 20
0.980320
  0
VERTEX
  8
0
  6
CONTINUOUS
 10
6.309600
 20
0.979880
  0
VERTEX
  8
0
  6
CONTINUOUS
 10
6.329840
 20
0.975040
  0
VERTEX
  8
0
  6
CONTINUOUS
 10
6.348760
 20
0.966240
  0
VERTEX
  8
0
  6
CONTINUOUS
 10
6.366360
 20
0.953480
  0
VERTEX
  8
0
  6
CONTINUOUS
 10
6.381760
 20
0.936760
  0
VERTEX
  8
0
  6
CONTINUOUS
 10
6.394080
 20
0.916080
  0
VERTEX
  8
0
  6
CONTINUOUS
 10
6.403320
 20
0.891440
  0
VERTEX
  8
0
  6
CONTINUOUS
 10
6.408160
 20
0.862400
  0
VERTEX
  8
0
  6
CONTINUOUS
 10
6.408600
 20
0.846560
  0
VERTEX
  8
0
  6
CONTINUOUS
 10
6.568760
 20
0.846560
  0
VERTEX
  8
0
  6
CONTINUOUS
 10
6.568760
 20
0.680240
  0
SEQEND
  8
0
  0
POLYLINE
  8
0
  6
CONTINUOUS
 66
     1
 40
0.000000
 41
0.000000
  0
VERTEX
  8
0
  6
CONTINUOUS
 10
2.952400
 20
0.664840
  0
VERTEX
  8
0
  6
CONTINUOUS
 10
4.634960
 20
0.664840
  0
VERTEX
  8
0
  6
CONTINUOUS
 10
4.634960
 20
1.533840
  0
VERTEX
  8
0
  6
CONTINUOUS
 10
4.083200
 20
1.533840
  0
VERTEX
  8
0
  6
CONTINUOUS
 10
4.037880
 20
1.320000
  0
VERTEX
  8
0
  6
CONTINUOUS
 10
3.846480
 20
1.322640
  0
VERTEX
  8
0
  6
CONTINUOUS
 10
3.839880
 20
1.284360
  0
VERTEX
  8
0
  6
CONTINUOUS
 10
3.826240
 20
1.228920
  0
VERTEX
  8
0
  6
CONTINUOUS
 10
3.807320
 20
1.175680
  0
VERTEX
  8
0
  6
CONTINUOUS
 10
3.781800
 20
1.124200
  0
VERTEX
  8
0
  6
CONTINUOUS
 10
3.748800
 20
1.075800
  0
VERTEX
  8
0
  6
CONTINUOUS
 10
3.721960
 20
1.044560
  0
VERTEX
  8
0
  6
CONTINUOUS
 10
3.674000
 20
1.000560
  0
VERTEX
  8
0
  6
CONTINUOUS
 10
3.636160
 20
0.972840
  0
VERTEX
  8
0
  6
CONTINUOUS
 10
3.593480
 20
0.946440
  0
VERTEX
  8
0
  6
CONTINUOUS
 10
3.519560
 20
0.909920
  0
VERTEX
  8
0
  6
CONTINUOUS
 10
3.432440
 20
0.876480
  0
VERTEX
  8
0
  6
CONTINUOUS
 10
3.366440
 20
0.856240
  0
VERTEX
  8
0
  6
CONTINUOUS
 10
3.331240
 20
0.847000
  0
VERTEX
  8
0
  6
CONTINUOUS
 10
3.330800
 20
0.861520
  0
VERTEX
  8
0
  6
CONTINUOUS
 10
3.325960
 20
0.887920
  0
VERTEX
  8
0
  6
CONTINUOUS
 10
3.316720
 20
0.910360
  0
VERTEX
  8
0
  6
CONTINUOUS
 10
3.304400
 20
0.928840
  0
VERTEX
  8
0
  6
CONTINUOUS
 10
3.289000
 20
0.943800
  0
VERTEX
  8
0
  6
CONTINUOUS
 10
3.271400
 20
0.954800
  0
VERTEX
  8
0
  6
CONTINUOUS
 10
3.252480
 20
0.961840
  0
VERTEX
  8
0
  6
CONTINUOUS
 10
3.232240
 20
0.964920
  0
VERTEX
  8
0
  6
CONTINUOUS
 10
3.212000
 20
0.964040
  0
VERTEX
  8
0
  6
CONTINUOUS
 10
3.191760
 20
0.959640
  0
VERTEX
  8
0
  6
CONTINUOUS
 10
3.172840
 20
0.950840
  0
VERTEX
  8
0
  6
CONTINUOUS
 10
3.155240
 20
0.938080
  0
VERTEX
  8
0
  6
CONTINUOUS
 10
3.139840
 20
0.921360
  0
VERTEX
  8
0
  6
CONTINUOUS
 10
3.127520
 20
0.900680
  0
VERTEX
  8
0
  6
CONTINUOUS
 10
3.118280
 20
0.875600
  0
VERTEX
  8
0
  6
CONTINUOUS
 10
3.113440
 20
0.846560
  0
VERTEX
  8
0
  6
CONTINUOUS
 10
3.113000
 20
0.830720
  0
VERTEX
  8
0
  6
CONTINUOUS
 10
2.952400
 20
0.830720
  0
VERTEX
  8
0
  6
CONTINUOUS
 10
2.952400
 20
0.664840
  0
SEQEND
  8
0
  0
POLYLINE
  8
0
  6
CONTINUOUS
 66
     1
 40
0.014080
 41
0.014080
  0
VERTEX
  8
0
  6
CONTINUOUS
 10
6.819120
 20
3.002560
  0
VERTEX
  8
0
  6
CONTINUOUS
 10
5.136560
 20
3.002560
  0
VERTEX
  8
0
  6
CONTINUOUS
 10
5.136560
 20
3.871560
  0
VERTEX
  8
0
  6
CONTINUOUS
 10
5.688760
 20
3.871560
  0
VERTEX
  8
0
  6
CONTINUOUS
 10
5.733640
 20
3.657720
  0
VERTEX
  8
0
  6
CONTINUOUS
 10
5.925040
 20
3.660360
  0
VERTEX
  8
0
  6
CONTINUOUS
 10
5.931640
 20
3.622080
  0
VERTEX
  8
0
  6
CONTINUOUS
 10
5.945280
 20
3.566640
  0
VERTEX
  8
0
  6
CONTINUOUS
 10
5.964640
 20
3.512960
  0
VERTEX
  8
0
  6
CONTINUOUS
 10
5.980920
 20
3.478640
  0
VERTEX
  8
0
  6
CONTINUOUS
 10
6.011280
 20
3.429360
  0
VERTEX
  8
0
  6
CONTINUOUS
 10
6.035920
 20
3.397680
  0
VERTEX
  8
0
  6
CONTINUOUS
 10
6.080800
 20
3.352360
  0
VERTEX
  8
0
  6
CONTINUOUS
 10
6.116000
 20
3.324200
  0
VERTEX
  8
0
  6
CONTINUOUS
 10
6.156480
 20
3.296920
  0
VERTEX
  8
0
  6
CONTINUOUS
 10
6.201360
 20
3.271400
  0
VERTEX
  8
0
  6
CONTINUOUS
 10
6.252400
 20
3.247640
  0
VERTEX
  8
0
  6
CONTINUOUS
 10
6.308720
 20
3.224760
  0
VERTEX
  8
0
  6
CONTINUOUS
 10
6.405080
 20
3.193960
  0
VERTEX
  8
0
  6
CONTINUOUS
 10
6.440280
 20
3.184720
  0
VERTEX
  8
0
  6
CONTINUOUS
 10
6.442920
 20
3.212880
  0
VERTEX
  8
0
  6
CONTINUOUS
 10
6.449960
 20
3.237080
  0
VERTEX
  8
0
  6
CONTINUOUS
 10
6.460520
 20
3.257760
  0
VERTEX
  8
0
  6
CONTINUOUS
 10
6.474600
 20
3.274480
  0
VERTEX
  8
0
  6
CONTINUOUS
 10
6.491320
 20
3.287240
  0
VERTEX
  8
0
  6
CONTINUOUS
 10
6.509800
 20
3.296040
  0
VERTEX
  8
0
  6
CONTINUOUS
 10
6.529600
 20
3.301320
  0
VERTEX
  8
0
  6
CONTINUOUS
 10
6.549840
 20
3.302640
  0
VERTEX
  8
0
  6
CONTINUOUS
 10
6.570080
 20
3.299560
  0
VERTEX
  8
0
  6
CONTINUOUS
 10
6.589880
 20
3.292960
  0
VERTEX
  8
0
  6
CONTINUOUS
 10
6.608360
 20
3.282400
  0
VERTEX
  8
0
  6
CONTINUOUS
 10
6.624640
 20
3.267880
  0
VERTEX
  8
0
  6
CONTINUOUS
 10
6.638720
 20
3.248960
  0
VERTEX
  8
0
  6
CONTINUOUS
 10
6.649720
 20
3.226080
  0
VERTEX
  8
0
  6
CONTINUOUS
 10
6.653680
 20
3.213320
  0
VERTEX
  8
0
  6
CONTINUOUS
 10
6.658520
 20
3.184280
  0
VERTEX
  8
0
  6
CONTINUOUS
 10
6.658960
 20
3.168440
  0
VERTEX
  8
0
  6
CONTINUOUS
 10
6.819120
 20
3.168440
  0
VERTEX
  8
0
  6
CONTINUOUS
 10
6.819120
 20
3.002560
  0
SEQEND
  8
0
  0
SOLID
  8
0
 62
    15
 10
4.405720
 20
2.723160
 11
4.404840
 21
3.461480
 12
4.474360
 22
2.703800
 13
4.473920
 23
3.442120
  0
POLYLINE
  8
0
  6
CONTINUOUS
 66
     1
 40
0.000000
 41
0.000000
  0
VERTEX
  8
0
  6
CONTINUOUS
 10
4.405720
 20
2.723160
  0
VERTEX
  8
0
  6
CONTINUOUS
 10
4.404840
 20
3.461480
  0
VERTEX
  8
0
  6
CONTINUOUS
 10
4.473920
 20
3.442120
  0
VERTEX
  8
0
  6
CONTINUOUS
 10
4.474360
 20
2.703800
  0
VERTEX
  8
0
  6
CONTINUOUS
 10
4.405720
 20
2.723160
  0
SEQEND
  8
0
  0
SOLID
  8
0
 62
    15
 10
3.170640
 20
2.521640
 11
3.170200
 21
3.259960
 12
3.170640
 22
3.390640
 13
3.170200
 23
4.128960
  0
POLYLINE
  8
0
  6
CONTINUOUS
 66
     1
 40
0.000000
 41
0.000000
  0
VERTEX
  8
0
  6
CONTINUOUS
 10
3.170640
 20
2.521640
  0
VERTEX
  8
0
  6
CONTINUOUS
 10
3.170200
 20
3.259960
  0
VERTEX
  8
0
  6
CONTINUOUS
 10
3.170200
 20
4.128960
  0
VERTEX
  8
0
  6
CONTINUOUS
 10
3.170640
 20
3.390640
  0
VERTEX
  8
0
  6
CONTINUOUS
 10
3.170640
 20
2.521640
  0
SEQEND
  8
0
  0
SOLID
  8
0
 62
    15
 10
3.722840
 20
3.390640
 11
3.721960
 21
4.128960
 12
3.767720
 22
3.176800
 13
3.766840
 23
3.915120
  0
POLYLINE
  8
0
  6
CONTINUOUS
 66
     1
 40
0.000000
 41
0.000000
  0
VERTEX
  8
0
  6
CONTINUOUS
 10
3.722840
 20
3.390640
  0
VERTEX
  8
0
  6
CONTINUOUS
 10
3.721960
 20
4.128960
  0
VERTEX
  8
0
  6
CONTINUOUS
 10
3.766840
 20
3.915120
  0
VERTEX
  8
0
  6
CONTINUOUS
 10
3.767720
 20
3.176800
  0
VERTEX
  8
0
  6
CONTINUOUS
 10
3.722840
 20
3.390640
  0
SEQEND
  8
0
  0
SOLID
  8
0
 62
    15
 10
3.767720
 20
3.176800
 11
3.766840
 21
3.915120
 12
3.959120
 22
3.179440
 13
3.958680
 23
3.917760
  0
POLYLINE
  8
0
  6
CONTINUOUS
 66
     1
 40
0.000000
 41
0.000000
  0
VERTEX
  8
0
  6
CONTINUOUS
 10
3.767720
 20
3.176800
  0
VERTEX
  8
0
  6
CONTINUOUS
 10
3.766840
 20
3.915120
  0
VERTEX
  8
0
  6
CONTINUOUS
 10
3.958680
 20
3.917760
  0
VERTEX
  8
0
  6
CONTINUOUS
 10
3.959120
 20
3.179440
  0
VERTEX
  8
0
  6
CONTINUOUS
 10
3.767720
 20
3.176800
  0
SEQEND
  8
0
  0
SOLID
  8
0
 62
    15
 10
3.959120
 20
3.179440
 11
3.958680
 21
3.917760
 12
3.974520
 22
3.104200
 13
3.973640
 23
3.842520
  0
POLYLINE
  8
0
  6
CONTINUOUS
 66
     1
 40
0.000000
 41
0.000000
  0
VERTEX
  8
0
  6
CONTINUOUS
 10
3.959120
 20
3.179440
  0
VERTEX
  8
0
  6
CONTINUOUS
 10
3.958680
 20
3.917760
  0
VERTEX
  8
0
  6
CONTINUOUS
 10
3.973640
 20
3.842520
  0
VERTEX
  8
0
  6
CONTINUOUS
 10
3.974520
 20
3.104200
  0
VERTEX
  8
0
  6
CONTINUOUS
 10
3.959120
 20
3.179440
  0
SEQEND
  8
0
  0
SOLID
  8
0
 62
    15
 10
3.974520
 20
3.104200
 11
3.973640
 21
3.842520
 12
3.998720
 22
3.032480
 13
3.997840
 23
3.770360
  0
POLYLINE
  8
0
  6
CONTINUOUS
 66
     1
 40
0.000000
 41
0.000000
  0
VERTEX
  8
0
  6
CONTINUOUS
 10
3.974520
 20
3.104200
  0
VERTEX
  8
0
  6
CONTINUOUS
 10
3.973640
 20
3.842520
  0
VERTEX
  8
0
  6
CONTINUOUS
 10
3.997840
 20
3.770360
  0
VERTEX
  8
0
  6
CONTINUOUS
 10
3.998720
 20
3.032480
  0
VERTEX
  8
0
  6
CONTINUOUS
 10
3.974520
 20
3.104200
  0
SEQEND
  8
0
  0
SOLID
  8
0
 62
    15
 10
3.998720
 20
3.032480
 11
3.997840
 21
3.770360
 12
4.034360
 22
2.964720
 13
4.033480
 23
3.703040
  0
POLYLINE
  8
0
  6
CONTINUOUS
 66
     1
 40
0.000000
 41
0.000000
  0
VERTEX
  8
0
  6
CONTINUOUS
 10
3.998720
 20
3.032480
  0
VERTEX
  8
0
  6
CONTINUOUS
 10
3.997840
 20
3.770360
  0
VERTEX
  8
0
  6
CONTINUOUS
 10
4.033480
 20
3.703040
  0
VERTEX
  8
0
  6
CONTINUOUS
 10
4.034360
 20
2.964720
  0
VERTEX
  8
0
  6
CONTINUOUS
 10
3.998720
 20
3.032480
  0
SEQEND
  8
0
  0
SOLID
  8
0
 62
    15
 10
4.034360
 20
2.964720
 11
4.033480
 21
3.703040
 12
4.057240
 22
2.932600
 13
4.056360
 23
3.670920
  0
POLYLINE
  8
0
  6
CONTINUOUS
 66
     1
 40
0.000000
 41
0.000000
  0
VERTEX
  8
0
  6
CONTINUOUS
 10
4.034360
 20
2.964720
  0
VERTEX
  8
0
  6
CONTINUOUS
 10
4.033480
 20
3.703040
  0
VERTEX
  8
0
  6
CONTINUOUS
 10
4.056360
 20
3.670920
  0
VERTEX
  8
0
  6
CONTINUOUS
 10
4.057240
 20
2.932600
  0
VERTEX
  8
0
  6
CONTINUOUS
 10
4.034360
 20
2.964720
  0
SEQEND
  8
0
  0
SOLID
  8
0
 62
    15
 10
4.057240
 20
2.932600
 11
4.056360
 21
3.670920
 12
4.083640
 22
2.901800
 13
4.083200
 23
3.639680
  0
POLYLINE
  8
0
  6
CONTINUOUS
 66
     1
 40
0.000000
 41
0.000000
  0
VERTEX
  8
0
  6
CONTINUOUS
 10
4.057240
 20
2.932600
  0
VERTEX
  8
0
  6
CONTINUOUS
 10
4.056360
 20
3.670920
  0
VERTEX
  8
0
  6
CONTINUOUS
 10
4.083200
 20
3.639680
  0
VERTEX
  8
0
  6
CONTINUOUS
 10
4.083640
 20
2.901800
  0
VERTEX
  8
0
  6
CONTINUOUS
 10
4.057240
 20
2.932600
  0
SEQEND
  8
0
  0
SOLID
  8
0
 62
    15
 10
4.083640
 20
2.901800
 11
4.083200
 21
3.639680
 12
4.114880
 22
2.871880
 13
4.114000
 23
3.610200
  0
POLYLINE
  8
0
  6
CONTINUOUS
 66
     1
 40
0.000000
 41
0.000000
  0
VERTEX
  8
0
  6
CONTINUOUS
 10
4.083640
 20
2.901800
  0
VERTEX
  8
0
  6
CONTINUOUS
 10
4.083200
 20
3.639680
  0
VERTEX
  8
0
  6
CONTINUOUS
 10
4.114000
 20
3.610200
  0
VERTEX
  8
0
  6
CONTINUOUS
 10
4.114880
 20
2.871880
  0
VERTEX
  8
0
  6
CONTINUOUS
 10
4.083640
 20
2.901800
  0
SEQEND
  8
0
  0
SOLID
  8
0
 62
    15
 10
4.114880
 20
2.871880
 11
4.114000
 21
3.610200
 12
4.150080
 22
2.843280
 13
4.149200
 23
3.581600
  0
POLYLINE
  8
0
  6
CONTINUOUS
 66
     1
 40
0.000000
 41
0.000000
  0
VERTEX
  8
0
  6
CONTINUOUS
 10
4.114880
 20
2.871880
  0
VERTEX
  8
0
  6
CONTINUOUS
 10
4.114000
 20
3.610200
  0
VERTEX
  8
0
  6
CONTINUOUS
 10
4.149200
 20
3.581600
  0
VERTEX
  8
0
  6
CONTINUOUS
 10
4.150080
 20
2.843280
  0
VERTEX
  8
0
  6
CONTINUOUS
 10
4.114880
 20
2.871880
  0
SEQEND
  8
0
  0
SOLID
  8
0
 62
    15
 10
4.150080
 20
2.843280
 11
4.149200
 21
3.581600
 12
4.190120
 22
2.816440
 13
4.189680
 23
3.554760
  0
POLYLINE
  8
0
  6
CONTINUOUS
 66
     1
 40
0.000000
 41
0.000000
  0
VERTEX
  8
0
  6
CONTINUOUS
 10
4.150080
 20
2.843280
  0
VERTEX
  8
0
  6
CONTINUOUS
 10
4.149200
 20
3.581600
  0
VERTEX
  8
0
  6
CONTINUOUS
 10
4.189680
 20
3.554760
  0
VERTEX
  8
0
  6
CONTINUOUS
 10
4.190120
 20
2.816440
  0
VERTEX
  8
0
  6
CONTINUOUS
 10
4.150080
 20
2.843280
  0
SEQEND
  8
0
  0
SOLID
  8
0
 62
    15
 10
4.190120
 20
2.816440
 11
4.189680
 21
3.554760
 12
4.235440
 22
2.790920
 13
4.235000
 23
3.528800
  0
POLYLINE
  8
0
  6
CONTINUOUS
 66
     1
 40
0.000000
 41
0.000000
  0
VERTEX
  8
0
  6
CONTINUOUS
 10
4.190120
 20
2.816440
  0
VERTEX
  8
0
  6
CONTINUOUS
 10
4.189680
 20
3.554760
  0
VERTEX
  8
0
  6
CONTINUOUS
 10
4.235000
 20
3.528800
  0
VERTEX
  8
0
  6
CONTINUOUS
 10
4.235440
 20
2.790920
  0
VERTEX
  8
0
  6
CONTINUOUS
 10
4.190120
 20
2.816440
  0
SEQEND
  8
0
  0
SOLID
  8
0
 62
    15
 10
4.235440
 20
2.790920
 11
4.235000
 21
3.528800
 12
4.286480
 22
2.766720
 13
4.285600
 23
3.505040
  0
POLYLINE
  8
0
  6
CONTINUOUS
 66
     1
 40
0.000000
 41
0.000000
  0
VERTEX
  8
0
  6
CONTINUOUS
 10
4.235440
 20
2.790920
  0
VERTEX
  8
0
  6
CONTINUOUS
 10
4.235000
 20
3.528800
  0
VERTEX
  8
0
  6
CONTINUOUS
 10
4.285600
 20
3.505040
  0
VERTEX
  8
0
  6
CONTINUOUS
 10
4.286480
 20
2.766720
  0
VERTEX
  8
0
  6
CONTINUOUS
 10
4.235440
 20
2.790920
  0
SEQEND
  8
0
  0
SOLID
  8
0
 62
    15
 10
4.286480
 20
2.766720
 11
4.285600
 21
3.505040
 12
4.342800
 22
2.744280
 13
4.341920
 23
3.482160
  0
POLYLINE
  8
0
  6
CONTINUOUS
 66
     1
 40
0.000000
 41
0.000000
  0
VERTEX
  8
0
  6
CONTINUOUS
 10
4.286480
 20
2.766720
  0
VERTEX
  8
0
  6
CONTINUOUS
 10
4.285600
 20
3.505040
  0
VERTEX
  8
0
  6
CONTINUOUS
 10
4.341920
 20
3.482160
  0
VERTEX
  8
0
  6
CONTINUOUS
 10
4.342800
 20
2.744280
  0
VERTEX
  8
0
  6
CONTINUOUS
 10
4.286480
 20
2.766720
  0
SEQEND
  8
0
  0
SOLID
  8
0
 62
    15
 10
4.342800
 20
2.744280
 11
4.341920
 21
3.482160
 12
4.405720
 22
2.723160
 13
4.404840
 23
3.461480
  0
POLYLINE
  8
0
  6
CONTINUOUS
 66
     1
 40
0.000000
 41
0.000000
  0
VERTEX
  8
0
  6
CONTINUOUS
 10
4.342800
 20
2.744280
  0
VERTEX
  8
0
  6
CONTINUOUS
 10
4.341920
 20
3.482160
  0
VERTEX
  8
0
  6
CONTINUOUS
 10
4.404840
 20
3.461480
  0
VERTEX
  8
0
  6
CONTINUOUS
 10
4.405720
 20
2.723160
  0
VERTEX
  8
0
  6
CONTINUOUS
 10
4.342800
 20
2.744280
  0
SEQEND
  8
0
  0
SOLID
  8
0
 62
    15
 10
3.170640
 20
3.390640
 11
3.170200
 21
4.128960
 12
3.722840
 22
3.390640
 13
3.721960
 23
4.128960
  0
POLYLINE
  8
0
  6
CONTINUOUS
 66
     1
 40
0.000000
 41
0.000000
  0
VERTEX
  8
0
  6
CONTINUOUS
 10
3.170640
 20
3.390640
  0
VERTEX
  8
0
  6
CONTINUOUS
 10
3.170200
 20
4.128960
  0
VERTEX
  8
0
  6
CONTINUOUS
 10
3.721960
 20
4.128960
  0
VERTEX
  8
0
  6
CONTINUOUS
 10
3.722840
 20
3.390640
  0
VERTEX
  8
0
  6
CONTINUOUS
 10
3.170640
 20
3.390640
  0
SEQEND
  8
0
  0
SOLID
  8
0
 62
    15
 10
4.474360
 20
2.703800
 11
4.473920
 21
3.442120
 12
4.477000
 22
2.731960
 13
4.476120
 23
3.470280
  0
POLYLINE
  8
0
  6
CONTINUOUS
 66
     1
 40
0.000000
 41
0.000000
  0
VERTEX
  8
0
  6
CONTINUOUS
 10
4.474360
 20
2.703800
  0
VERTEX
  8
0
  6
CONTINUOUS
 10
4.473920
 20
3.442120
  0
VERTEX
  8
0
  6
CONTINUOUS
 10
4.476120
 20
3.470280
  0
VERTEX
  8
0
  6
CONTINUOUS
 10
4.477000
 20
2.731960
  0
VERTEX
  8
0
  6
CONTINUOUS
 10
4.474360
 20
2.703800
  0
SEQEND
  8
0
  0
SOLID
  8
0
 62
    15
 10
4.477000
 20
2.731960
 11
4.476120
 21
3.470280
 12
4.484040
 22
2.756160
 13
4.483160
 23
3.494480
  0
POLYLINE
  8
0
  6
CONTINUOUS
 66
     1
 40
0.000000
 41
0.000000
  0
VERTEX
  8
0
  6
CONTINUOUS
 10
4.477000
 20
2.731960
  0
VERTEX
  8
0
  6
CONTINUOUS
 10
4.476120
 20
3.470280
  0
VERTEX
  8
0
  6
CONTINUOUS
 10
4.483160
 20
3.494480
  0
VERTEX
  8
0
  6
CONTINUOUS
 10
4.484040
 20
2.756160
  0
VERTEX
  8
0
  6
CONTINUOUS
 10
4.477000
 20
2.731960
  0
SEQEND
  8
0
  0
SOLID
  8
0
 62
    15
 10
4.484040
 20
2.756160
 11
4.483160
 21
3.494480
 12
4.494600
 22
2.776840
 13
4.494160
 23
3.515160
  0
POLYLINE
  8
0
  6
CONTINUOUS
 66
     1
 40
0.000000
 41
0.000000
  0
VERTEX
  8
0
  6
CONTINUOUS
 10
4.484040
 20
2.756160
  0
VERTEX
  8
0
  6
CONTINUOUS
 10
4.483160
 20
3.494480
  0
VERTEX
  8
0
  6
CONTINUOUS
 10
4.494160
 20
3.515160
  0
VERTEX
  8
0
  6
CONTINUOUS
 10
4.494600
 20
2.776840
  0
VERTEX
  8
0
  6
CONTINUOUS
 10
4.484040
 20
2.756160
  0
SEQEND
  8
0
  0
SOLID
  8
0
 62
    15
 10
4.494600
 20
2.776840
 11
4.494160
 21
3.515160
 12
4.508680
 22
2.793560
 13
4.507800
 23
3.531880
  0
POLYLINE
  8
0
  6
CONTINUOUS
 66
     1
 40
0.000000
 41
0.000000
  0
VERTEX
  8
0
  6
CONTINUOUS
 10
4.494600
 20
2.776840
  0
VERTEX
  8
0
  6
CONTINUOUS
 10
4.494160
 20
3.515160
  0
VERTEX
  8
0
  6
CONTINUOUS
 10
4.507800
 20
3.531880
  0
VERTEX
  8
0
  6
CONTINUOUS
 10
4.508680
 20
2.793560
  0
VERTEX
  8
0
  6
CONTINUOUS
 10
4.494600
 20
2.776840
  0
SEQEND
  8
0
  0
SOLID
  8
0
 62
    15
 10
4.508680
 20
2.793560
 11
4.507800
 21
3.531880
 12
4.525400
 22
2.806320
 13
4.524520
 23
3.544640
  0
POLYLINE
  8
0
  6
CONTINUOUS
 66
     1
 40
0.000000
 41
0.000000
  0
VERTEX
  8
0
  6
CONTINUOUS
 10
4.508680
 20
2.793560
  0
VERTEX
  8
0
  6
CONTINUOUS
 10
4.507800
 20
3.531880
  0
VERTEX
  8
0
  6
CONTINUOUS
 10
4.524520
 20
3.544640
  0
VERTEX
  8
0
  6
CONTINUOUS
 10
4.525400
 20
2.806320
  0
VERTEX
  8
0
  6
CONTINUOUS
 10
4.508680
 20
2.793560
  0
SEQEND
  8
0
  0
SOLID
  8
0
 62
    15
 10
4.525400
 20
2.806320
 11
4.524520
 21
3.544640
 12
4.543880
 22
2.815560
 13
4.543000
 23
3.553880
  0
POLYLINE
  8
0
  6
CONTINUOUS
 66
     1
 40
0.000000
 41
0.000000
  0
VERTEX
  8
0
  6
CONTINUOUS
 10
4.525400
 20
2.806320
  0
VERTEX
  8
0
  6
CONTINUOUS
 10
4.524520
 20
3.544640
  0
VERTEX
  8
0
  6
CONTINUOUS
 10
4.543000
 20
3.553880
  0
VERTEX
  8
0
  6
CONTINUOUS
 10
4.543880
 20
2.815560
  0
VERTEX
  8
0
  6
CONTINUOUS
 10
4.525400
 20
2.806320
  0
SEQEND
  8
0
  0
SOLID
  8
0
 62
    15
 10
4.543880
 20
2.815560
 11
4.543000
 21
3.553880
 12
4.583920
 22
2.821720
 13
4.583040
 23
3.560040
  0
POLYLINE
  8
0
  6
CONTINUOUS
 66
     1
 40
0.000000
 41
0.000000
  0
VERTEX
  8
0
  6
CONTINUOUS
 10
4.543880
 20
2.815560
  0
VERTEX
  8
0
  6
CONTINUOUS
 10
4.543000
 20
3.553880
  0
VERTEX
  8
0
  6
CONTINUOUS
 10
4.583040
 20
3.560040
  0
VERTEX
  8
0
  6
CONTINUOUS
 10
4.583920
 20
2.821720
  0
VERTEX
  8
0
  6
CONTINUOUS
 10
4.543880
 20
2.815560
  0
SEQEND
  8
0
  0
SOLID
  8
0
 62
    15
 10
4.583920
 20
2.821720
 11
4.583040
 21
3.560040
 12
4.623960
 22
2.812480
 13
4.623080
 23
3.550800
  0
POLYLINE
  8
0
  6
CONTINUOUS
 66
     1
 40
0.000000
 41
0.000000
  0
VERTEX
  8
0
  6
CONTINUOUS
 10
4.583920
 20
2.821720
  0
VERTEX
  8
0
  6
CONTINUOUS
 10
4.583040
 20
3.560040
  0
VERTEX
  8
0
  6
CONTINUOUS
 10
4.623080
 20
3.550800
  0
VERTEX
  8
0
  6
CONTINUOUS
 10
4.623960
 20
2.812480
  0
VERTEX
  8
0
  6
CONTINUOUS
 10
4.583920
 20
2.821720
  0
SEQEND
  8
0
  0
SOLID
  8
0
 62
    15
 10
4.623960
 20
2.812480
 11
4.623080
 21
3.550800
 12
4.642440
 22
2.801920
 13
4.641560
 23
3.539800
  0
POLYLINE
  8
0
  6
CONTINUOUS
 66
     1
 40
0.000000
 41
0.000000
  0
VERTEX
  8
0
  6
CONTINUOUS
 10
4.623960
 20
2.812480
  0
VERTEX
  8
0
  6
CONTINUOUS
 10
4.623080
 20
3.550800
  0
VERTEX
  8
0
  6
CONTINUOUS
 10
4.641560
 20
3.539800
  0
VERTEX
  8
0
  6
CONTINUOUS
 10
4.642440
 20
2.801920
  0
VERTEX
  8
0
  6
CONTINUOUS
 10
4.623960
 20
2.812480
  0
SEQEND
  8
0
  0
SOLID
  8
0
 62
    15
 10
4.642440
 20
2.801920
 11
4.641560
 21
3.539800
 12
4.658720
 22
2.786960
 13
4.658280
 23
3.525280
  0
POLYLINE
  8
0
  6
CONTINUOUS
 66
     1
 40
0.000000
 41
0.000000
  0
VERTEX
  8
0
  6
CONTINUOUS
 10
4.642440
 20
2.801920
  0
VERTEX
  8
0
  6
CONTINUOUS
 10
4.641560
 20
3.539800
  0
VERTEX
  8
0
  6
CONTINUOUS
 10
4.658280
 20
3.525280
  0
VERTEX
  8
0
  6
CONTINUOUS
 10
4.658720
 20
2.786960
  0
VERTEX
  8
0
  6
CONTINUOUS
 10
4.642440
 20
2.801920
  0
SEQEND
  8
0
  0
SOLID
  8
0
 62
    15
 10
4.658720
 20
2.786960
 11
4.658280
 21
3.525280
 12
4.672800
 22
2.768480
 13
4.671920
 23
3.506360
  0
POLYLINE
  8
0
  6
CONTINUOUS
 66
     1
 40
0.000000
 41
0.000000
  0
VERTEX
  8
0
  6
CONTINUOUS
 10
4.658720
 20
2.786960
  0
VERTEX
  8
0
  6
CONTINUOUS
 10
4.658280
 20
3.525280
  0
VERTEX
  8
0
  6
CONTINUOUS
 10
4.671920
 20
3.506360
  0
VERTEX
  8
0
  6
CONTINUOUS
 10
4.672800
 20
2.768480
  0
VERTEX
  8
0
  6
CONTINUOUS
 10
4.658720
 20
2.786960
  0
SEQEND
  8
0
  0
SOLID
  8
0
 62
    15
 10
4.672800
 20
2.768480
 11
4.671920
 21
3.506360
 12
4.683800
 22
2.745600
 13
4.682920
 23
3.483920
  0
POLYLINE
  8
0
  6
CONTINUOUS
 66
     1
 40
0.000000
 41
0.000000
  0
VERTEX
  8
0
  6
CONTINUOUS
 10
4.672800
 20
2.768480
  0
VERTEX
  8
0
  6
CONTINUOUS
 10
4.671920
 20
3.506360
  0
VERTEX
  8
0
  6
CONTINUOUS
 10
4.682920
 20
3.483920
  0
VERTEX
  8
0
  6
CONTINUOUS
 10
4.683800
 20
2.745600
  0
VERTEX
  8
0
  6
CONTINUOUS
 10
4.672800
 20
2.768480
  0
SEQEND
  8
0
  0
SOLID
  8
0
 62
    15
 10
4.683800
 20
2.745600
 11
4.682920
 21
3.483920
 12
4.690400
 22
2.718760
 13
4.689960
 23
3.457080
  0
POLYLINE
  8
0
  6
CONTINUOUS
 66
     1
 40
0.000000
 41
0.000000
  0
VERTEX
  8
0
  6
CONTINUOUS
 10
4.683800
 20
2.745600
  0
VERTEX
  8
0
  6
CONTINUOUS
 10
4.682920
 20
3.483920
  0
VERTEX
  8
0
  6
CONTINUOUS
 10
4.689960
 20
3.457080
  0
VERTEX
  8
0
  6
CONTINUOUS
 10
4.690400
 20
2.718760
  0
VERTEX
  8
0
  6
CONTINUOUS
 10
4.683800
 20
2.745600
  0
SEQEND
  8
0
  0
SOLID
  8
0
 62
    15
 10
4.690400
 20
2.718760
 11
4.689960
 21
3.457080
 12
4.693040
 22
2.687960
 13
4.692160
 23
3.425840
  0
POLYLINE
  8
0
  6
CONTINUOUS
 66
     1
 40
0.000000
 41
0.000000
  0
VERTEX
  8
0
  6
CONTINUOUS
 10
4.690400
 20
2.718760
  0
VERTEX
  8
0
  6
CONTINUOUS
 10
4.689960
 20
3.457080
  0
VERTEX
  8
0
  6
CONTINUOUS
 10
4.692160
 20
3.425840
  0
VERTEX
  8
0
  6
CONTINUOUS
 10
4.693040
 20
2.687960
  0
VERTEX
  8
0
  6
CONTINUOUS
 10
4.690400
 20
2.718760
  0
SEQEND
  8
0
  0
SOLID
  8
0
 62
    15
 10
4.693040
 20
2.687960
 11
4.692160
 21
3.425840
 12
4.853200
 22
2.687960
 13
4.852760
 23
3.425840
  0
POLYLINE
  8
0
  6
CONTINUOUS
 66
     1
 40
0.000000
 41
0.000000
  0
VERTEX
  8
0
  6
CONTINUOUS
 10
4.693040
 20
2.687960
  0
VERTEX
  8
0
  6
CONTINUOUS
 10
4.692160
 20
3.425840
  0
VERTEX
  8
0
  6
CONTINUOUS
 10
4.852760
 20
3.425840
  0
VERTEX
  8
0
  6
CONTINUOUS
 10
4.853200
 20
2.687960
  0
VERTEX
  8
0
  6
CONTINUOUS
 10
4.693040
 20
2.687960
  0
SEQEND
  8
0
  0
POLYLINE
  8
0
  6
CONTINUOUS
 66
     1
 40
0.000000
 41
0.000000
  0
VERTEX
  8
0
  6
CONTINUOUS
 10
4.853200
 20
2.521640
  0
VERTEX
  8
0
  6
CONTINUOUS
 10
3.170640
 20
2.521640
  0
VERTEX
  8
0
  6
CONTINUOUS
 10
3.170640
 20
3.390640
  0
VERTEX
  8
0
  6
CONTINUOUS
 10
3.722840
 20
3.390640
  0
VERTEX
  8
0
  6
CONTINUOUS
 10
3.767720
 20
3.176800
  0
VERTEX
  8
0
  6
CONTINUOUS
 10
3.959120
 20
3.179440
  0
VERTEX
  8
0
  6
CONTINUOUS
 10
3.974520
 20
3.104200
  0
VERTEX
  8
0
  6
CONTINUOUS
 10
3.998720
 20
3.032480
  0
VERTEX
  8
0
  6
CONTINUOUS
 10
4.034360
 20
2.964720
  0
VERTEX
  8
0
  6
CONTINUOUS
 10
4.057240
 20
2.932600
  0
VERTEX
  8
0
  6
CONTINUOUS
 10
4.083640
 20
2.901800
  0
VERTEX
  8
0
  6
CONTINUOUS
 10
4.114880
 20
2.871880
  0
VERTEX
  8
0
  6
CONTINUOUS
 10
4.150080
 20
2.843280
  0
VERTEX
  8
0
  6
CONTINUOUS
 10
4.190120
 20
2.816440
  0
VERTEX
  8
0
  6
CONTINUOUS
 10
4.235440
 20
2.790920
  0
VERTEX
  8
0
  6
CONTINUOUS
 10
4.286480
 20
2.766720
  0
VERTEX
  8
0
  6
CONTINUOUS
 10
4.342800
 20
2.744280
  0
VERTEX
  8
0
  6
CONTINUOUS
 10
4.405720
 20
2.723160
  0
VERTEX
  8
0
  6
CONTINUOUS
 10
4.474360
 20
2.703800
  0
VERTEX
  8
0
  6
CONTINUOUS
 10
4.477000
 20
2.731960
  0
VERTEX
  8
0
  6
CONTINUOUS
 10
4.484040
 20
2.756160
  0
VERTEX
  8
0
  6
CONTINUOUS
 10
4.494600
 20
2.776840
  0
VERTEX
  8
0
  6
CONTINUOUS
 10
4.508680
 20
2.793560
  0
VERTEX
  8
0
  6
CONTINUOUS
 10
4.525400
 20
2.806320
  0
VERTEX
  8
0
  6
CONTINUOUS
 10
4.543880
 20
2.815560
  0
VERTEX
  8
0
  6
CONTINUOUS
 10
4.583920
 20
2.821720
  0
VERTEX
  8
0
  6
CONTINUOUS
 10
4.623960
 20
2.812480
  0
VERTEX
  8
0
  6
CONTINUOUS
 10
4.642440
 20
2.801920
  0
VERTEX
  8
0
  6
CONTINUOUS
 10
4.658720
 20
2.786960
  0
VERTEX
  8
0
  6
CONTINUOUS
 10
4.672800
 20
2.768480
  0
VERTEX
  8
0
  6
CONTINUOUS
 10
4.683800
 20
2.745600
  0
VERTEX
  8
0
  6
CONTINUOUS
 10
4.690400
 20
2.718760
  0
VERTEX
  8
0
  6
CONTINUOUS
 10
4.693040
 20
2.687960
  0
VERTEX
  8
0
  6
CONTINUOUS
 10
4.853200
 20
2.687960
  0
VERTEX
  8
0
  6
CONTINUOUS
 10
4.853200
 20
2.522960
  0
VERTEX
  8
0
  6
CONTINUOUS
 10
4.853200
 20
2.521640
  0
SEQEND
  8
0
  0
TEXT
  8
0
 10
3.670040
 20
2.215400
 40
0.138168
  1
BA  1213
 41
1.000000
  7
SN0
 71
     0
 72
     5
 11
4.352364
 21
2.215400
  0
TEXT
  8
0
 10
3.468080
 20
2.024000
 40
0.138168
  1
7/8" x 1-11/16"
 41
1.000000
  7
SN0
 71
     0
 72
     5
 11
4.552979
 21
2.024000
  0
TEXT
  8
0
 10
5.659720
 20
2.720520
 40
0.138168
  1
BA  1213
 41
1.000000
  7
SN0
 71
     0
 72
     5
 11
6.342044
 21
2.720520
  0
TEXT
  8
0
 10
5.457760
 20
2.528680
 40
0.138168
  1
7/8" x 1-11/16"
 41
1.000000
  7
SN0
 71
     0
 72
     5
 11
6.542659
 21
2.528680
  0
TEXT
  8
0
 10
5.521560
 20
2.093520
 40
0.138168
  1
back band
 41
1.000000
  7
SN0
 71
     0
 72
     5
 11
6.286995
 21
2.093520
  0
ENDSEC
  0
EOF
