  0
SECTION
  2
HEADER
  9
$ACADVER
  1
AC1006
  9
$EXTMIN
 10
2.822600
 20
5.514080
  9
$EXTMAX
 10
6.041200
 20
9.469240
  9
$LTSCALE
 40
0.044000
  9
$PDMODE
 70
    35
  9
$PDSIZE
 40
0.035200
  0
ENDSEC
  0
SECTION
  2
TABLES
  0
TABLE
  2
LTYPE
 70
     9
  0
LTYPE
  2
CONTINUOUS
 70
    64
  3
Solid line
 72
    65
 73
     0
 40
0.000000
  0
LTYPE
  2
DASHED
 70
    64
  3
__ __ __ __ __ __ __ __ __ __ __ __ __ __ __
 72
    65
 73
     2
 40
0.000330
 49
0.000220
 49
-0.000110
  0
LTYPE
  2
HIDDEN
 70
    64
  3
 _ _ _ _ _ _ _ _ _ _ _ _ _ _ _ _ _ _ _ _ _ _
 72
    65
 73
     2
 40
0.000165
 49
0.000110
 49
-0.000055
  0
LTYPE
  2
CENTER
 70
    64
  3
____ _ ____ _ ____ _ ____ _ ____ _ ____ _ ____
 72
    65
 73
     4
 40
0.000880
 49
0.000550
 49
-0.000110
 49
0.000110
 49
-0.000110
  0
LTYPE
  2
PHANTOM
 70
    64
  3
_____ _ _ _____ _ _ _____ _ _ _____ _ _ ____
 72
    65
 73
     6
 40
0.001100
 49
0.000550
 49
-0.000110
 49
0.000110
 49
-0.000110
 49
0.000110
 49
-0.000110
  0
LTYPE
  2
DOT
 70
    64
  3
...............................................
 72
    65
 73
     2
 40
0.000110
 49
0.000000
 49
-0.000110
  0
LTYPE
  2
DASHDOT
 70
    64
  3
__ . __ . __ . __ . __ . __ . __ . __ . __ . __
 72
    65
 73
     4
 40
0.000440
 49
0.000220
 49
-0.000110
 49
0.000000
 49
-0.000110
  0
LTYPE
  2
BORDER
 70
    64
  3
__ __ . __ __ . __ __ . __ __ . __ __ . __ __
 72
    65
 73
     6
 40
0.000770
 49
0.000220
 49
-0.000110
 49
0.000220
 49
-0.000110
 49
0.000000
 49
-0.000110
  0
LTYPE
  2
DIVIDE
 70
    64
  3
__ . . __ . . __ . . __ . . __ . . __ . . __
 72
    65
 73
     6
 40
0.000550
 49
0.000220
 49
-0.000110
 49
0.000000
 49
-0.000110
 49
0.000000
 49
-0.000110
  0
LTYPE
  2
DOTDOT
 70
    64
  3
 . .  . .  . .  . .  . .  . . 
 72
    65
 73
     5
 40
0.000242
 49
-0.000110
 49
0.000000
 49
-0.000110
 49
0.000000
 49
-0.000110
  0
ENDTAB
  0
TABLE
  2
STYLE
 70
     2
  0
STYLE
 70
     0
  2
SN0
 40
0.000000
 41
0.000440
 50
0.000000
 71
     0
 42
0.000000
  3
ROMAND
  0
STYLE
 70
    68
  2
SV0
 40
0.000000
 41
0.000440
 50
0.000000
 71
     0
 42
0.000000
  3
ROMAND
  0
ENDTAB
  0
TABLE
  2
LAYER
 70
     3
  0
LAYER
  2
FOREGROUND
 70
    64
 62
     7
  6
CONTINUOUS
  0
LAYER
  2
BACKGROUND
 70
    65
 62
    -7
  6
CONTINUOUS
  0
LAYER
  2
0
 70
    64
 62
     7
  6
CONTINUOUS
  0
ENDTAB
  0
ENDSEC
  0
SECTION
  2
ENTITIES
  0
POLYLINE
  8
FOREGROUND
  6
CONTINUOUS
 66
     1
 40
0.000000
 41
0.000000
  0
VERTEX
  8
FOREGROUND
  6
CONTINUOUS
 10
0.000000
 20
14.983320
  0
VERTEX
  8
FOREGROUND
  6
CONTINUOUS
 10
8.499920
 20
14.983320
  0
VERTEX
  8
FOREGROUND
  6
CONTINUOUS
 10
8.499920
 20
3.983320
  0
VERTEX
  8
FOREGROUND
  6
CONTINUOUS
 10
0.000000
 20
3.983320
  0
VERTEX
  8
FOREGROUND
  6
CONTINUOUS
 10
0.000000
 20
14.983320
  0
SEQEND
  8
0
  0
POLYLINE
  8
FOREGROUND
  6
CONTINUOUS
 66
     1
 40
0.000000
 41
0.000000
  0
VERTEX
  8
FOREGROUND
  6
CONTINUOUS
 10
0.000000
 20
14.983320
  0
VERTEX
  8
FOREGROUND
  6
CONTINUOUS
 10
8.499920
 20
14.983320
  0
VERTEX
  8
FOREGROUND
  6
CONTINUOUS
 10
8.499920
 20
3.983320
  0
VERTEX
  8
FOREGROUND
  6
CONTINUOUS
 10
0.000000
 20
3.983320
  0
VERTEX
  8
FOREGROUND
  6
CONTINUOUS
 10
0.000000
 20
14.983320
  0
SEQEND
  8
0
  0
TEXT
  8
0
 10
5.088600
 20
7.454920
 40
0.138139
  1
BA  1212
 41
1.000000
  7
SN0
 71
     0
 72
     5
 11
5.770865
 21
7.454920
  0
TEXT
  8
0
 10
4.863760
 20
7.263520
 40
0.138139
  1
13/16" x 1- 3/8"
 41
1.000000
  7
SN0
 71
     0
 72
     5
 11
5.993947
 21
7.263520
  0
POLYLINE
  8
0
  6
CONTINUOUS
 66
     1
 40
0.014080
 41
0.014080
  0
VERTEX
  8
0
  6
CONTINUOUS
 10
4.675880
 20
7.940240
  0
VERTEX
  8
0
  6
CONTINUOUS
 10
4.675880
 20
8.067400
  0
VERTEX
  8
0
  6
CONTINUOUS
 10
4.792040
 20
8.067400
  0
VERTEX
  8
0
  6
CONTINUOUS
 10
4.807880
 20
8.112720
  0
VERTEX
  8
0
  6
CONTINUOUS
 10
4.828120
 20
8.149240
  0
VERTEX
  8
0
  6
CONTINUOUS
 10
4.843520
 20
8.169040
  0
VERTEX
  8
0
  6
CONTINUOUS
 10
4.860240
 20
8.184880
  0
VERTEX
  8
0
  6
CONTINUOUS
 10
4.886640
 20
8.200720
  0
VERTEX
  8
0
  6
CONTINUOUS
 10
4.905120
 20
8.206440
  0
VERTEX
  8
0
  6
CONTINUOUS
 10
4.924040
 20
8.207320
  0
VERTEX
  8
0
  6
CONTINUOUS
 10
4.942520
 20
8.204240
  0
VERTEX
  8
0
  6
CONTINUOUS
 10
4.961000
 20
8.196760
  0
VERTEX
  8
0
  6
CONTINUOUS
 10
4.978600
 20
8.184440
  0
VERTEX
  8
0
  6
CONTINUOUS
 10
4.995760
 20
8.167720
  0
VERTEX
  8
0
  6
CONTINUOUS
 10
5.011600
 20
8.146160
  0
VERTEX
  8
0
  6
CONTINUOUS
 10
5.026120
 20
8.119760
  0
VERTEX
  8
0
  6
CONTINUOUS
 10
5.038880
 20
8.088520
  0
VERTEX
  8
0
  6
CONTINUOUS
 10
5.044600
 20
8.070920
  0
VERTEX
  8
0
  6
CONTINUOUS
 10
5.074520
 20
8.150560
  0
VERTEX
  8
0
  6
CONTINUOUS
 10
5.125120
 20
8.268040
  0
VERTEX
  8
0
  6
CONTINUOUS
 10
5.162080
 20
8.343720
  0
VERTEX
  8
0
  6
CONTINUOUS
 10
5.201240
 20
8.415440
  0
VERTEX
  8
0
  6
CONTINUOUS
 10
5.242600
 20
8.483200
  0
VERTEX
  8
0
  6
CONTINUOUS
 10
5.285280
 20
8.544800
  0
VERTEX
  8
0
  6
CONTINUOUS
 10
5.329720
 20
8.599800
  0
VERTEX
  8
0
  6
CONTINUOUS
 10
5.375040
 20
8.646880
  0
VERTEX
  8
0
  6
CONTINUOUS
 10
5.421680
 20
8.685160
  0
VERTEX
  8
0
  6
CONTINUOUS
 10
5.456880
 20
8.707160
  0
VERTEX
  8
0
  6
CONTINUOUS
 10
5.492520
 20
8.723000
  0
VERTEX
  8
0
  6
CONTINUOUS
 10
5.528160
 20
8.732680
  0
VERTEX
  8
0
  6
CONTINUOUS
 10
5.551920
 20
8.734880
  0
VERTEX
  8
0
  6
CONTINUOUS
 10
5.575680
 20
8.734000
  0
VERTEX
  8
0
  6
CONTINUOUS
 10
5.599440
 20
8.730040
  0
VERTEX
  8
0
  6
CONTINUOUS
 10
5.622760
 20
8.722120
  0
VERTEX
  8
0
  6
CONTINUOUS
 10
5.646520
 20
8.710680
  0
VERTEX
  8
0
  6
CONTINUOUS
 10
5.681280
 20
8.686480
  0
VERTEX
  8
0
  6
CONTINUOUS
 10
5.715600
 20
8.653040
  0
VERTEX
  8
0
  6
CONTINUOUS
 10
5.727040
 20
8.639840
  0
VERTEX
  8
0
  6
CONTINUOUS
 10
5.784680
 20
8.639840
  0
VERTEX
  8
0
  6
CONTINUOUS
 10
5.784680
 20
8.748080
  0
VERTEX
  8
0
  6
CONTINUOUS
 10
6.034160
 20
8.748080
  0
VERTEX
  8
0
  6
CONTINUOUS
 10
6.034160
 20
7.940240
  0
VERTEX
  8
0
  6
CONTINUOUS
 10
4.675880
 20
7.940240
  0
SEQEND
  8
0
  0
TEXT
  8
0
 10
3.211560
 20
7.489240
 40
0.138139
  1
BA  1212
 41
1.000000
  7
SN0
 71
     0
 72
     5
 11
3.893825
 21
7.489240
  0
TEXT
  8
0
 10
2.986720
 20
7.297840
 40
0.138139
  1
13/16" x 1- 3/8"
 41
1.000000
  7
SN0
 71
     0
 72
     5
 11
4.116907
 21
7.297840
  0
SOLID
  8
0
 62
    15
 10
3.112120
 20
8.664480
 11
3.765520
 21
9.036720
 12
3.189120
 22
8.628840
 13
3.842520
 23
9.001080
  0
POLYLINE
  8
0
  6
CONTINUOUS
 66
     1
 40
0.000000
 41
0.000000
  0
VERTEX
  8
0
  6
CONTINUOUS
 10
3.112120
 20
8.664480
  0
VERTEX
  8
0
  6
CONTINUOUS
 10
3.765520
 20
9.036720
  0
VERTEX
  8
0
  6
CONTINUOUS
 10
3.842520
 20
9.001080
  0
VERTEX
  8
0
  6
CONTINUOUS
 10
3.189120
 20
8.628840
  0
VERTEX
  8
0
  6
CONTINUOUS
 10
3.112120
 20
8.664480
  0
SEQEND
  8
0
  0
SOLID
  8
0
 62
    15
 10
2.950640
 20
9.096120
 11
3.604040
 21
9.468800
 12
2.950640
 22
8.979960
 13
3.604040
 23
9.352640
  0
POLYLINE
  8
0
  6
CONTINUOUS
 66
     1
 40
0.000000
 41
0.000000
  0
VERTEX
  8
0
  6
CONTINUOUS
 10
2.950640
 20
9.096120
  0
VERTEX
  8
0
  6
CONTINUOUS
 10
3.604040
 20
9.468800
  0
VERTEX
  8
0
  6
CONTINUOUS
 10
3.604040
 20
9.352640
  0
VERTEX
  8
0
  6
CONTINUOUS
 10
2.950640
 20
8.979960
  0
VERTEX
  8
0
  6
CONTINUOUS
 10
2.950640
 20
9.096120
  0
SEQEND
  8
0
  0
SOLID
  8
0
 62
    15
 10
2.950640
 20
8.979960
 11
3.604040
 21
9.352640
 12
2.981440
 22
8.969840
 13
3.634840
 23
9.342080
  0
POLYLINE
  8
0
  6
CONTINUOUS
 66
     1
 40
0.000000
 41
0.000000
  0
VERTEX
  8
0
  6
CONTINUOUS
 10
2.950640
 20
8.979960
  0
VERTEX
  8
0
  6
CONTINUOUS
 10
3.604040
 20
9.352640
  0
VERTEX
  8
0
  6
CONTINUOUS
 10
3.634840
 20
9.342080
  0
VERTEX
  8
0
  6
CONTINUOUS
 10
2.981440
 20
8.969840
  0
VERTEX
  8
0
  6
CONTINUOUS
 10
2.950640
 20
8.979960
  0
SEQEND
  8
0
  0
SOLID
  8
0
 62
    15
 10
2.981440
 20
8.969840
 11
3.634840
 21
9.342080
 12
3.008720
 22
8.957520
 13
3.662120
 23
9.330200
  0
POLYLINE
  8
0
  6
CONTINUOUS
 66
     1
 40
0.000000
 41
0.000000
  0
VERTEX
  8
0
  6
CONTINUOUS
 10
2.981440
 20
8.969840
  0
VERTEX
  8
0
  6
CONTINUOUS
 10
3.634840
 20
9.342080
  0
VERTEX
  8
0
  6
CONTINUOUS
 10
3.662120
 20
9.330200
  0
VERTEX
  8
0
  6
CONTINUOUS
 10
3.008720
 20
8.957520
  0
VERTEX
  8
0
  6
CONTINUOUS
 10
2.981440
 20
8.969840
  0
SEQEND
  8
0
  0
SOLID
  8
0
 62
    15
 10
3.008720
 20
8.957520
 11
3.662120
 21
9.330200
 12
3.032480
 22
8.943880
 13
3.685880
 23
9.316120
  0
POLYLINE
  8
0
  6
CONTINUOUS
 66
     1
 40
0.000000
 41
0.000000
  0
VERTEX
  8
0
  6
CONTINUOUS
 10
3.008720
 20
8.957520
  0
VERTEX
  8
0
  6
CONTINUOUS
 10
3.662120
 20
9.330200
  0
VERTEX
  8
0
  6
CONTINUOUS
 10
3.685880
 20
9.316120
  0
VERTEX
  8
0
  6
CONTINUOUS
 10
3.032480
 20
8.943880
  0
VERTEX
  8
0
  6
CONTINUOUS
 10
3.008720
 20
8.957520
  0
SEQEND
  8
0
  0
SOLID
  8
0
 62
    15
 10
3.032480
 20
8.943880
 11
3.685880
 21
9.316120
 12
3.052280
 22
8.928480
 13
3.705680
 23
9.300720
  0
POLYLINE
  8
0
  6
CONTINUOUS
 66
     1
 40
0.000000
 41
0.000000
  0
VERTEX
  8
0
  6
CONTINUOUS
 10
3.032480
 20
8.943880
  0
VERTEX
  8
0
  6
CONTINUOUS
 10
3.685880
 20
9.316120
  0
VERTEX
  8
0
  6
CONTINUOUS
 10
3.705680
 20
9.300720
  0
VERTEX
  8
0
  6
CONTINUOUS
 10
3.052280
 20
8.928480
  0
VERTEX
  8
0
  6
CONTINUOUS
 10
3.032480
 20
8.943880
  0
SEQEND
  8
0
  0
SOLID
  8
0
 62
    15
 10
3.052280
 20
8.928480
 11
3.705680
 21
9.300720
 12
3.067680
 22
8.911760
 13
3.721080
 23
9.284440
  0
POLYLINE
  8
0
  6
CONTINUOUS
 66
     1
 40
0.000000
 41
0.000000
  0
VERTEX
  8
0
  6
CONTINUOUS
 10
3.052280
 20
8.928480
  0
VERTEX
  8
0
  6
CONTINUOUS
 10
3.705680
 20
9.300720
  0
VERTEX
  8
0
  6
CONTINUOUS
 10
3.721080
 20
9.284440
  0
VERTEX
  8
0
  6
CONTINUOUS
 10
3.067680
 20
8.911760
  0
VERTEX
  8
0
  6
CONTINUOUS
 10
3.052280
 20
8.928480
  0
SEQEND
  8
0
  0
SOLID
  8
0
 62
    15
 10
3.067680
 20
8.911760
 11
3.721080
 21
9.284440
 12
3.079560
 22
8.894160
 13
3.732960
 23
9.266840
  0
POLYLINE
  8
0
  6
CONTINUOUS
 66
     1
 40
0.000000
 41
0.000000
  0
VERTEX
  8
0
  6
CONTINUOUS
 10
3.067680
 20
8.911760
  0
VERTEX
  8
0
  6
CONTINUOUS
 10
3.721080
 20
9.284440
  0
VERTEX
  8
0
  6
CONTINUOUS
 10
3.732960
 20
9.266840
  0
VERTEX
  8
0
  6
CONTINUOUS
 10
3.079560
 20
8.894160
  0
VERTEX
  8
0
  6
CONTINUOUS
 10
3.067680
 20
8.911760
  0
SEQEND
  8
0
  0
SOLID
  8
0
 62
    15
 10
3.079560
 20
8.894160
 11
3.732960
 21
9.266840
 12
3.087040
 22
8.876120
 13
3.740440
 23
9.248800
  0
POLYLINE
  8
0
  6
CONTINUOUS
 66
     1
 40
0.000000
 41
0.000000
  0
VERTEX
  8
0
  6
CONTINUOUS
 10
3.079560
 20
8.894160
  0
VERTEX
  8
0
  6
CONTINUOUS
 10
3.732960
 20
9.266840
  0
VERTEX
  8
0
  6
CONTINUOUS
 10
3.740440
 20
9.248800
  0
VERTEX
  8
0
  6
CONTINUOUS
 10
3.087040
 20
8.876120
  0
VERTEX
  8
0
  6
CONTINUOUS
 10
3.079560
 20
8.894160
  0
SEQEND
  8
0
  0
SOLID
  8
0
 62
    15
 10
3.087040
 20
8.876120
 11
3.740440
 21
9.248800
 12
3.090560
 22
8.857640
 13
3.743960
 23
9.229880
  0
POLYLINE
  8
0
  6
CONTINUOUS
 66
     1
 40
0.000000
 41
0.000000
  0
VERTEX
  8
0
  6
CONTINUOUS
 10
3.087040
 20
8.876120
  0
VERTEX
  8
0
  6
CONTINUOUS
 10
3.740440
 20
9.248800
  0
VERTEX
  8
0
  6
CONTINUOUS
 10
3.743960
 20
9.229880
  0
VERTEX
  8
0
  6
CONTINUOUS
 10
3.090560
 20
8.857640
  0
VERTEX
  8
0
  6
CONTINUOUS
 10
3.087040
 20
8.876120
  0
SEQEND
  8
0
  0
SOLID
  8
0
 62
    15
 10
3.090560
 20
8.857640
 11
3.743960
 21
9.229880
 12
3.089680
 22
8.839160
 13
3.743080
 23
9.211400
  0
POLYLINE
  8
0
  6
CONTINUOUS
 66
     1
 40
0.000000
 41
0.000000
  0
VERTEX
  8
0
  6
CONTINUOUS
 10
3.090560
 20
8.857640
  0
VERTEX
  8
0
  6
CONTINUOUS
 10
3.743960
 20
9.229880
  0
VERTEX
  8
0
  6
CONTINUOUS
 10
3.743080
 20
9.211400
  0
VERTEX
  8
0
  6
CONTINUOUS
 10
3.089680
 20
8.839160
  0
VERTEX
  8
0
  6
CONTINUOUS
 10
3.090560
 20
8.857640
  0
SEQEND
  8
0
  0
SOLID
  8
0
 62
    15
 10
3.089680
 20
8.839160
 11
3.743080
 21
9.211400
 12
3.083960
 22
8.820240
 13
3.737360
 23
9.192920
  0
POLYLINE
  8
0
  6
CONTINUOUS
 66
     1
 40
0.000000
 41
0.000000
  0
VERTEX
  8
0
  6
CONTINUOUS
 10
3.089680
 20
8.839160
  0
VERTEX
  8
0
  6
CONTINUOUS
 10
3.743080
 20
9.211400
  0
VERTEX
  8
0
  6
CONTINUOUS
 10
3.737360
 20
9.192920
  0
VERTEX
  8
0
  6
CONTINUOUS
 10
3.083960
 20
8.820240
  0
VERTEX
  8
0
  6
CONTINUOUS
 10
3.089680
 20
8.839160
  0
SEQEND
  8
0
  0
SOLID
  8
0
 62
    15
 10
3.083960
 20
8.820240
 11
3.737360
 21
9.192920
 12
3.074280
 22
8.802200
 13
3.727680
 23
9.174880
  0
POLYLINE
  8
0
  6
CONTINUOUS
 66
     1
 40
0.000000
 41
0.000000
  0
VERTEX
  8
0
  6
CONTINUOUS
 10
3.083960
 20
8.820240
  0
VERTEX
  8
0
  6
CONTINUOUS
 10
3.737360
 20
9.192920
  0
VERTEX
  8
0
  6
CONTINUOUS
 10
3.727680
 20
9.174880
  0
VERTEX
  8
0
  6
CONTINUOUS
 10
3.074280
 20
8.802200
  0
VERTEX
  8
0
  6
CONTINUOUS
 10
3.083960
 20
8.820240
  0
SEQEND
  8
0
  0
SOLID
  8
0
 62
    15
 10
2.953720
 20
8.727400
 11
3.607120
 21
9.099640
 12
3.112120
 22
8.664480
 13
3.765520
 23
9.036720
  0
POLYLINE
  8
0
  6
CONTINUOUS
 66
     1
 40
0.000000
 41
0.000000
  0
VERTEX
  8
0
  6
CONTINUOUS
 10
2.953720
 20
8.727400
  0
VERTEX
  8
0
  6
CONTINUOUS
 10
3.607120
 20
9.099640
  0
VERTEX
  8
0
  6
CONTINUOUS
 10
3.765520
 20
9.036720
  0
VERTEX
  8
0
  6
CONTINUOUS
 10
3.112120
 20
8.664480
  0
VERTEX
  8
0
  6
CONTINUOUS
 10
2.953720
 20
8.727400
  0
SEQEND
  8
0
  0
SOLID
  8
0
 62
    15
 10
3.059760
 20
8.785040
 11
3.713160
 21
9.157280
 12
3.040400
 22
8.768320
 13
3.693800
 23
9.141000
  0
POLYLINE
  8
0
  6
CONTINUOUS
 66
     1
 40
0.000000
 41
0.000000
  0
VERTEX
  8
0
  6
CONTINUOUS
 10
3.059760
 20
8.785040
  0
VERTEX
  8
0
  6
CONTINUOUS
 10
3.713160
 20
9.157280
  0
VERTEX
  8
0
  6
CONTINUOUS
 10
3.693800
 20
9.141000
  0
VERTEX
  8
0
  6
CONTINUOUS
 10
3.040400
 20
8.768320
  0
VERTEX
  8
0
  6
CONTINUOUS
 10
3.059760
 20
8.785040
  0
SEQEND
  8
0
  0
SOLID
  8
0
 62
    15
 10
3.040400
 20
8.768320
 11
3.693800
 21
9.141000
 12
3.016640
 22
8.752920
 13
3.670040
 23
9.125600
  0
POLYLINE
  8
0
  6
CONTINUOUS
 66
     1
 40
0.000000
 41
0.000000
  0
VERTEX
  8
0
  6
CONTINUOUS
 10
3.040400
 20
8.768320
  0
VERTEX
  8
0
  6
CONTINUOUS
 10
3.693800
 20
9.141000
  0
VERTEX
  8
0
  6
CONTINUOUS
 10
3.670040
 20
9.125600
  0
VERTEX
  8
0
  6
CONTINUOUS
 10
3.016640
 20
8.752920
  0
VERTEX
  8
0
  6
CONTINUOUS
 10
3.040400
 20
8.768320
  0
SEQEND
  8
0
  0
SOLID
  8
0
 62
    15
 10
3.074280
 20
8.802200
 11
3.727680
 21
9.174880
 12
3.059760
 22
8.785040
 13
3.713160
 23
9.157280
  0
POLYLINE
  8
0
  6
CONTINUOUS
 66
     1
 40
0.000000
 41
0.000000
  0
VERTEX
  8
0
  6
CONTINUOUS
 10
3.074280
 20
8.802200
  0
VERTEX
  8
0
  6
CONTINUOUS
 10
3.727680
 20
9.174880
  0
VERTEX
  8
0
  6
CONTINUOUS
 10
3.713160
 20
9.157280
  0
VERTEX
  8
0
  6
CONTINUOUS
 10
3.059760
 20
8.785040
  0
VERTEX
  8
0
  6
CONTINUOUS
 10
3.074280
 20
8.802200
  0
SEQEND
  8
0
  0
SOLID
  8
0
 62
    15
 10
2.823040
 20
9.096120
 11
3.476440
 21
9.468800
 12
2.950640
 22
9.096120
 13
3.604040
 23
9.468800
  0
POLYLINE
  8
0
  6
CONTINUOUS
 66
     1
 40
0.000000
 41
0.000000
  0
VERTEX
  8
0
  6
CONTINUOUS
 10
2.823040
 20
9.096120
  0
VERTEX
  8
0
  6
CONTINUOUS
 10
3.476440
 20
9.468800
  0
VERTEX
  8
0
  6
CONTINUOUS
 10
3.604040
 20
9.468800
  0
VERTEX
  8
0
  6
CONTINUOUS
 10
2.950640
 20
9.096120
  0
VERTEX
  8
0
  6
CONTINUOUS
 10
2.823040
 20
9.096120
  0
SEQEND
  8
0
  0
SOLID
  8
0
 62
    15
 10
3.189120
 20
8.628840
 11
3.842520
 21
9.001080
 12
3.263040
 22
8.590560
 13
3.916440
 23
8.963240
  0
POLYLINE
  8
0
  6
CONTINUOUS
 66
     1
 40
0.000000
 41
0.000000
  0
VERTEX
  8
0
  6
CONTINUOUS
 10
3.189120
 20
8.628840
  0
VERTEX
  8
0
  6
CONTINUOUS
 10
3.842520
 20
9.001080
  0
VERTEX
  8
0
  6
CONTINUOUS
 10
3.916440
 20
8.963240
  0
VERTEX
  8
0
  6
CONTINUOUS
 10
3.263040
 20
8.590560
  0
VERTEX
  8
0
  6
CONTINUOUS
 10
3.189120
 20
8.628840
  0
SEQEND
  8
0
  0
SOLID
  8
0
 62
    15
 10
3.263040
 20
8.590560
 11
3.916440
 21
8.963240
 12
3.333000
 22
8.550520
 13
3.986400
 23
8.922760
  0
POLYLINE
  8
0
  6
CONTINUOUS
 66
     1
 40
0.000000
 41
0.000000
  0
VERTEX
  8
0
  6
CONTINUOUS
 10
3.263040
 20
8.590560
  0
VERTEX
  8
0
  6
CONTINUOUS
 10
3.916440
 20
8.963240
  0
VERTEX
  8
0
  6
CONTINUOUS
 10
3.986400
 20
8.922760
  0
VERTEX
  8
0
  6
CONTINUOUS
 10
3.333000
 20
8.550520
  0
VERTEX
  8
0
  6
CONTINUOUS
 10
3.263040
 20
8.590560
  0
SEQEND
  8
0
  0
SOLID
  8
0
 62
    15
 10
3.333000
 20
8.550520
 11
3.986400
 21
8.922760
 12
3.397680
 22
8.508280
 13
4.051080
 23
8.880960
  0
POLYLINE
  8
0
  6
CONTINUOUS
 66
     1
 40
0.000000
 41
0.000000
  0
VERTEX
  8
0
  6
CONTINUOUS
 10
3.333000
 20
8.550520
  0
VERTEX
  8
0
  6
CONTINUOUS
 10
3.986400
 20
8.922760
  0
VERTEX
  8
0
  6
CONTINUOUS
 10
4.051080
 20
8.880960
  0
VERTEX
  8
0
  6
CONTINUOUS
 10
3.397680
 20
8.508280
  0
VERTEX
  8
0
  6
CONTINUOUS
 10
3.333000
 20
8.550520
  0
SEQEND
  8
0
  0
SOLID
  8
0
 62
    15
 10
3.397680
 20
8.508280
 11
4.051080
 21
8.880960
 12
3.456200
 22
8.464720
 13
4.109600
 23
8.837400
  0
POLYLINE
  8
0
  6
CONTINUOUS
 66
     1
 40
0.000000
 41
0.000000
  0
VERTEX
  8
0
  6
CONTINUOUS
 10
3.397680
 20
8.508280
  0
VERTEX
  8
0
  6
CONTINUOUS
 10
4.051080
 20
8.880960
  0
VERTEX
  8
0
  6
CONTINUOUS
 10
4.109600
 20
8.837400
  0
VERTEX
  8
0
  6
CONTINUOUS
 10
3.456200
 20
8.464720
  0
VERTEX
  8
0
  6
CONTINUOUS
 10
3.397680
 20
8.508280
  0
SEQEND
  8
0
  0
SOLID
  8
0
 62
    15
 10
3.456200
 20
8.464720
 11
4.109600
 21
8.837400
 12
3.507240
 22
8.419840
 13
4.160640
 23
8.792080
  0
POLYLINE
  8
0
  6
CONTINUOUS
 66
     1
 40
0.000000
 41
0.000000
  0
VERTEX
  8
0
  6
CONTINUOUS
 10
3.456200
 20
8.464720
  0
VERTEX
  8
0
  6
CONTINUOUS
 10
4.109600
 20
8.837400
  0
VERTEX
  8
0
  6
CONTINUOUS
 10
4.160640
 20
8.792080
  0
VERTEX
  8
0
  6
CONTINUOUS
 10
3.507240
 20
8.419840
  0
VERTEX
  8
0
  6
CONTINUOUS
 10
3.456200
 20
8.464720
  0
SEQEND
  8
0
  0
SOLID
  8
0
 62
    15
 10
3.507240
 20
8.419840
 11
4.160640
 21
8.792080
 12
3.550360
 22
8.373640
 13
4.203320
 23
8.746320
  0
POLYLINE
  8
0
  6
CONTINUOUS
 66
     1
 40
0.000000
 41
0.000000
  0
VERTEX
  8
0
  6
CONTINUOUS
 10
3.507240
 20
8.419840
  0
VERTEX
  8
0
  6
CONTINUOUS
 10
4.160640
 20
8.792080
  0
VERTEX
  8
0
  6
CONTINUOUS
 10
4.203320
 20
8.746320
  0
VERTEX
  8
0
  6
CONTINUOUS
 10
3.550360
 20
8.373640
  0
VERTEX
  8
0
  6
CONTINUOUS
 10
3.507240
 20
8.419840
  0
SEQEND
  8
0
  0
SOLID
  8
0
 62
    15
 10
3.550360
 20
8.373640
 11
4.203320
 21
8.746320
 12
3.583360
 22
8.327000
 13
4.236760
 23
8.699680
  0
POLYLINE
  8
0
  6
CONTINUOUS
 66
     1
 40
0.000000
 41
0.000000
  0
VERTEX
  8
0
  6
CONTINUOUS
 10
3.550360
 20
8.373640
  0
VERTEX
  8
0
  6
CONTINUOUS
 10
4.203320
 20
8.746320
  0
VERTEX
  8
0
  6
CONTINUOUS
 10
4.236760
 20
8.699680
  0
VERTEX
  8
0
  6
CONTINUOUS
 10
3.583360
 20
8.327000
  0
VERTEX
  8
0
  6
CONTINUOUS
 10
3.550360
 20
8.373640
  0
SEQEND
  8
0
  0
SOLID
  8
0
 62
    15
 10
3.583360
 20
8.327000
 11
4.236760
 21
8.699680
 12
3.606240
 22
8.279480
 13
4.259640
 23
8.652160
  0
POLYLINE
  8
0
  6
CONTINUOUS
 66
     1
 40
0.000000
 41
0.000000
  0
VERTEX
  8
0
  6
CONTINUOUS
 10
3.583360
 20
8.327000
  0
VERTEX
  8
0
  6
CONTINUOUS
 10
4.236760
 20
8.699680
  0
VERTEX
  8
0
  6
CONTINUOUS
 10
4.259640
 20
8.652160
  0
VERTEX
  8
0
  6
CONTINUOUS
 10
3.606240
 20
8.279480
  0
VERTEX
  8
0
  6
CONTINUOUS
 10
3.583360
 20
8.327000
  0
SEQEND
  8
0
  0
SOLID
  8
0
 62
    15
 10
3.606240
 20
8.279480
 11
4.259640
 21
8.652160
 12
3.617240
 22
8.231960
 13
4.270640
 23
8.604640
  0
POLYLINE
  8
0
  6
CONTINUOUS
 66
     1
 40
0.000000
 41
0.000000
  0
VERTEX
  8
0
  6
CONTINUOUS
 10
3.606240
 20
8.279480
  0
VERTEX
  8
0
  6
CONTINUOUS
 10
4.259640
 20
8.652160
  0
VERTEX
  8
0
  6
CONTINUOUS
 10
4.270640
 20
8.604640
  0
VERTEX
  8
0
  6
CONTINUOUS
 10
3.617240
 20
8.231960
  0
VERTEX
  8
0
  6
CONTINUOUS
 10
3.606240
 20
8.279480
  0
SEQEND
  8
0
  0
SOLID
  8
0
 62
    15
 10
3.617240
 20
8.231960
 11
4.270640
 21
8.604640
 12
3.615480
 22
8.184440
 13
4.268880
 23
8.557120
  0
POLYLINE
  8
0
  6
CONTINUOUS
 66
     1
 40
0.000000
 41
0.000000
  0
VERTEX
  8
0
  6
CONTINUOUS
 10
3.617240
 20
8.231960
  0
VERTEX
  8
0
  6
CONTINUOUS
 10
4.270640
 20
8.604640
  0
VERTEX
  8
0
  6
CONTINUOUS
 10
4.268880
 20
8.557120
  0
VERTEX
  8
0
  6
CONTINUOUS
 10
3.615480
 20
8.184440
  0
VERTEX
  8
0
  6
CONTINUOUS
 10
3.617240
 20
8.231960
  0
SEQEND
  8
0
  0
SOLID
  8
0
 62
    15
 10
3.615480
 20
8.184440
 11
4.268880
 21
8.557120
 12
3.600080
 22
8.137360
 13
4.253480
 23
8.510040
  0
POLYLINE
  8
0
  6
CONTINUOUS
 66
     1
 40
0.000000
 41
0.000000
  0
VERTEX
  8
0
  6
CONTINUOUS
 10
3.615480
 20
8.184440
  0
VERTEX
  8
0
  6
CONTINUOUS
 10
4.268880
 20
8.557120
  0
VERTEX
  8
0
  6
CONTINUOUS
 10
4.253480
 20
8.510040
  0
VERTEX
  8
0
  6
CONTINUOUS
 10
3.600080
 20
8.137360
  0
VERTEX
  8
0
  6
CONTINUOUS
 10
3.615480
 20
8.184440
  0
SEQEND
  8
0
  0
SOLID
  8
0
 62
    15
 10
3.600080
 20
8.137360
 11
4.253480
 21
8.510040
 12
3.569280
 22
8.090720
 13
4.222680
 23
8.463400
  0
POLYLINE
  8
0
  6
CONTINUOUS
 66
     1
 40
0.000000
 41
0.000000
  0
VERTEX
  8
0
  6
CONTINUOUS
 10
3.600080
 20
8.137360
  0
VERTEX
  8
0
  6
CONTINUOUS
 10
4.253480
 20
8.510040
  0
VERTEX
  8
0
  6
CONTINUOUS
 10
4.222680
 20
8.463400
  0
VERTEX
  8
0
  6
CONTINUOUS
 10
3.569280
 20
8.090720
  0
VERTEX
  8
0
  6
CONTINUOUS
 10
3.600080
 20
8.137360
  0
SEQEND
  8
0
  0
SOLID
  8
0
 62
    15
 10
3.569280
 20
8.090720
 11
4.222680
 21
8.463400
 12
3.548160
 22
8.067840
 13
4.201560
 23
8.440520
  0
POLYLINE
  8
0
  6
CONTINUOUS
 66
     1
 40
0.000000
 41
0.000000
  0
VERTEX
  8
0
  6
CONTINUOUS
 10
3.569280
 20
8.090720
  0
VERTEX
  8
0
  6
CONTINUOUS
 10
4.222680
 20
8.463400
  0
VERTEX
  8
0
  6
CONTINUOUS
 10
4.201560
 20
8.440520
  0
VERTEX
  8
0
  6
CONTINUOUS
 10
3.548160
 20
8.067840
  0
VERTEX
  8
0
  6
CONTINUOUS
 10
3.569280
 20
8.090720
  0
SEQEND
  8
0
  0
SOLID
  8
0
 62
    15
 10
3.548160
 20
8.067840
 11
4.201560
 21
8.440520
 12
3.523080
 22
8.044960
 13
4.176480
 23
8.417640
  0
POLYLINE
  8
0
  6
CONTINUOUS
 66
     1
 40
0.000000
 41
0.000000
  0
VERTEX
  8
0
  6
CONTINUOUS
 10
3.548160
 20
8.067840
  0
VERTEX
  8
0
  6
CONTINUOUS
 10
4.201560
 20
8.440520
  0
VERTEX
  8
0
  6
CONTINUOUS
 10
4.176480
 20
8.417640
  0
VERTEX
  8
0
  6
CONTINUOUS
 10
3.523080
 20
8.044960
  0
VERTEX
  8
0
  6
CONTINUOUS
 10
3.548160
 20
8.067840
  0
SEQEND
  8
0
  0
SOLID
  8
0
 62
    15
 10
3.523080
 20
8.044960
 11
4.176480
 21
8.417640
 12
3.523080
 22
7.987320
 13
4.176480
 23
8.359560
  0
POLYLINE
  8
0
  6
CONTINUOUS
 66
     1
 40
0.000000
 41
0.000000
  0
VERTEX
  8
0
  6
CONTINUOUS
 10
3.523080
 20
8.044960
  0
VERTEX
  8
0
  6
CONTINUOUS
 10
4.176480
 20
8.417640
  0
VERTEX
  8
0
  6
CONTINUOUS
 10
4.176480
 20
8.359560
  0
VERTEX
  8
0
  6
CONTINUOUS
 10
3.523080
 20
7.987320
  0
VERTEX
  8
0
  6
CONTINUOUS
 10
3.523080
 20
8.044960
  0
SEQEND
  8
0
  0
SOLID
  8
0
 62
    15
 10
3.523080
 20
7.987320
 11
4.176480
 21
8.359560
 12
3.631320
 22
7.987320
 13
4.284280
 23
8.359560
  0
POLYLINE
  8
0
  6
CONTINUOUS
 66
     1
 40
0.000000
 41
0.000000
  0
VERTEX
  8
0
  6
CONTINUOUS
 10
3.523080
 20
7.987320
  0
VERTEX
  8
0
  6
CONTINUOUS
 10
4.176480
 20
8.359560
  0
VERTEX
  8
0
  6
CONTINUOUS
 10
4.284280
 20
8.359560
  0
VERTEX
  8
0
  6
CONTINUOUS
 10
3.631320
 20
7.987320
  0
VERTEX
  8
0
  6
CONTINUOUS
 10
3.523080
 20
7.987320
  0
SEQEND
  8
0
  0
SOLID
  8
0
 62
    15
 10
3.631320
 20
7.987320
 11
4.284280
 21
8.359560
 12
3.631320
 22
7.737840
 13
4.284280
 23
8.110520
  0
POLYLINE
  8
0
  6
CONTINUOUS
 66
     1
 40
0.000000
 41
0.000000
  0
VERTEX
  8
0
  6
CONTINUOUS
 10
3.631320
 20
7.987320
  0
VERTEX
  8
0
  6
CONTINUOUS
 10
4.284280
 20
8.359560
  0
VERTEX
  8
0
  6
CONTINUOUS
 10
4.284280
 20
8.110520
  0
VERTEX
  8
0
  6
CONTINUOUS
 10
3.631320
 20
7.737840
  0
VERTEX
  8
0
  6
CONTINUOUS
 10
3.631320
 20
7.987320
  0
SEQEND
  8
0
  0
POLYLINE
  8
0
  6
CONTINUOUS
 66
     1
 40
0.000000
 41
0.000000
  0
VERTEX
  8
0
  6
CONTINUOUS
 10
2.823040
 20
9.096120
  0
VERTEX
  8
0
  6
CONTINUOUS
 10
2.950640
 20
9.096120
  0
VERTEX
  8
0
  6
CONTINUOUS
 10
2.950640
 20
8.979960
  0
VERTEX
  8
0
  6
CONTINUOUS
 10
2.981440
 20
8.969840
  0
VERTEX
  8
0
  6
CONTINUOUS
 10
3.008720
 20
8.957520
  0
VERTEX
  8
0
  6
CONTINUOUS
 10
3.032480
 20
8.943880
  0
VERTEX
  8
0
  6
CONTINUOUS
 10
3.052280
 20
8.928480
  0
VERTEX
  8
0
  6
CONTINUOUS
 10
3.067680
 20
8.911760
  0
VERTEX
  8
0
  6
CONTINUOUS
 10
3.079560
 20
8.894160
  0
VERTEX
  8
0
  6
CONTINUOUS
 10
3.087040
 20
8.876120
  0
VERTEX
  8
0
  6
CONTINUOUS
 10
3.090560
 20
8.857640
  0
VERTEX
  8
0
  6
CONTINUOUS
 10
3.089680
 20
8.839160
  0
VERTEX
  8
0
  6
CONTINUOUS
 10
3.083960
 20
8.820240
  0
VERTEX
  8
0
  6
CONTINUOUS
 10
3.074280
 20
8.802200
  0
VERTEX
  8
0
  6
CONTINUOUS
 10
3.059760
 20
8.785040
  0
VERTEX
  8
0
  6
CONTINUOUS
 10
3.040400
 20
8.768320
  0
VERTEX
  8
0
  6
CONTINUOUS
 10
3.016640
 20
8.752920
  0
VERTEX
  8
0
  6
CONTINUOUS
 10
2.987600
 20
8.739280
  0
VERTEX
  8
0
  6
CONTINUOUS
 10
2.953720
 20
8.727400
  0
VERTEX
  8
0
  6
CONTINUOUS
 10
3.112120
 20
8.664480
  0
VERTEX
  8
0
  6
CONTINUOUS
 10
3.189120
 20
8.628840
  0
VERTEX
  8
0
  6
CONTINUOUS
 10
3.263040
 20
8.590560
  0
VERTEX
  8
0
  6
CONTINUOUS
 10
3.333000
 20
8.550520
  0
VERTEX
  8
0
  6
CONTINUOUS
 10
3.397680
 20
8.508280
  0
VERTEX
  8
0
  6
CONTINUOUS
 10
3.456200
 20
8.464720
  0
VERTEX
  8
0
  6
CONTINUOUS
 10
3.507240
 20
8.419840
  0
VERTEX
  8
0
  6
CONTINUOUS
 10
3.550360
 20
8.373640
  0
VERTEX
  8
0
  6
CONTINUOUS
 10
3.583360
 20
8.327000
  0
VERTEX
  8
0
  6
CONTINUOUS
 10
3.606240
 20
8.279480
  0
VERTEX
  8
0
  6
CONTINUOUS
 10
3.617240
 20
8.231960
  0
VERTEX
  8
0
  6
CONTINUOUS
 10
3.615480
 20
8.184440
  0
VERTEX
  8
0
  6
CONTINUOUS
 10
3.600080
 20
8.137360
  0
VERTEX
  8
0
  6
CONTINUOUS
 10
3.569280
 20
8.090720
  0
VERTEX
  8
0
  6
CONTINUOUS
 10
3.548160
 20
8.067840
  0
VERTEX
  8
0
  6
CONTINUOUS
 10
3.523080
 20
8.044960
  0
VERTEX
  8
0
  6
CONTINUOUS
 10
3.523080
 20
7.987320
  0
VERTEX
  8
0
  6
CONTINUOUS
 10
3.631320
 20
7.987320
  0
VERTEX
  8
0
  6
CONTINUOUS
 10
3.631320
 20
7.737840
  0
VERTEX
  8
0
  6
CONTINUOUS
 10
2.823040
 20
7.737840
  0
VERTEX
  8
0
  6
CONTINUOUS
 10
2.823040
 20
9.096120
  0
SEQEND
  8
0
  0
POLYLINE
  8
0
  6
CONTINUOUS
 66
     1
 40
0.000000
 41
0.000000
  0
VERTEX
  8
0
  6
CONTINUOUS
 10
5.409360
 20
6.872360
  0
VERTEX
  8
0
  6
CONTINUOUS
 10
5.281760
 20
6.872360
  0
VERTEX
  8
0
  6
CONTINUOUS
 10
5.281760
 20
6.756200
  0
VERTEX
  8
0
  6
CONTINUOUS
 10
5.236880
 20
6.740360
  0
VERTEX
  8
0
  6
CONTINUOUS
 10
5.211360
 20
6.727160
  0
VERTEX
  8
0
  6
CONTINUOUS
 10
5.189800
 20
6.712640
  0
VERTEX
  8
0
  6
CONTINUOUS
 10
5.171760
 20
6.696800
  0
VERTEX
  8
0
  6
CONTINUOUS
 10
5.152840
 20
6.670840
  0
VERTEX
  8
0
  6
CONTINUOUS
 10
5.145360
 20
6.652800
  0
VERTEX
  8
0
  6
CONTINUOUS
 10
5.141840
 20
6.633880
  0
VERTEX
  8
0
  6
CONTINUOUS
 10
5.142720
 20
6.615400
  0
VERTEX
  8
0
  6
CONTINUOUS
 10
5.148440
 20
6.596920
  0
VERTEX
  8
0
  6
CONTINUOUS
 10
5.158120
 20
6.578880
  0
VERTEX
  8
0
  6
CONTINUOUS
 10
5.172640
 20
6.561280
  0
VERTEX
  8
0
  6
CONTINUOUS
 10
5.192000
 20
6.544560
  0
VERTEX
  8
0
  6
CONTINUOUS
 10
5.215760
 20
6.529600
  0
VERTEX
  8
0
  6
CONTINUOUS
 10
5.244800
 20
6.515520
  0
VERTEX
  8
0
  6
CONTINUOUS
 10
5.278680
 20
6.503640
  0
VERTEX
  8
0
  6
CONTINUOUS
 10
5.199040
 20
6.473720
  0
VERTEX
  8
0
  6
CONTINUOUS
 10
5.081560
 20
6.423120
  0
VERTEX
  8
0
  6
CONTINUOUS
 10
5.005880
 20
6.386600
  0
VERTEX
  8
0
  6
CONTINUOUS
 10
4.933720
 20
6.347440
  0
VERTEX
  8
0
  6
CONTINUOUS
 10
4.866400
 20
6.306080
  0
VERTEX
  8
0
  6
CONTINUOUS
 10
4.804800
 20
6.263400
  0
VERTEX
  8
0
  6
CONTINUOUS
 10
4.749800
 20
6.218960
  0
VERTEX
  8
0
  6
CONTINUOUS
 10
4.702720
 20
6.173200
  0
VERTEX
  8
0
  6
CONTINUOUS
 10
4.682480
 20
6.150320
  0
VERTEX
  8
0
  6
CONTINUOUS
 10
4.656520
 20
6.115120
  0
VERTEX
  8
0
  6
CONTINUOUS
 10
4.636280
 20
6.079920
  0
VERTEX
  8
0
  6
CONTINUOUS
 10
4.626160
 20
6.056160
  0
VERTEX
  8
0
  6
CONTINUOUS
 10
4.619120
 20
6.032400
  0
VERTEX
  8
0
  6
CONTINUOUS
 10
4.615160
 20
6.008640
  0
VERTEX
  8
0
  6
CONTINUOUS
 10
4.615160
 20
5.973000
  0
VERTEX
  8
0
  6
CONTINUOUS
 10
4.619560
 20
5.949240
  0
VERTEX
  8
0
  6
CONTINUOUS
 10
4.627480
 20
5.925920
  0
VERTEX
  8
0
  6
CONTINUOUS
 10
4.638920
 20
5.902160
  0
VERTEX
  8
0
  6
CONTINUOUS
 10
4.653880
 20
5.878840
  0
VERTEX
  8
0
  6
CONTINUOUS
 10
4.684240
 20
5.844520
  0
VERTEX
  8
0
  6
CONTINUOUS
 10
4.709760
 20
5.821640
  0
VERTEX
  8
0
  6
CONTINUOUS
 10
4.709760
 20
5.763560
  0
VERTEX
  8
0
  6
CONTINUOUS
 10
4.601520
 20
5.763560
  0
VERTEX
  8
0
  6
CONTINUOUS
 10
4.601520
 20
5.514520
  0
VERTEX
  8
0
  6
CONTINUOUS
 10
5.409360
 20
5.514520
  0
VERTEX
  8
0
  6
CONTINUOUS
 10
5.409360
 20
6.872360
  0
SEQEND
  8
0
  0
POLYLINE
  8
0
  6
CONTINUOUS
 66
     1
 40
0.000000
 41
0.000000
  0
VERTEX
  8
0
  6
CONTINUOUS
 10
3.501080
 20
6.884240
  0
VERTEX
  8
0
  6
CONTINUOUS
 10
3.628680
 20
6.884240
  0
VERTEX
  8
0
  6
CONTINUOUS
 10
3.628680
 20
6.768080
  0
VERTEX
  8
0
  6
CONTINUOUS
 10
3.673560
 20
6.752240
  0
VERTEX
  8
0
  6
CONTINUOUS
 10
3.710520
 20
6.732000
  0
VERTEX
  8
0
  6
CONTINUOUS
 10
3.730320
 20
6.716600
  0
VERTEX
  8
0
  6
CONTINUOUS
 10
3.752320
 20
6.691080
  0
VERTEX
  8
0
  6
CONTINUOUS
 10
3.762000
 20
6.673480
  0
VERTEX
  8
0
  6
CONTINUOUS
 10
3.767280
 20
6.655000
  0
VERTEX
  8
0
  6
CONTINUOUS
 10
3.768600
 20
6.636080
  0
VERTEX
  8
0
  6
CONTINUOUS
 10
3.765520
 20
6.617600
  0
VERTEX
  8
0
  6
CONTINUOUS
 10
3.757600
 20
6.599120
  0
VERTEX
  8
0
  6
CONTINUOUS
 10
3.745720
 20
6.581520
  0
VERTEX
  8
0
  6
CONTINUOUS
 10
3.728560
 20
6.564360
  0
VERTEX
  8
0
  6
CONTINUOUS
 10
3.707000
 20
6.548520
  0
VERTEX
  8
0
  6
CONTINUOUS
 10
3.680600
 20
6.534000
  0
VERTEX
  8
0
  6
CONTINUOUS
 10
3.649360
 20
6.520800
  0
VERTEX
  8
0
  6
CONTINUOUS
 10
3.631760
 20
6.515080
  0
VERTEX
  8
0
  6
CONTINUOUS
 10
3.711400
 20
6.485160
  0
VERTEX
  8
0
  6
CONTINUOUS
 10
3.828880
 20
6.434560
  0
VERTEX
  8
0
  6
CONTINUOUS
 10
3.904560
 20
6.398040
  0
VERTEX
  8
0
  6
CONTINUOUS
 10
3.976720
 20
6.358880
  0
VERTEX
  8
0
  6
CONTINUOUS
 10
4.044040
 20
6.317520
  0
VERTEX
  8
0
  6
CONTINUOUS
 10
4.105640
 20
6.274840
  0
VERTEX
  8
0
  6
CONTINUOUS
 10
4.160640
 20
6.230400
  0
VERTEX
  8
0
  6
CONTINUOUS
 10
4.207720
 20
6.184640
  0
VERTEX
  8
0
  6
CONTINUOUS
 10
4.228400
 20
6.161760
  0
VERTEX
  8
0
  6
CONTINUOUS
 10
4.261400
 20
6.115120
  0
VERTEX
  8
0
  6
CONTINUOUS
 10
4.274160
 20
6.091360
  0
VERTEX
  8
0
  6
CONTINUOUS
 10
4.288240
 20
6.055720
  0
VERTEX
  8
0
  6
CONTINUOUS
 10
4.295280
 20
6.020080
  0
VERTEX
  8
0
  6
CONTINUOUS
 10
4.296160
 20
5.996320
  0
VERTEX
  8
0
  6
CONTINUOUS
 10
4.293520
 20
5.972560
  0
VERTEX
  8
0
  6
CONTINUOUS
 10
4.287800
 20
5.948800
  0
VERTEX
  8
0
  6
CONTINUOUS
 10
4.271960
 20
5.913600
  0
VERTEX
  8
0
  6
CONTINUOUS
 10
4.247760
 20
5.878840
  0
VERTEX
  8
0
  6
CONTINUOUS
 10
4.214320
 20
5.844520
  0
VERTEX
  8
0
  6
CONTINUOUS
 10
4.201120
 20
5.833080
  0
VERTEX
  8
0
  6
CONTINUOUS
 10
4.201120
 20
5.775000
  0
VERTEX
  8
0
  6
CONTINUOUS
 10
4.308920
 20
5.775000
  0
VERTEX
  8
0
  6
CONTINUOUS
 10
4.308920
 20
5.525960
  0
VERTEX
  8
0
  6
CONTINUOUS
 10
3.501080
 20
5.525960
  0
VERTEX
  8
0
  6
CONTINUOUS
 10
3.501080
 20
6.884240
  0
SEQEND
  8
0
  0
ENDSEC
  0
EOF
