  0
SECTION
  2
HEADER
  9
$ACADVER
  1
AC1006
  9
$EXTMIN
 10
3.336520
 20
2.162600
  9
$EXTMAX
 10
6.916800
 20
4.390760
  9
$LTSCALE
 40
0.044000
  9
$PDMODE
 70
    35
  9
$PDSIZE
 40
0.035200
  0
ENDSEC
  0
SECTION
  2
TABLES
  0
TABLE
  2
LTYPE
 70
     9
  0
LTYPE
  2
CONTINUOUS
 70
    64
  3
Solid line
 72
    65
 73
     0
 40
0.000000
  0
LTYPE
  2
DASHED
 70
    64
  3
__ __ __ __ __ __ __ __ __ __ __ __ __ __ __
 72
    65
 73
     2
 40
0.000330
 49
0.000220
 49
-0.000110
  0
LTYPE
  2
HIDDEN
 70
    64
  3
 _ _ _ _ _ _ _ _ _ _ _ _ _ _ _ _ _ _ _ _ _ _
 72
    65
 73
     2
 40
0.000165
 49
0.000110
 49
-0.000055
  0
LTYPE
  2
CENTER
 70
    64
  3
____ _ ____ _ ____ _ ____ _ ____ _ ____ _ ____
 72
    65
 73
     4
 40
0.000880
 49
0.000550
 49
-0.000110
 49
0.000110
 49
-0.000110
  0
LTYPE
  2
PHANTOM
 70
    64
  3
_____ _ _ _____ _ _ _____ _ _ _____ _ _ ____
 72
    65
 73
     6
 40
0.001100
 49
0.000550
 49
-0.000110
 49
0.000110
 49
-0.000110
 49
0.000110
 49
-0.000110
  0
LTYPE
  2
DOT
 70
    64
  3
...............................................
 72
    65
 73
     2
 40
0.000110
 49
0.000000
 49
-0.000110
  0
LTYPE
  2
DASHDOT
 70
    64
  3
__ . __ . __ . __ . __ . __ . __ . __ . __ . __
 72
    65
 73
     4
 40
0.000440
 49
0.000220
 49
-0.000110
 49
0.000000
 49
-0.000110
  0
LTYPE
  2
BORDER
 70
    64
  3
__ __ . __ __ . __ __ . __ __ . __ __ . __ __
 72
    65
 73
     6
 40
0.000770
 49
0.000220
 49
-0.000110
 49
0.000220
 49
-0.000110
 49
0.000000
 49
-0.000110
  0
LTYPE
  2
DIVIDE
 70
    64
  3
__ . . __ . . __ . . __ . . __ . . __ . . __
 72
    65
 73
     6
 40
0.000550
 49
0.000220
 49
-0.000110
 49
0.000000
 49
-0.000110
 49
0.000000
 49
-0.000110
  0
LTYPE
  2
DOTDOT
 70
    64
  3
 . .  . .  . .  . .  . .  . . 
 72
    65
 73
     5
 40
0.000242
 49
-0.000110
 49
0.000000
 49
-0.000110
 49
0.000000
 49
-0.000110
  0
ENDTAB
  0
TABLE
  2
STYLE
 70
     2
  0
STYLE
 70
     0
  2
SN0
 40
0.000000
 41
0.000440
 50
0.000000
 71
     0
 42
0.000000
  3
ROMAND
  0
STYLE
 70
    68
  2
SV0
 40
0.000000
 41
0.000440
 50
0.000000
 71
     0
 42
0.000000
  3
ROMAND
  0
ENDTAB
  0
TABLE
  2
LAYER
 70
     3
  0
LAYER
  2
FOREGROUND
 70
    64
 62
     7
  6
CONTINUOUS
  0
LAYER
  2
BACKGROUND
 70
    65
 62
    -7
  6
CONTINUOUS
  0
LAYER
  2
0
 70
    64
 62
     7
  6
CONTINUOUS
  0
ENDTAB
  0
ENDSEC
  0
SECTION
  2
ENTITIES
  0
POLYLINE
  8
FOREGROUND
  6
CONTINUOUS
 66
     1
 40
0.000000
 41
0.000000
  0
VERTEX
  8
FOREGROUND
  6
CONTINUOUS
 10
0.000000
 20
6.553360
  0
VERTEX
  8
FOREGROUND
  6
CONTINUOUS
 10
8.499920
 20
6.553360
  0
VERTEX
  8
FOREGROUND
  6
CONTINUOUS
 10
8.499920
 20
-4.446640
  0
VERTEX
  8
FOREGROUND
  6
CONTINUOUS
 10
0.000000
 20
-4.446640
  0
VERTEX
  8
FOREGROUND
  6
CONTINUOUS
 10
0.000000
 20
6.553360
  0
SEQEND
  8
0
  0
POLYLINE
  8
FOREGROUND
  6
CONTINUOUS
 66
     1
 40
0.000000
 41
0.000000
  0
VERTEX
  8
FOREGROUND
  6
CONTINUOUS
 10
0.000000
 20
6.553360
  0
VERTEX
  8
FOREGROUND
  6
CONTINUOUS
 10
8.499920
 20
6.553360
  0
VERTEX
  8
FOREGROUND
  6
CONTINUOUS
 10
8.499920
 20
-4.446640
  0
VERTEX
  8
FOREGROUND
  6
CONTINUOUS
 10
0.000000
 20
-4.446640
  0
VERTEX
  8
FOREGROUND
  6
CONTINUOUS
 10
0.000000
 20
6.553360
  0
SEQEND
  8
0
  0
POLYLINE
  8
0
  6
CONTINUOUS
 66
     1
 40
0.014080
 41
0.014080
  0
VERTEX
  8
0
  6
CONTINUOUS
 10
6.909320
 20
3.446520
  0
VERTEX
  8
0
  6
CONTINUOUS
 10
6.909320
 20
2.614040
  0
VERTEX
  8
0
  6
CONTINUOUS
 10
5.313440
 20
2.614040
  0
VERTEX
  8
0
  6
CONTINUOUS
 10
5.313440
 20
2.760120
  0
VERTEX
  8
0
  6
CONTINUOUS
 10
5.466560
 20
2.760120
  0
VERTEX
  8
0
  6
CONTINUOUS
 10
5.468320
 20
2.784320
  0
VERTEX
  8
0
  6
CONTINUOUS
 10
5.474480
 20
2.805000
  0
VERTEX
  8
0
  6
CONTINUOUS
 10
5.484160
 20
2.822600
  0
VERTEX
  8
0
  6
CONTINUOUS
 10
5.496920
 20
2.837120
  0
VERTEX
  8
0
  6
CONTINUOUS
 10
5.512320
 20
2.848560
  0
VERTEX
  8
0
  6
CONTINUOUS
 10
5.529480
 20
2.856920
  0
VERTEX
  8
0
  6
CONTINUOUS
 10
5.547520
 20
2.861760
  0
VERTEX
  8
0
  6
CONTINUOUS
 10
5.566440
 20
2.863520
  0
VERTEX
  8
0
  6
CONTINUOUS
 10
5.595040
 20
2.860440
  0
VERTEX
  8
0
  6
CONTINUOUS
 10
5.621000
 20
2.849880
  0
VERTEX
  8
0
  6
CONTINUOUS
 10
5.636400
 20
2.838880
  0
VERTEX
  8
0
  6
CONTINUOUS
 10
5.649600
 20
2.824360
  0
VERTEX
  8
0
  6
CONTINUOUS
 10
5.659720
 20
2.807200
  0
VERTEX
  8
0
  6
CONTINUOUS
 10
5.666320
 20
2.786080
  0
VERTEX
  8
0
  6
CONTINUOUS
 10
5.668520
 20
2.762320
  0
VERTEX
  8
0
  6
CONTINUOUS
 10
5.685680
 20
2.762320
  0
VERTEX
  8
0
  6
CONTINUOUS
 10
5.701960
 20
2.819960
  0
VERTEX
  8
0
  6
CONTINUOUS
 10
5.730120
 20
2.901360
  0
VERTEX
  8
0
  6
CONTINUOUS
 10
5.751240
 20
2.952400
  0
VERTEX
  8
0
  6
CONTINUOUS
 10
5.775000
 20
2.999920
  0
VERTEX
  8
0
  6
CONTINUOUS
 10
5.801400
 20
3.044800
  0
VERTEX
  8
0
  6
CONTINUOUS
 10
5.831320
 20
3.086600
  0
VERTEX
  8
0
  6
CONTINUOUS
 10
5.864760
 20
3.124880
  0
VERTEX
  8
0
  6
CONTINUOUS
 10
5.901720
 20
3.159640
  0
VERTEX
  8
0
  6
CONTINUOUS
 10
5.943080
 20
3.191320
  0
VERTEX
  8
0
  6
CONTINUOUS
 10
5.988840
 20
3.219040
  0
VERTEX
  8
0
  6
CONTINUOUS
 10
6.039880
 20
3.242800
  0
VERTEX
  8
0
  6
CONTINUOUS
 10
6.067160
 20
3.253360
  0
VERTEX
  8
0
  6
CONTINUOUS
 10
6.125680
 20
3.271400
  0
VERTEX
  8
0
  6
CONTINUOUS
 10
6.190360
 20
3.285480
  0
VERTEX
  8
0
  6
CONTINUOUS
 10
6.260760
 20
3.295160
  0
VERTEX
  8
0
  6
CONTINUOUS
 10
6.337760
 20
3.300440
  0
VERTEX
  8
0
  6
CONTINUOUS
 10
6.352280
 20
3.446520
  0
VERTEX
  8
0
  6
CONTINUOUS
 10
6.909320
 20
3.446520
  0
SEQEND
  8
0
  0
TEXT
  8
0
 10
5.833520
 20
2.400200
 40
0.138174
  1
BA  1211
 41
1.000000
  7
SN0
 71
     0
 72
     5
 11
6.515563
 21
2.400200
  0
TEXT
  8
0
 10
5.631560
 20
2.208800
 40
0.138174
  1
13/16" x 1-5/8"
 41
1.000000
  7
SN0
 71
     0
 72
     5
 11
6.716027
 21
2.208800
  0
TEXT
  8
0
 10
3.793240
 20
2.406360
 40
0.138174
  1
BA  1211
 41
1.000000
  7
SN0
 71
     0
 72
     5
 11
4.475283
 21
2.406360
  0
TEXT
  8
0
 10
3.591280
 20
2.214960
 40
0.138174
  1
13/16" x 1-5/8"
 41
1.000000
  7
SN0
 71
     0
 72
     5
 11
4.675747
 21
2.214960
  0
SOLID
  8
0
 62
    15
 10
4.561920
 20
2.816880
 11
4.561040
 21
3.558280
 12
4.578640
 22
2.816880
 13
4.578200
 23
3.558280
  0
POLYLINE
  8
0
  6
CONTINUOUS
 66
     1
 40
0.000000
 41
0.000000
  0
VERTEX
  8
0
  6
CONTINUOUS
 10
4.561920
 20
2.816880
  0
VERTEX
  8
0
  6
CONTINUOUS
 10
4.561040
 20
3.558280
  0
VERTEX
  8
0
  6
CONTINUOUS
 10
4.578200
 20
3.558280
  0
VERTEX
  8
0
  6
CONTINUOUS
 10
4.578640
 20
2.816880
  0
VERTEX
  8
0
  6
CONTINUOUS
 10
4.561920
 20
2.816880
  0
SEQEND
  8
0
  0
SOLID
  8
0
 62
    15
 10
3.909400
 20
3.354560
 11
3.908520
 21
4.096400
 12
3.986400
 22
3.349280
 13
3.985520
 23
4.090680
  0
POLYLINE
  8
0
  6
CONTINUOUS
 66
     1
 40
0.000000
 41
0.000000
  0
VERTEX
  8
0
  6
CONTINUOUS
 10
3.909400
 20
3.354560
  0
VERTEX
  8
0
  6
CONTINUOUS
 10
3.908520
 20
4.096400
  0
VERTEX
  8
0
  6
CONTINUOUS
 10
3.985520
 20
4.090680
  0
VERTEX
  8
0
  6
CONTINUOUS
 10
3.986400
 20
3.349280
  0
VERTEX
  8
0
  6
CONTINUOUS
 10
3.909400
 20
3.354560
  0
SEQEND
  8
0
  0
SOLID
  8
0
 62
    15
 10
3.986400
 20
3.349280
 11
3.985520
 21
4.090680
 12
4.057240
 22
3.339600
 13
4.056360
 23
4.081000
  0
POLYLINE
  8
0
  6
CONTINUOUS
 66
     1
 40
0.000000
 41
0.000000
  0
VERTEX
  8
0
  6
CONTINUOUS
 10
3.986400
 20
3.349280
  0
VERTEX
  8
0
  6
CONTINUOUS
 10
3.985520
 20
4.090680
  0
VERTEX
  8
0
  6
CONTINUOUS
 10
4.056360
 20
4.081000
  0
VERTEX
  8
0
  6
CONTINUOUS
 10
4.057240
 20
3.339600
  0
VERTEX
  8
0
  6
CONTINUOUS
 10
3.986400
 20
3.349280
  0
SEQEND
  8
0
  0
SOLID
  8
0
 62
    15
 10
4.057240
 20
3.339600
 11
4.056360
 21
4.081000
 12
4.121480
 22
3.325520
 13
4.120600
 23
4.067360
  0
POLYLINE
  8
0
  6
CONTINUOUS
 66
     1
 40
0.000000
 41
0.000000
  0
VERTEX
  8
0
  6
CONTINUOUS
 10
4.057240
 20
3.339600
  0
VERTEX
  8
0
  6
CONTINUOUS
 10
4.056360
 20
4.081000
  0
VERTEX
  8
0
  6
CONTINUOUS
 10
4.120600
 20
4.067360
  0
VERTEX
  8
0
  6
CONTINUOUS
 10
4.121480
 20
3.325520
  0
VERTEX
  8
0
  6
CONTINUOUS
 10
4.057240
 20
3.339600
  0
SEQEND
  8
0
  0
SOLID
  8
0
 62
    15
 10
4.121480
 20
3.325520
 11
4.120600
 21
4.067360
 12
4.180440
 22
3.307480
 13
4.179560
 23
4.049320
  0
POLYLINE
  8
0
  6
CONTINUOUS
 66
     1
 40
0.000000
 41
0.000000
  0
VERTEX
  8
0
  6
CONTINUOUS
 10
4.121480
 20
3.325520
  0
VERTEX
  8
0
  6
CONTINUOUS
 10
4.120600
 20
4.067360
  0
VERTEX
  8
0
  6
CONTINUOUS
 10
4.179560
 20
4.049320
  0
VERTEX
  8
0
  6
CONTINUOUS
 10
4.180440
 20
3.307480
  0
VERTEX
  8
0
  6
CONTINUOUS
 10
4.121480
 20
3.325520
  0
SEQEND
  8
0
  0
SOLID
  8
0
 62
    15
 10
4.180440
 20
3.307480
 11
4.179560
 21
4.049320
 12
4.233680
 22
3.285480
 13
4.232800
 23
4.027320
  0
POLYLINE
  8
0
  6
CONTINUOUS
 66
     1
 40
0.000000
 41
0.000000
  0
VERTEX
  8
0
  6
CONTINUOUS
 10
4.180440
 20
3.307480
  0
VERTEX
  8
0
  6
CONTINUOUS
 10
4.179560
 20
4.049320
  0
VERTEX
  8
0
  6
CONTINUOUS
 10
4.232800
 20
4.027320
  0
VERTEX
  8
0
  6
CONTINUOUS
 10
4.233680
 20
3.285480
  0
VERTEX
  8
0
  6
CONTINUOUS
 10
4.180440
 20
3.307480
  0
SEQEND
  8
0
  0
SOLID
  8
0
 62
    15
 10
4.233680
 20
3.285480
 11
4.232800
 21
4.027320
 12
4.282080
 22
3.259960
 13
4.281200
 23
4.001360
  0
POLYLINE
  8
0
  6
CONTINUOUS
 66
     1
 40
0.000000
 41
0.000000
  0
VERTEX
  8
0
  6
CONTINUOUS
 10
4.233680
 20
3.285480
  0
VERTEX
  8
0
  6
CONTINUOUS
 10
4.232800
 20
4.027320
  0
VERTEX
  8
0
  6
CONTINUOUS
 10
4.281200
 20
4.001360
  0
VERTEX
  8
0
  6
CONTINUOUS
 10
4.282080
 20
3.259960
  0
VERTEX
  8
0
  6
CONTINUOUS
 10
4.233680
 20
3.285480
  0
SEQEND
  8
0
  0
SOLID
  8
0
 62
    15
 10
4.282080
 20
3.259960
 11
4.281200
 21
4.001360
 12
4.325640
 22
3.230040
 13
4.324760
 23
3.971880
  0
POLYLINE
  8
0
  6
CONTINUOUS
 66
     1
 40
0.000000
 41
0.000000
  0
VERTEX
  8
0
  6
CONTINUOUS
 10
4.282080
 20
3.259960
  0
VERTEX
  8
0
  6
CONTINUOUS
 10
4.281200
 20
4.001360
  0
VERTEX
  8
0
  6
CONTINUOUS
 10
4.324760
 20
3.971880
  0
VERTEX
  8
0
  6
CONTINUOUS
 10
4.325640
 20
3.230040
  0
VERTEX
  8
0
  6
CONTINUOUS
 10
4.282080
 20
3.259960
  0
SEQEND
  8
0
  0
SOLID
  8
0
 62
    15
 10
4.325640
 20
3.230040
 11
4.324760
 21
3.971880
 12
4.364800
 22
3.197040
 13
4.363920
 23
3.938880
  0
POLYLINE
  8
0
  6
CONTINUOUS
 66
     1
 40
0.000000
 41
0.000000
  0
VERTEX
  8
0
  6
CONTINUOUS
 10
4.325640
 20
3.230040
  0
VERTEX
  8
0
  6
CONTINUOUS
 10
4.324760
 20
3.971880
  0
VERTEX
  8
0
  6
CONTINUOUS
 10
4.363920
 20
3.938880
  0
VERTEX
  8
0
  6
CONTINUOUS
 10
4.364800
 20
3.197040
  0
VERTEX
  8
0
  6
CONTINUOUS
 10
4.325640
 20
3.230040
  0
SEQEND
  8
0
  0
SOLID
  8
0
 62
    15
 10
4.364800
 20
3.197040
 11
4.363920
 21
3.938880
 12
4.400000
 22
3.160520
 13
4.399120
 23
3.901920
  0
POLYLINE
  8
0
  6
CONTINUOUS
 66
     1
 40
0.000000
 41
0.000000
  0
VERTEX
  8
0
  6
CONTINUOUS
 10
4.364800
 20
3.197040
  0
VERTEX
  8
0
  6
CONTINUOUS
 10
4.363920
 20
3.938880
  0
VERTEX
  8
0
  6
CONTINUOUS
 10
4.399120
 20
3.901920
  0
VERTEX
  8
0
  6
CONTINUOUS
 10
4.400000
 20
3.160520
  0
VERTEX
  8
0
  6
CONTINUOUS
 10
4.364800
 20
3.197040
  0
SEQEND
  8
0
  0
SOLID
  8
0
 62
    15
 10
4.400000
 20
3.160520
 11
4.399120
 21
3.901920
 12
4.431240
 22
3.120480
 13
4.430360
 23
3.861880
  0
POLYLINE
  8
0
  6
CONTINUOUS
 66
     1
 40
0.000000
 41
0.000000
  0
VERTEX
  8
0
  6
CONTINUOUS
 10
4.400000
 20
3.160520
  0
VERTEX
  8
0
  6
CONTINUOUS
 10
4.399120
 20
3.901920
  0
VERTEX
  8
0
  6
CONTINUOUS
 10
4.430360
 20
3.861880
  0
VERTEX
  8
0
  6
CONTINUOUS
 10
4.431240
 20
3.120480
  0
VERTEX
  8
0
  6
CONTINUOUS
 10
4.400000
 20
3.160520
  0
SEQEND
  8
0
  0
SOLID
  8
0
 62
    15
 10
4.431240
 20
3.120480
 11
4.430360
 21
3.861880
 12
4.459400
 22
3.077360
 13
4.458520
 23
3.818760
  0
POLYLINE
  8
0
  6
CONTINUOUS
 66
     1
 40
0.000000
 41
0.000000
  0
VERTEX
  8
0
  6
CONTINUOUS
 10
4.431240
 20
3.120480
  0
VERTEX
  8
0
  6
CONTINUOUS
 10
4.430360
 20
3.861880
  0
VERTEX
  8
0
  6
CONTINUOUS
 10
4.458520
 20
3.818760
  0
VERTEX
  8
0
  6
CONTINUOUS
 10
4.459400
 20
3.077360
  0
VERTEX
  8
0
  6
CONTINUOUS
 10
4.431240
 20
3.120480
  0
SEQEND
  8
0
  0
SOLID
  8
0
 62
    15
 10
4.459400
 20
3.077360
 11
4.458520
 21
3.818760
 12
4.484480
 22
3.030720
 13
4.483600
 23
3.772560
  0
POLYLINE
  8
0
  6
CONTINUOUS
 66
     1
 40
0.000000
 41
0.000000
  0
VERTEX
  8
0
  6
CONTINUOUS
 10
4.459400
 20
3.077360
  0
VERTEX
  8
0
  6
CONTINUOUS
 10
4.458520
 20
3.818760
  0
VERTEX
  8
0
  6
CONTINUOUS
 10
4.483600
 20
3.772560
  0
VERTEX
  8
0
  6
CONTINUOUS
 10
4.484480
 20
3.030720
  0
VERTEX
  8
0
  6
CONTINUOUS
 10
4.459400
 20
3.077360
  0
SEQEND
  8
0
  0
SOLID
  8
0
 62
    15
 10
4.484480
 20
3.030720
 11
4.483600
 21
3.772560
 12
4.527160
 22
2.929520
 13
4.526280
 23
3.670920
  0
POLYLINE
  8
0
  6
CONTINUOUS
 66
     1
 40
0.000000
 41
0.000000
  0
VERTEX
  8
0
  6
CONTINUOUS
 10
4.484480
 20
3.030720
  0
VERTEX
  8
0
  6
CONTINUOUS
 10
4.483600
 20
3.772560
  0
VERTEX
  8
0
  6
CONTINUOUS
 10
4.526280
 20
3.670920
  0
VERTEX
  8
0
  6
CONTINUOUS
 10
4.527160
 20
2.929520
  0
VERTEX
  8
0
  6
CONTINUOUS
 10
4.484480
 20
3.030720
  0
SEQEND
  8
0
  0
SOLID
  8
0
 62
    15
 10
4.527160
 20
2.929520
 11
4.526280
 21
3.670920
 12
4.561920
 22
2.816880
 13
4.561040
 23
3.558280
  0
POLYLINE
  8
0
  6
CONTINUOUS
 66
     1
 40
0.000000
 41
0.000000
  0
VERTEX
  8
0
  6
CONTINUOUS
 10
4.527160
 20
2.929520
  0
VERTEX
  8
0
  6
CONTINUOUS
 10
4.526280
 20
3.670920
  0
VERTEX
  8
0
  6
CONTINUOUS
 10
4.561040
 20
3.558280
  0
VERTEX
  8
0
  6
CONTINUOUS
 10
4.561920
 20
2.816880
  0
VERTEX
  8
0
  6
CONTINUOUS
 10
4.527160
 20
2.929520
  0
SEQEND
  8
0
  0
SOLID
  8
0
 62
    15
 10
3.894880
 20
3.500640
 11
3.894000
 21
4.242480
 12
3.909400
 22
3.354560
 13
3.908520
 23
4.096400
  0
POLYLINE
  8
0
  6
CONTINUOUS
 66
     1
 40
0.000000
 41
0.000000
  0
VERTEX
  8
0
  6
CONTINUOUS
 10
3.894880
 20
3.500640
  0
VERTEX
  8
0
  6
CONTINUOUS
 10
3.894000
 20
4.242480
  0
VERTEX
  8
0
  6
CONTINUOUS
 10
3.908520
 20
4.096400
  0
VERTEX
  8
0
  6
CONTINUOUS
 10
3.909400
 20
3.354560
  0
VERTEX
  8
0
  6
CONTINUOUS
 10
3.894880
 20
3.500640
  0
SEQEND
  8
0
  0
SOLID
  8
0
 62
    15
 10
4.578640
 20
2.816880
 11
4.578200
 21
3.558280
 12
4.581280
 22
2.840640
 13
4.580400
 23
3.582480
  0
POLYLINE
  8
0
  6
CONTINUOUS
 66
     1
 40
0.000000
 41
0.000000
  0
VERTEX
  8
0
  6
CONTINUOUS
 10
4.578640
 20
2.816880
  0
VERTEX
  8
0
  6
CONTINUOUS
 10
4.578200
 20
3.558280
  0
VERTEX
  8
0
  6
CONTINUOUS
 10
4.580400
 20
3.582480
  0
VERTEX
  8
0
  6
CONTINUOUS
 10
4.581280
 20
2.840640
  0
VERTEX
  8
0
  6
CONTINUOUS
 10
4.578640
 20
2.816880
  0
SEQEND
  8
0
  0
SOLID
  8
0
 62
    15
 10
4.581280
 20
2.840640
 11
4.580400
 21
3.582480
 12
4.587440
 22
2.861320
 13
4.586560
 23
3.603160
  0
POLYLINE
  8
0
  6
CONTINUOUS
 66
     1
 40
0.000000
 41
0.000000
  0
VERTEX
  8
0
  6
CONTINUOUS
 10
4.581280
 20
2.840640
  0
VERTEX
  8
0
  6
CONTINUOUS
 10
4.580400
 20
3.582480
  0
VERTEX
  8
0
  6
CONTINUOUS
 10
4.586560
 20
3.603160
  0
VERTEX
  8
0
  6
CONTINUOUS
 10
4.587440
 20
2.861320
  0
VERTEX
  8
0
  6
CONTINUOUS
 10
4.581280
 20
2.840640
  0
SEQEND
  8
0
  0
SOLID
  8
0
 62
    15
 10
4.587440
 20
2.861320
 11
4.586560
 21
3.603160
 12
4.597560
 22
2.878920
 13
4.596680
 23
3.620320
  0
POLYLINE
  8
0
  6
CONTINUOUS
 66
     1
 40
0.000000
 41
0.000000
  0
VERTEX
  8
0
  6
CONTINUOUS
 10
4.587440
 20
2.861320
  0
VERTEX
  8
0
  6
CONTINUOUS
 10
4.586560
 20
3.603160
  0
VERTEX
  8
0
  6
CONTINUOUS
 10
4.596680
 20
3.620320
  0
VERTEX
  8
0
  6
CONTINUOUS
 10
4.597560
 20
2.878920
  0
VERTEX
  8
0
  6
CONTINUOUS
 10
4.587440
 20
2.861320
  0
SEQEND
  8
0
  0
SOLID
  8
0
 62
    15
 10
4.597560
 20
2.878920
 11
4.596680
 21
3.620320
 12
4.610760
 22
2.893000
 13
4.609880
 23
3.634840
  0
POLYLINE
  8
0
  6
CONTINUOUS
 66
     1
 40
0.000000
 41
0.000000
  0
VERTEX
  8
0
  6
CONTINUOUS
 10
4.597560
 20
2.878920
  0
VERTEX
  8
0
  6
CONTINUOUS
 10
4.596680
 20
3.620320
  0
VERTEX
  8
0
  6
CONTINUOUS
 10
4.609880
 20
3.634840
  0
VERTEX
  8
0
  6
CONTINUOUS
 10
4.610760
 20
2.893000
  0
VERTEX
  8
0
  6
CONTINUOUS
 10
4.597560
 20
2.878920
  0
SEQEND
  8
0
  0
SOLID
  8
0
 62
    15
 10
4.610760
 20
2.893000
 11
4.609880
 21
3.634840
 12
4.643320
 22
2.911920
 13
4.642440
 23
3.653320
  0
POLYLINE
  8
0
  6
CONTINUOUS
 66
     1
 40
0.000000
 41
0.000000
  0
VERTEX
  8
0
  6
CONTINUOUS
 10
4.610760
 20
2.893000
  0
VERTEX
  8
0
  6
CONTINUOUS
 10
4.609880
 20
3.634840
  0
VERTEX
  8
0
  6
CONTINUOUS
 10
4.642440
 20
3.653320
  0
VERTEX
  8
0
  6
CONTINUOUS
 10
4.643320
 20
2.911920
  0
VERTEX
  8
0
  6
CONTINUOUS
 10
4.610760
 20
2.893000
  0
SEQEND
  8
0
  0
SOLID
  8
0
 62
    15
 10
4.643320
 20
2.911920
 11
4.642440
 21
3.653320
 12
4.680720
 22
2.917640
 13
4.679840
 23
3.659480
  0
POLYLINE
  8
0
  6
CONTINUOUS
 66
     1
 40
0.000000
 41
0.000000
  0
VERTEX
  8
0
  6
CONTINUOUS
 10
4.643320
 20
2.911920
  0
VERTEX
  8
0
  6
CONTINUOUS
 10
4.642440
 20
3.653320
  0
VERTEX
  8
0
  6
CONTINUOUS
 10
4.679840
 20
3.659480
  0
VERTEX
  8
0
  6
CONTINUOUS
 10
4.680720
 20
2.917640
  0
VERTEX
  8
0
  6
CONTINUOUS
 10
4.643320
 20
2.911920
  0
SEQEND
  8
0
  0
SOLID
  8
0
 62
    15
 10
4.680720
 20
2.917640
 11
4.679840
 21
3.659480
 12
4.718120
 22
2.911040
 13
4.717240
 23
3.652440
  0
POLYLINE
  8
0
  6
CONTINUOUS
 66
     1
 40
0.000000
 41
0.000000
  0
VERTEX
  8
0
  6
CONTINUOUS
 10
4.680720
 20
2.917640
  0
VERTEX
  8
0
  6
CONTINUOUS
 10
4.679840
 20
3.659480
  0
VERTEX
  8
0
  6
CONTINUOUS
 10
4.717240
 20
3.652440
  0
VERTEX
  8
0
  6
CONTINUOUS
 10
4.718120
 20
2.911040
  0
VERTEX
  8
0
  6
CONTINUOUS
 10
4.680720
 20
2.917640
  0
SEQEND
  8
0
  0
SOLID
  8
0
 62
    15
 10
4.718120
 20
2.911040
 11
4.717240
 21
3.652440
 12
4.750240
 22
2.891240
 13
4.749360
 23
3.633080
  0
POLYLINE
  8
0
  6
CONTINUOUS
 66
     1
 40
0.000000
 41
0.000000
  0
VERTEX
  8
0
  6
CONTINUOUS
 10
4.718120
 20
2.911040
  0
VERTEX
  8
0
  6
CONTINUOUS
 10
4.717240
 20
3.652440
  0
VERTEX
  8
0
  6
CONTINUOUS
 10
4.749360
 20
3.633080
  0
VERTEX
  8
0
  6
CONTINUOUS
 10
4.750240
 20
2.891240
  0
VERTEX
  8
0
  6
CONTINUOUS
 10
4.718120
 20
2.911040
  0
SEQEND
  8
0
  0
SOLID
  8
0
 62
    15
 10
4.750240
 20
2.891240
 11
4.749360
 21
3.633080
 12
4.763000
 22
2.876720
 13
4.762120
 23
3.618560
  0
POLYLINE
  8
0
  6
CONTINUOUS
 66
     1
 40
0.000000
 41
0.000000
  0
VERTEX
  8
0
  6
CONTINUOUS
 10
4.750240
 20
2.891240
  0
VERTEX
  8
0
  6
CONTINUOUS
 10
4.749360
 20
3.633080
  0
VERTEX
  8
0
  6
CONTINUOUS
 10
4.762120
 20
3.618560
  0
VERTEX
  8
0
  6
CONTINUOUS
 10
4.763000
 20
2.876720
  0
VERTEX
  8
0
  6
CONTINUOUS
 10
4.750240
 20
2.891240
  0
SEQEND
  8
0
  0
SOLID
  8
0
 62
    15
 10
4.763000
 20
2.876720
 11
4.762120
 21
3.618560
 12
4.772680
 22
2.859120
 13
4.771800
 23
3.600960
  0
POLYLINE
  8
0
  6
CONTINUOUS
 66
     1
 40
0.000000
 41
0.000000
  0
VERTEX
  8
0
  6
CONTINUOUS
 10
4.763000
 20
2.876720
  0
VERTEX
  8
0
  6
CONTINUOUS
 10
4.762120
 20
3.618560
  0
VERTEX
  8
0
  6
CONTINUOUS
 10
4.771800
 20
3.600960
  0
VERTEX
  8
0
  6
CONTINUOUS
 10
4.772680
 20
2.859120
  0
VERTEX
  8
0
  6
CONTINUOUS
 10
4.763000
 20
2.876720
  0
SEQEND
  8
0
  0
SOLID
  8
0
 62
    15
 10
4.772680
 20
2.859120
 11
4.771800
 21
3.600960
 12
4.778840
 22
2.838440
 13
4.777960
 23
3.579840
  0
POLYLINE
  8
0
  6
CONTINUOUS
 66
     1
 40
0.000000
 41
0.000000
  0
VERTEX
  8
0
  6
CONTINUOUS
 10
4.772680
 20
2.859120
  0
VERTEX
  8
0
  6
CONTINUOUS
 10
4.771800
 20
3.600960
  0
VERTEX
  8
0
  6
CONTINUOUS
 10
4.777960
 20
3.579840
  0
VERTEX
  8
0
  6
CONTINUOUS
 10
4.778840
 20
2.838440
  0
VERTEX
  8
0
  6
CONTINUOUS
 10
4.772680
 20
2.859120
  0
SEQEND
  8
0
  0
SOLID
  8
0
 62
    15
 10
4.778840
 20
2.838440
 11
4.777960
 21
3.579840
 12
4.781040
 22
2.814240
 13
4.780160
 23
3.556080
  0
POLYLINE
  8
0
  6
CONTINUOUS
 66
     1
 40
0.000000
 41
0.000000
  0
VERTEX
  8
0
  6
CONTINUOUS
 10
4.778840
 20
2.838440
  0
VERTEX
  8
0
  6
CONTINUOUS
 10
4.777960
 20
3.579840
  0
VERTEX
  8
0
  6
CONTINUOUS
 10
4.780160
 20
3.556080
  0
VERTEX
  8
0
  6
CONTINUOUS
 10
4.781040
 20
2.814240
  0
VERTEX
  8
0
  6
CONTINUOUS
 10
4.778840
 20
2.838440
  0
SEQEND
  8
0
  0
SOLID
  8
0
 62
    15
 10
4.781040
 20
2.814240
 11
4.780160
 21
3.556080
 12
4.934160
 22
2.814240
 13
4.933280
 23
3.556080
  0
POLYLINE
  8
0
  6
CONTINUOUS
 66
     1
 40
0.000000
 41
0.000000
  0
VERTEX
  8
0
  6
CONTINUOUS
 10
4.781040
 20
2.814240
  0
VERTEX
  8
0
  6
CONTINUOUS
 10
4.780160
 20
3.556080
  0
VERTEX
  8
0
  6
CONTINUOUS
 10
4.933280
 20
3.556080
  0
VERTEX
  8
0
  6
CONTINUOUS
 10
4.934160
 20
2.814240
  0
VERTEX
  8
0
  6
CONTINUOUS
 10
4.781040
 20
2.814240
  0
SEQEND
  8
0
  0
SOLID
  8
0
 62
    15
 10
3.337840
 20
2.668160
 11
3.336960
 21
3.410000
 12
3.337840
 22
3.500640
 13
3.336960
 23
4.242480
  0
POLYLINE
  8
0
  6
CONTINUOUS
 66
     1
 40
0.000000
 41
0.000000
  0
VERTEX
  8
0
  6
CONTINUOUS
 10
3.337840
 20
2.668160
  0
VERTEX
  8
0
  6
CONTINUOUS
 10
3.336960
 20
3.410000
  0
VERTEX
  8
0
  6
CONTINUOUS
 10
3.336960
 20
4.242480
  0
VERTEX
  8
0
  6
CONTINUOUS
 10
3.337840
 20
3.500640
  0
VERTEX
  8
0
  6
CONTINUOUS
 10
3.337840
 20
2.668160
  0
SEQEND
  8
0
  0
SOLID
  8
0
 62
    15
 10
3.337840
 20
3.500640
 11
3.336960
 21
4.242480
 12
3.894880
 22
3.500640
 13
3.894000
 23
4.242480
  0
POLYLINE
  8
0
  6
CONTINUOUS
 66
     1
 40
0.000000
 41
0.000000
  0
VERTEX
  8
0
  6
CONTINUOUS
 10
3.337840
 20
3.500640
  0
VERTEX
  8
0
  6
CONTINUOUS
 10
3.336960
 20
4.242480
  0
VERTEX
  8
0
  6
CONTINUOUS
 10
3.894000
 20
4.242480
  0
VERTEX
  8
0
  6
CONTINUOUS
 10
3.894880
 20
3.500640
  0
VERTEX
  8
0
  6
CONTINUOUS
 10
3.337840
 20
3.500640
  0
SEQEND
  8
0
  0
POLYLINE
  8
0
  6
CONTINUOUS
 66
     1
 40
0.000000
 41
0.000000
  0
VERTEX
  8
0
  6
CONTINUOUS
 10
3.894880
 20
3.500640
  0
VERTEX
  8
0
  6
CONTINUOUS
 10
3.909400
 20
3.354560
  0
VERTEX
  8
0
  6
CONTINUOUS
 10
3.986400
 20
3.349280
  0
VERTEX
  8
0
  6
CONTINUOUS
 10
4.057240
 20
3.339600
  0
VERTEX
  8
0
  6
CONTINUOUS
 10
4.121480
 20
3.325520
  0
VERTEX
  8
0
  6
CONTINUOUS
 10
4.180440
 20
3.307480
  0
VERTEX
  8
0
  6
CONTINUOUS
 10
4.233680
 20
3.285480
  0
VERTEX
  8
0
  6
CONTINUOUS
 10
4.282080
 20
3.259960
  0
VERTEX
  8
0
  6
CONTINUOUS
 10
4.325640
 20
3.230040
  0
VERTEX
  8
0
  6
CONTINUOUS
 10
4.364800
 20
3.197040
  0
VERTEX
  8
0
  6
CONTINUOUS
 10
4.400000
 20
3.160520
  0
VERTEX
  8
0
  6
CONTINUOUS
 10
4.431240
 20
3.120480
  0
VERTEX
  8
0
  6
CONTINUOUS
 10
4.459400
 20
3.077360
  0
VERTEX
  8
0
  6
CONTINUOUS
 10
4.484480
 20
3.030720
  0
VERTEX
  8
0
  6
CONTINUOUS
 10
4.527160
 20
2.929520
  0
VERTEX
  8
0
  6
CONTINUOUS
 10
4.561920
 20
2.816880
  0
VERTEX
  8
0
  6
CONTINUOUS
 10
4.578640
 20
2.816880
  0
VERTEX
  8
0
  6
CONTINUOUS
 10
4.581280
 20
2.840640
  0
VERTEX
  8
0
  6
CONTINUOUS
 10
4.587440
 20
2.861320
  0
VERTEX
  8
0
  6
CONTINUOUS
 10
4.597560
 20
2.878920
  0
VERTEX
  8
0
  6
CONTINUOUS
 10
4.610760
 20
2.893000
  0
VERTEX
  8
0
  6
CONTINUOUS
 10
4.643320
 20
2.911920
  0
VERTEX
  8
0
  6
CONTINUOUS
 10
4.680720
 20
2.917640
  0
VERTEX
  8
0
  6
CONTINUOUS
 10
4.718120
 20
2.911040
  0
VERTEX
  8
0
  6
CONTINUOUS
 10
4.750240
 20
2.891240
  0
VERTEX
  8
0
  6
CONTINUOUS
 10
4.763000
 20
2.876720
  0
VERTEX
  8
0
  6
CONTINUOUS
 10
4.772680
 20
2.859120
  0
VERTEX
  8
0
  6
CONTINUOUS
 10
4.778840
 20
2.838440
  0
VERTEX
  8
0
  6
CONTINUOUS
 10
4.781040
 20
2.814240
  0
VERTEX
  8
0
  6
CONTINUOUS
 10
4.934160
 20
2.814240
  0
VERTEX
  8
0
  6
CONTINUOUS
 10
4.934160
 20
2.668160
  0
VERTEX
  8
0
  6
CONTINUOUS
 10
3.337840
 20
2.668160
  0
VERTEX
  8
0
  6
CONTINUOUS
 10
3.337840
 20
3.500640
  0
VERTEX
  8
0
  6
CONTINUOUS
 10
3.894880
 20
3.500640
  0
SEQEND
  8
0
  0
TEXT
  8
0
 10
5.312560
 20
4.239400
 40
0.138174
  1
back band
 41
1.000000
  7
SN0
 71
     0
 72
     5
 11
6.077666
 21
4.239400
  0
ENDSEC
  0
EOF
