  0
SECTION
  2
HEADER
  9
$ACADVER
  1
AC1006
  9
$EXTMIN
 10
1.390840
 20
1.085920
  9
$EXTMAX
 10
7.127560
 20
9.116360
  9
$LTSCALE
 40
0.044000
  9
$PDMODE
 70
    35
  9
$PDSIZE
 40
0.035200
  0
ENDSEC
  0
SECTION
  2
TABLES
  0
TABLE
  2
LTYPE
 70
     9
  0
LTYPE
  2
CONTINUOUS
 70
    64
  3
Solid line
 72
    65
 73
     0
 40
0.000000
  0
LTYPE
  2
DASHED
 70
    64
  3
__ __ __ __ __ __ __ __ __ __ __ __ __ __ __
 72
    65
 73
     2
 40
0.000330
 49
0.000220
 49
-0.000110
  0
LTYPE
  2
HIDDEN
 70
    64
  3
 _ _ _ _ _ _ _ _ _ _ _ _ _ _ _ _ _ _ _ _ _ _
 72
    65
 73
     2
 40
0.000165
 49
0.000110
 49
-0.000055
  0
LTYPE
  2
CENTER
 70
    64
  3
____ _ ____ _ ____ _ ____ _ ____ _ ____ _ ____
 72
    65
 73
     4
 40
0.000880
 49
0.000550
 49
-0.000110
 49
0.000110
 49
-0.000110
  0
LTYPE
  2
PHANTOM
 70
    64
  3
_____ _ _ _____ _ _ _____ _ _ _____ _ _ ____
 72
    65
 73
     6
 40
0.001100
 49
0.000550
 49
-0.000110
 49
0.000110
 49
-0.000110
 49
0.000110
 49
-0.000110
  0
LTYPE
  2
DOT
 70
    64
  3
...............................................
 72
    65
 73
     2
 40
0.000110
 49
0.000000
 49
-0.000110
  0
LTYPE
  2
DASHDOT
 70
    64
  3
__ . __ . __ . __ . __ . __ . __ . __ . __ . __
 72
    65
 73
     4
 40
0.000440
 49
0.000220
 49
-0.000110
 49
0.000000
 49
-0.000110
  0
LTYPE
  2
BORDER
 70
    64
  3
__ __ . __ __ . __ __ . __ __ . __ __ . __ __
 72
    65
 73
     6
 40
0.000770
 49
0.000220
 49
-0.000110
 49
0.000220
 49
-0.000110
 49
0.000000
 49
-0.000110
  0
LTYPE
  2
DIVIDE
 70
    64
  3
__ . . __ . . __ . . __ . . __ . . __ . . __
 72
    65
 73
     6
 40
0.000550
 49
0.000220
 49
-0.000110
 49
0.000000
 49
-0.000110
 49
0.000000
 49
-0.000110
  0
LTYPE
  2
DOTDOT
 70
    64
  3
 . .  . .  . .  . .  . .  . . 
 72
    65
 73
     5
 40
0.000242
 49
-0.000110
 49
0.000000
 49
-0.000110
 49
0.000000
 49
-0.000110
  0
ENDTAB
  0
TABLE
  2
STYLE
 70
     2
  0
STYLE
 70
     0
  2
SN0
 40
0.000000
 41
0.000440
 50
0.000000
 71
     0
 42
0.000000
  3
ROMAND
  0
STYLE
 70
    68
  2
SV0
 40
0.000000
 41
0.000440
 50
0.000000
 71
     0
 42
0.000000
  3
ROMAND
  0
ENDTAB
  0
TABLE
  2
LAYER
 70
     3
  0
LAYER
  2
FOREGROUND
 70
    64
 62
     7
  6
CONTINUOUS
  0
LAYER
  2
BACKGROUND
 70
    65
 62
    -7
  6
CONTINUOUS
  0
LAYER
  2
0
 70
    64
 62
     7
  6
CONTINUOUS
  0
ENDTAB
  0
ENDSEC
  0
SECTION
  2
ENTITIES
  0
POLYLINE
  8
FOREGROUND
  6
CONTINUOUS
 66
     1
 40
0.000000
 41
0.000000
  0
VERTEX
  8
FOREGROUND
  6
CONTINUOUS
 10
0.000000
 20
10.202280
  0
VERTEX
  8
FOREGROUND
  6
CONTINUOUS
 10
8.499920
 20
10.202280
  0
VERTEX
  8
FOREGROUND
  6
CONTINUOUS
 10
8.499920
 20
-0.797720
  0
VERTEX
  8
FOREGROUND
  6
CONTINUOUS
 10
0.000000
 20
-0.797720
  0
VERTEX
  8
FOREGROUND
  6
CONTINUOUS
 10
0.000000
 20
10.202280
  0
SEQEND
  8
0
  0
POLYLINE
  8
FOREGROUND
  6
CONTINUOUS
 66
     1
 40
0.000000
 41
0.000000
  0
VERTEX
  8
FOREGROUND
  6
CONTINUOUS
 10
0.000000
 20
10.202280
  0
VERTEX
  8
FOREGROUND
  6
CONTINUOUS
 10
8.499920
 20
10.202280
  0
VERTEX
  8
FOREGROUND
  6
CONTINUOUS
 10
8.499920
 20
-0.797720
  0
VERTEX
  8
FOREGROUND
  6
CONTINUOUS
 10
0.000000
 20
-0.797720
  0
VERTEX
  8
FOREGROUND
  6
CONTINUOUS
 10
0.000000
 20
10.202280
  0
SEQEND
  8
0
  0
POLYLINE
  8
0
  6
CONTINUOUS
 66
     1
 40
0.014080
 41
0.014080
  0
VERTEX
  8
0
  6
CONTINUOUS
 10
3.370840
 20
7.906360
  0
VERTEX
  8
0
  6
CONTINUOUS
 10
3.370840
 20
8.759960
  0
VERTEX
  8
0
  6
CONTINUOUS
 10
3.524400
 20
9.045960
  0
VERTEX
  8
0
  6
CONTINUOUS
 10
3.531880
 20
9.056960
  0
VERTEX
  8
0
  6
CONTINUOUS
 10
3.550360
 20
9.075440
  0
VERTEX
  8
0
  6
CONTINUOUS
 10
3.560480
 20
9.083360
  0
VERTEX
  8
0
  6
CONTINUOUS
 10
3.583800
 20
9.095680
  0
VERTEX
  8
0
  6
CONTINUOUS
 10
3.609320
 20
9.103600
  0
VERTEX
  8
0
  6
CONTINUOUS
 10
3.636600
 20
9.108000
  0
VERTEX
  8
0
  6
CONTINUOUS
 10
3.664760
 20
9.108000
  0
VERTEX
  8
0
  6
CONTINUOUS
 10
3.693360
 20
9.104480
  0
VERTEX
  8
0
  6
CONTINUOUS
 10
3.721960
 20
9.097000
  0
VERTEX
  8
0
  6
CONTINUOUS
 10
3.749680
 20
9.086000
  0
VERTEX
  8
0
  6
CONTINUOUS
 10
3.775640
 20
9.071480
  0
VERTEX
  8
0
  6
CONTINUOUS
 10
3.799400
 20
9.053440
  0
VERTEX
  8
0
  6
CONTINUOUS
 10
3.820520
 20
9.031880
  0
VERTEX
  8
0
  6
CONTINUOUS
 10
3.838120
 20
9.007240
  0
VERTEX
  8
0
  6
CONTINUOUS
 10
3.851320
 20
8.979520
  0
VERTEX
  8
0
  6
CONTINUOUS
 10
3.859680
 20
8.948720
  0
VERTEX
  8
0
  6
CONTINUOUS
 10
3.876400
 20
8.787680
  0
VERTEX
  8
0
  6
CONTINUOUS
 10
3.884760
 20
8.767440
  0
VERTEX
  8
0
  6
CONTINUOUS
 10
3.898840
 20
8.745440
  0
VERTEX
  8
0
  6
CONTINUOUS
 10
3.917320
 20
8.724320
  0
VERTEX
  8
0
  6
CONTINUOUS
 10
3.938880
 20
8.704520
  0
VERTEX
  8
0
  6
CONTINUOUS
 10
3.974080
 20
8.680760
  0
VERTEX
  8
0
  6
CONTINUOUS
 10
3.997400
 20
8.671080
  0
VERTEX
  8
0
  6
CONTINUOUS
 10
4.008840
 20
8.668440
  0
VERTEX
  8
0
  6
CONTINUOUS
 10
4.019400
 20
8.667560
  0
VERTEX
  8
0
  6
CONTINUOUS
 10
6.756200
 20
8.650400
  0
VERTEX
  8
0
  6
CONTINUOUS
 10
6.761040
 20
8.547000
  0
VERTEX
  8
0
  6
CONTINUOUS
 10
6.791400
 20
8.549640
  0
VERTEX
  8
0
  6
CONTINUOUS
 10
6.817800
 20
8.548760
  0
VERTEX
  8
0
  6
CONTINUOUS
 10
6.840680
 20
8.545240
  0
VERTEX
  8
0
  6
CONTINUOUS
 10
6.868400
 20
8.534680
  0
VERTEX
  8
0
  6
CONTINUOUS
 10
6.889960
 20
8.519280
  0
VERTEX
  8
0
  6
CONTINUOUS
 10
6.900960
 20
8.507400
  0
VERTEX
  8
0
  6
CONTINUOUS
 10
6.916800
 20
8.480560
  0
VERTEX
  8
0
  6
CONTINUOUS
 10
6.926040
 20
8.452840
  0
VERTEX
  8
0
  6
CONTINUOUS
 10
6.940120
 20
8.378040
  0
VERTEX
  8
0
  6
CONTINUOUS
 10
6.945840
 20
8.359560
  0
VERTEX
  8
0
  6
CONTINUOUS
 10
6.955960
 20
8.340640
  0
VERTEX
  8
0
  6
CONTINUOUS
 10
6.973120
 20
8.322600
  0
VERTEX
  8
0
  6
CONTINUOUS
 10
6.992040
 20
8.311160
  0
VERTEX
  8
0
  6
CONTINUOUS
 10
7.016680
 20
8.301920
  0
VERTEX
  8
0
  6
CONTINUOUS
 10
7.048800
 20
8.295760
  0
VERTEX
  8
0
  6
CONTINUOUS
 10
7.088400
 20
8.293560
  0
VERTEX
  8
0
  6
CONTINUOUS
 10
7.120080
 20
8.294880
  0
VERTEX
  8
0
  6
CONTINUOUS
 10
7.120080
 20
7.906360
  0
VERTEX
  8
0
  6
CONTINUOUS
 10
3.370840
 20
7.906360
  0
SEQEND
  8
0
  0
POLYLINE
  8
0
  6
CONTINUOUS
 66
     1
 40
0.000000
 41
0.000000
  0
VERTEX
  8
0
  6
CONTINUOUS
 10
6.508480
 20
2.493920
  0
VERTEX
  8
0
  6
CONTINUOUS
 10
6.508480
 20
3.347520
  0
VERTEX
  8
0
  6
CONTINUOUS
 10
6.354920
 20
3.633960
  0
VERTEX
  8
0
  6
CONTINUOUS
 10
6.338640
 20
3.654640
  0
VERTEX
  8
0
  6
CONTINUOUS
 10
6.318840
 20
3.671360
  0
VERTEX
  8
0
  6
CONTINUOUS
 10
6.295520
 20
3.683240
  0
VERTEX
  8
0
  6
CONTINUOUS
 10
6.270000
 20
3.691600
  0
VERTEX
  8
0
  6
CONTINUOUS
 10
6.242720
 20
3.695560
  0
VERTEX
  8
0
  6
CONTINUOUS
 10
6.214560
 20
3.695560
  0
VERTEX
  8
0
  6
CONTINUOUS
 10
6.185960
 20
3.692040
  0
VERTEX
  8
0
  6
CONTINUOUS
 10
6.157360
 20
3.684560
  0
VERTEX
  8
0
  6
CONTINUOUS
 10
6.129640
 20
3.673560
  0
VERTEX
  8
0
  6
CONTINUOUS
 10
6.103680
 20
3.659040
  0
VERTEX
  8
0
  6
CONTINUOUS
 10
6.079920
 20
3.641000
  0
VERTEX
  8
0
  6
CONTINUOUS
 10
6.058800
 20
3.619440
  0
VERTEX
  8
0
  6
CONTINUOUS
 10
6.041200
 20
3.594800
  0
VERTEX
  8
0
  6
CONTINUOUS
 10
6.028000
 20
3.567080
  0
VERTEX
  8
0
  6
CONTINUOUS
 10
6.019640
 20
3.536280
  0
VERTEX
  8
0
  6
CONTINUOUS
 10
6.002920
 20
3.375240
  0
VERTEX
  8
0
  6
CONTINUOUS
 10
5.994560
 20
3.355000
  0
VERTEX
  8
0
  6
CONTINUOUS
 10
5.980480
 20
3.333000
  0
VERTEX
  8
0
  6
CONTINUOUS
 10
5.962000
 20
3.311880
  0
VERTEX
  8
0
  6
CONTINUOUS
 10
5.940440
 20
3.292080
  0
VERTEX
  8
0
  6
CONTINUOUS
 10
5.905240
 20
3.268320
  0
VERTEX
  8
0
  6
CONTINUOUS
 10
5.881920
 20
3.258640
  0
VERTEX
  8
0
  6
CONTINUOUS
 10
5.870480
 20
3.256000
  0
VERTEX
  8
0
  6
CONTINUOUS
 10
5.859920
 20
3.255120
  0
VERTEX
  8
0
  6
CONTINUOUS
 10
3.123120
 20
3.238400
  0
VERTEX
  8
0
  6
CONTINUOUS
 10
3.118280
 20
3.134560
  0
VERTEX
  8
0
  6
CONTINUOUS
 10
3.087920
 20
3.137200
  0
VERTEX
  8
0
  6
CONTINUOUS
 10
3.061520
 20
3.136320
  0
VERTEX
  8
0
  6
CONTINUOUS
 10
3.039080
 20
3.132800
  0
VERTEX
  8
0
  6
CONTINUOUS
 10
3.010920
 20
3.122240
  0
VERTEX
  8
0
  6
CONTINUOUS
 10
2.989360
 20
3.106840
  0
VERTEX
  8
0
  6
CONTINUOUS
 10
2.978360
 20
3.094960
  0
VERTEX
  8
0
  6
CONTINUOUS
 10
2.962520
 20
3.068120
  0
VERTEX
  8
0
  6
CONTINUOUS
 10
2.953280
 20
3.040400
  0
VERTEX
  8
0
  6
CONTINUOUS
 10
2.939200
 20
2.965600
  0
VERTEX
  8
0
  6
CONTINUOUS
 10
2.933480
 20
2.947120
  0
VERTEX
  8
0
  6
CONTINUOUS
 10
2.923360
 20
2.928200
  0
VERTEX
  8
0
  6
CONTINUOUS
 10
2.915880
 20
2.918960
  0
VERTEX
  8
0
  6
CONTINUOUS
 10
2.900480
 20
2.906200
  0
VERTEX
  8
0
  6
CONTINUOUS
 10
2.879800
 20
2.895200
  0
VERTEX
  8
0
  6
CONTINUOUS
 10
2.852960
 20
2.887280
  0
VERTEX
  8
0
  6
CONTINUOUS
 10
2.830520
 20
2.883320
  0
VERTEX
  8
0
  6
CONTINUOUS
 10
2.790920
 20
2.881120
  0
VERTEX
  8
0
  6
CONTINUOUS
 10
2.759240
 20
2.882440
  0
VERTEX
  8
0
  6
CONTINUOUS
 10
2.759240
 20
2.493920
  0
VERTEX
  8
0
  6
CONTINUOUS
 10
6.508480
 20
2.493920
  0
SEQEND
  8
0
  0
POLYLINE
  8
0
  6
CONTINUOUS
 66
     1
 40
0.000000
 41
0.000000
  0
VERTEX
  8
0
  6
CONTINUOUS
 10
2.628120
 20
1.086360
  0
VERTEX
  8
0
  6
CONTINUOUS
 10
2.628120
 20
1.939960
  0
VERTEX
  8
0
  6
CONTINUOUS
 10
2.781680
 20
2.226400
  0
VERTEX
  8
0
  6
CONTINUOUS
 10
2.789160
 20
2.237400
  0
VERTEX
  8
0
  6
CONTINUOUS
 10
2.807640
 20
2.255880
  0
VERTEX
  8
0
  6
CONTINUOUS
 10
2.829200
 20
2.270400
  0
VERTEX
  8
0
  6
CONTINUOUS
 10
2.853840
 20
2.280520
  0
VERTEX
  8
0
  6
CONTINUOUS
 10
2.880240
 20
2.286680
  0
VERTEX
  8
0
  6
CONTINUOUS
 10
2.907960
 20
2.288440
  0
VERTEX
  8
0
  6
CONTINUOUS
 10
2.936560
 20
2.286680
  0
VERTEX
  8
0
  6
CONTINUOUS
 10
2.965160
 20
2.281400
  0
VERTEX
  8
0
  6
CONTINUOUS
 10
2.993320
 20
2.272160
  0
VERTEX
  8
0
  6
CONTINUOUS
 10
3.020160
 20
2.259400
  0
VERTEX
  8
0
  6
CONTINUOUS
 10
3.045240
 20
2.242680
  0
VERTEX
  8
0
  6
CONTINUOUS
 10
3.067680
 20
2.223320
  0
VERTEX
  8
0
  6
CONTINUOUS
 10
3.087040
 20
2.200000
  0
VERTEX
  8
0
  6
CONTINUOUS
 10
3.102440
 20
2.174040
  0
VERTEX
  8
0
  6
CONTINUOUS
 10
3.113440
 20
2.144560
  0
VERTEX
  8
0
  6
CONTINUOUS
 10
3.119160
 20
2.112000
  0
VERTEX
  8
0
  6
CONTINUOUS
 10
3.120040
 20
2.094840
  0
VERTEX
  8
0
  6
CONTINUOUS
 10
3.134120
 20
1.967680
  0
VERTEX
  8
0
  6
CONTINUOUS
 10
3.142040
 20
1.947440
  0
VERTEX
  8
0
  6
CONTINUOUS
 10
3.156120
 20
1.925440
  0
VERTEX
  8
0
  6
CONTINUOUS
 10
3.185160
 20
1.894200
  0
VERTEX
  8
0
  6
CONTINUOUS
 10
3.207600
 20
1.875720
  0
VERTEX
  8
0
  6
CONTINUOUS
 10
3.231360
 20
1.860760
  0
VERTEX
  8
0
  6
CONTINUOUS
 10
3.254680
 20
1.851080
  0
VERTEX
  8
0
  6
CONTINUOUS
 10
3.266120
 20
1.848440
  0
VERTEX
  8
0
  6
CONTINUOUS
 10
3.276680
 20
1.847560
  0
VERTEX
  8
0
  6
CONTINUOUS
 10
6.013920
 20
1.830840
  0
VERTEX
  8
0
  6
CONTINUOUS
 10
6.018320
 20
1.727000
  0
VERTEX
  8
0
  6
CONTINUOUS
 10
6.048680
 20
1.729640
  0
VERTEX
  8
0
  6
CONTINUOUS
 10
6.075080
 20
1.728760
  0
VERTEX
  8
0
  6
CONTINUOUS
 10
6.097960
 20
1.725240
  0
VERTEX
  8
0
  6
CONTINUOUS
 10
6.125680
 20
1.714680
  0
VERTEX
  8
0
  6
CONTINUOUS
 10
6.147240
 20
1.699280
  0
VERTEX
  8
0
  6
CONTINUOUS
 10
6.158240
 20
1.687400
  0
VERTEX
  8
0
  6
CONTINUOUS
 10
6.174080
 20
1.660560
  0
VERTEX
  8
0
  6
CONTINUOUS
 10
6.183320
 20
1.632840
  0
VERTEX
  8
0
  6
CONTINUOUS
 10
6.197840
 20
1.558040
  0
VERTEX
  8
0
  6
CONTINUOUS
 10
6.203120
 20
1.539560
  0
VERTEX
  8
0
  6
CONTINUOUS
 10
6.213680
 20
1.520640
  0
VERTEX
  8
0
  6
CONTINUOUS
 10
6.230400
 20
1.502600
  0
VERTEX
  8
0
  6
CONTINUOUS
 10
6.249320
 20
1.491160
  0
VERTEX
  8
0
  6
CONTINUOUS
 10
6.273960
 20
1.481920
  0
VERTEX
  8
0
  6
CONTINUOUS
 10
6.306080
 20
1.475760
  0
VERTEX
  8
0
  6
CONTINUOUS
 10
6.345680
 20
1.473560
  0
VERTEX
  8
0
  6
CONTINUOUS
 10
6.377360
 20
1.474880
  0
VERTEX
  8
0
  6
CONTINUOUS
 10
6.377360
 20
1.086360
  0
VERTEX
  8
0
  6
CONTINUOUS
 10
2.628120
 20
1.086360
  0
SEQEND
  8
0
  0
SOLID
  8
0
 62
    15
 10
2.166120
 20
6.898320
 11
2.907080
 21
6.903600
 12
2.156440
 22
6.875000
 13
2.897400
 23
6.880280
  0
POLYLINE
  8
0
  6
CONTINUOUS
 66
     1
 40
0.000000
 41
0.000000
  0
VERTEX
  8
0
  6
CONTINUOUS
 10
2.166120
 20
6.898320
  0
VERTEX
  8
0
  6
CONTINUOUS
 10
2.907080
 20
6.903600
  0
VERTEX
  8
0
  6
CONTINUOUS
 10
2.897400
 20
6.880280
  0
VERTEX
  8
0
  6
CONTINUOUS
 10
2.156440
 20
6.875000
  0
VERTEX
  8
0
  6
CONTINUOUS
 10
2.166120
 20
6.898320
  0
SEQEND
  8
0
  0
SOLID
  8
0
 62
    15
 10
1.391720
 20
7.501560
 11
2.132680
 21
7.506840
 12
2.245320
 22
7.501560
 13
2.986280
 23
7.506840
  0
POLYLINE
  8
0
  6
CONTINUOUS
 66
     1
 40
0.000000
 41
0.000000
  0
VERTEX
  8
0
  6
CONTINUOUS
 10
1.391720
 20
7.501560
  0
VERTEX
  8
0
  6
CONTINUOUS
 10
2.132680
 20
7.506840
  0
VERTEX
  8
0
  6
CONTINUOUS
 10
2.986280
 20
7.506840
  0
VERTEX
  8
0
  6
CONTINUOUS
 10
2.245320
 20
7.501560
  0
VERTEX
  8
0
  6
CONTINUOUS
 10
1.391720
 20
7.501560
  0
SEQEND
  8
0
  0
SOLID
  8
0
 62
    15
 10
2.531320
 20
7.348000
 11
3.272720
 21
7.353280
 12
2.568720
 22
7.311920
 13
3.309680
 23
7.317200
  0
POLYLINE
  8
0
  6
CONTINUOUS
 66
     1
 40
0.000000
 41
0.000000
  0
VERTEX
  8
0
  6
CONTINUOUS
 10
2.531320
 20
7.348000
  0
VERTEX
  8
0
  6
CONTINUOUS
 10
3.272720
 20
7.353280
  0
VERTEX
  8
0
  6
CONTINUOUS
 10
3.309680
 20
7.317200
  0
VERTEX
  8
0
  6
CONTINUOUS
 10
2.568720
 20
7.311920
  0
VERTEX
  8
0
  6
CONTINUOUS
 10
2.531320
 20
7.348000
  0
SEQEND
  8
0
  0
SOLID
  8
0
 62
    15
 10
2.568720
 20
7.311920
 11
3.309680
 21
7.317200
 12
2.588960
 22
7.263080
 13
3.330360
 23
7.268360
  0
POLYLINE
  8
0
  6
CONTINUOUS
 66
     1
 40
0.000000
 41
0.000000
  0
VERTEX
  8
0
  6
CONTINUOUS
 10
2.568720
 20
7.311920
  0
VERTEX
  8
0
  6
CONTINUOUS
 10
3.309680
 20
7.317200
  0
VERTEX
  8
0
  6
CONTINUOUS
 10
3.330360
 20
7.268360
  0
VERTEX
  8
0
  6
CONTINUOUS
 10
2.588960
 20
7.263080
  0
VERTEX
  8
0
  6
CONTINUOUS
 10
2.568720
 20
7.311920
  0
SEQEND
  8
0
  0
SOLID
  8
0
 62
    15
 10
2.588960
 20
7.263080
 11
3.330360
 21
7.268360
 12
2.593360
 22
7.207640
 13
3.334760
 23
7.212920
  0
POLYLINE
  8
0
  6
CONTINUOUS
 66
     1
 40
0.000000
 41
0.000000
  0
VERTEX
  8
0
  6
CONTINUOUS
 10
2.588960
 20
7.263080
  0
VERTEX
  8
0
  6
CONTINUOUS
 10
3.330360
 20
7.268360
  0
VERTEX
  8
0
  6
CONTINUOUS
 10
3.334760
 20
7.212920
  0
VERTEX
  8
0
  6
CONTINUOUS
 10
2.593360
 20
7.207640
  0
VERTEX
  8
0
  6
CONTINUOUS
 10
2.588960
 20
7.263080
  0
SEQEND
  8
0
  0
SOLID
  8
0
 62
    15
 10
2.593360
 20
7.207640
 11
3.334760
 21
7.212920
 12
2.582360
 22
7.150440
 13
3.323760
 23
7.155720
  0
POLYLINE
  8
0
  6
CONTINUOUS
 66
     1
 40
0.000000
 41
0.000000
  0
VERTEX
  8
0
  6
CONTINUOUS
 10
2.593360
 20
7.207640
  0
VERTEX
  8
0
  6
CONTINUOUS
 10
3.334760
 20
7.212920
  0
VERTEX
  8
0
  6
CONTINUOUS
 10
3.323760
 20
7.155720
  0
VERTEX
  8
0
  6
CONTINUOUS
 10
2.582360
 20
7.150440
  0
VERTEX
  8
0
  6
CONTINUOUS
 10
2.593360
 20
7.207640
  0
SEQEND
  8
0
  0
SOLID
  8
0
 62
    15
 10
2.582360
 20
7.150440
 11
3.323760
 21
7.155720
 12
2.556840
 22
7.096760
 13
3.297800
 23
7.102040
  0
POLYLINE
  8
0
  6
CONTINUOUS
 66
     1
 40
0.000000
 41
0.000000
  0
VERTEX
  8
0
  6
CONTINUOUS
 10
2.582360
 20
7.150440
  0
VERTEX
  8
0
  6
CONTINUOUS
 10
3.323760
 20
7.155720
  0
VERTEX
  8
0
  6
CONTINUOUS
 10
3.297800
 20
7.102040
  0
VERTEX
  8
0
  6
CONTINUOUS
 10
2.556840
 20
7.096760
  0
VERTEX
  8
0
  6
CONTINUOUS
 10
2.582360
 20
7.150440
  0
SEQEND
  8
0
  0
SOLID
  8
0
 62
    15
 10
2.556840
 20
7.096760
 11
3.297800
 21
7.102040
 12
2.517240
 22
7.051880
 13
3.258640
 23
7.057160
  0
POLYLINE
  8
0
  6
CONTINUOUS
 66
     1
 40
0.000000
 41
0.000000
  0
VERTEX
  8
0
  6
CONTINUOUS
 10
2.556840
 20
7.096760
  0
VERTEX
  8
0
  6
CONTINUOUS
 10
3.297800
 20
7.102040
  0
VERTEX
  8
0
  6
CONTINUOUS
 10
3.258640
 20
7.057160
  0
VERTEX
  8
0
  6
CONTINUOUS
 10
2.517240
 20
7.051880
  0
VERTEX
  8
0
  6
CONTINUOUS
 10
2.556840
 20
7.096760
  0
SEQEND
  8
0
  0
SOLID
  8
0
 62
    15
 10
2.517240
 20
7.051880
 11
3.258640
 21
7.057160
 12
2.464880
 22
7.021080
 13
3.205840
 23
7.026360
  0
POLYLINE
  8
0
  6
CONTINUOUS
 66
     1
 40
0.000000
 41
0.000000
  0
VERTEX
  8
0
  6
CONTINUOUS
 10
2.517240
 20
7.051880
  0
VERTEX
  8
0
  6
CONTINUOUS
 10
3.258640
 20
7.057160
  0
VERTEX
  8
0
  6
CONTINUOUS
 10
3.205840
 20
7.026360
  0
VERTEX
  8
0
  6
CONTINUOUS
 10
2.464880
 20
7.021080
  0
VERTEX
  8
0
  6
CONTINUOUS
 10
2.517240
 20
7.051880
  0
SEQEND
  8
0
  0
SOLID
  8
0
 62
    15
 10
2.464880
 20
7.021080
 11
3.205840
 21
7.026360
 12
2.434080
 22
7.012720
 13
3.175040
 23
7.018000
  0
POLYLINE
  8
0
  6
CONTINUOUS
 66
     1
 40
0.000000
 41
0.000000
  0
VERTEX
  8
0
  6
CONTINUOUS
 10
2.464880
 20
7.021080
  0
VERTEX
  8
0
  6
CONTINUOUS
 10
3.205840
 20
7.026360
  0
VERTEX
  8
0
  6
CONTINUOUS
 10
3.175040
 20
7.018000
  0
VERTEX
  8
0
  6
CONTINUOUS
 10
2.434080
 20
7.012720
  0
VERTEX
  8
0
  6
CONTINUOUS
 10
2.464880
 20
7.021080
  0
SEQEND
  8
0
  0
SOLID
  8
0
 62
    15
 10
2.434080
 20
7.012720
 11
3.175040
 21
7.018000
 12
2.400200
 22
7.009640
 13
3.141160
 23
7.014920
  0
POLYLINE
  8
0
  6
CONTINUOUS
 66
     1
 40
0.000000
 41
0.000000
  0
VERTEX
  8
0
  6
CONTINUOUS
 10
2.434080
 20
7.012720
  0
VERTEX
  8
0
  6
CONTINUOUS
 10
3.175040
 20
7.018000
  0
VERTEX
  8
0
  6
CONTINUOUS
 10
3.141160
 20
7.014920
  0
VERTEX
  8
0
  6
CONTINUOUS
 10
2.400200
 20
7.009640
  0
VERTEX
  8
0
  6
CONTINUOUS
 10
2.434080
 20
7.012720
  0
SEQEND
  8
0
  0
SOLID
  8
0
 62
    15
 10
2.400200
 20
7.009640
 11
3.141160
 21
7.014920
 12
2.282720
 22
6.996880
 13
3.023680
 23
7.002160
  0
POLYLINE
  8
0
  6
CONTINUOUS
 66
     1
 40
0.000000
 41
0.000000
  0
VERTEX
  8
0
  6
CONTINUOUS
 10
2.400200
 20
7.009640
  0
VERTEX
  8
0
  6
CONTINUOUS
 10
3.141160
 20
7.014920
  0
VERTEX
  8
0
  6
CONTINUOUS
 10
3.023680
 20
7.002160
  0
VERTEX
  8
0
  6
CONTINUOUS
 10
2.282720
 20
6.996880
  0
VERTEX
  8
0
  6
CONTINUOUS
 10
2.400200
 20
7.009640
  0
SEQEND
  8
0
  0
SOLID
  8
0
 62
    15
 10
2.282720
 20
6.996880
 11
3.023680
 21
7.002160
 12
2.262920
 22
6.992480
 13
3.004320
 23
6.997760
  0
POLYLINE
  8
0
  6
CONTINUOUS
 66
     1
 40
0.000000
 41
0.000000
  0
VERTEX
  8
0
  6
CONTINUOUS
 10
2.282720
 20
6.996880
  0
VERTEX
  8
0
  6
CONTINUOUS
 10
3.023680
 20
7.002160
  0
VERTEX
  8
0
  6
CONTINUOUS
 10
3.004320
 20
6.997760
  0
VERTEX
  8
0
  6
CONTINUOUS
 10
2.262920
 20
6.992480
  0
VERTEX
  8
0
  6
CONTINUOUS
 10
2.282720
 20
6.996880
  0
SEQEND
  8
0
  0
SOLID
  8
0
 62
    15
 10
2.262920
 20
6.992480
 11
3.004320
 21
6.997760
 12
2.241800
 22
6.981480
 13
2.982760
 23
6.986760
  0
POLYLINE
  8
0
  6
CONTINUOUS
 66
     1
 40
0.000000
 41
0.000000
  0
VERTEX
  8
0
  6
CONTINUOUS
 10
2.262920
 20
6.992480
  0
VERTEX
  8
0
  6
CONTINUOUS
 10
3.004320
 20
6.997760
  0
VERTEX
  8
0
  6
CONTINUOUS
 10
2.982760
 20
6.986760
  0
VERTEX
  8
0
  6
CONTINUOUS
 10
2.241800
 20
6.981480
  0
VERTEX
  8
0
  6
CONTINUOUS
 10
2.262920
 20
6.992480
  0
SEQEND
  8
0
  0
SOLID
  8
0
 62
    15
 10
2.241800
 20
6.981480
 11
2.982760
 21
6.986760
 12
2.199120
 22
6.944960
 13
2.940520
 23
6.950240
  0
POLYLINE
  8
0
  6
CONTINUOUS
 66
     1
 40
0.000000
 41
0.000000
  0
VERTEX
  8
0
  6
CONTINUOUS
 10
2.241800
 20
6.981480
  0
VERTEX
  8
0
  6
CONTINUOUS
 10
2.982760
 20
6.986760
  0
VERTEX
  8
0
  6
CONTINUOUS
 10
2.940520
 20
6.950240
  0
VERTEX
  8
0
  6
CONTINUOUS
 10
2.199120
 20
6.944960
  0
VERTEX
  8
0
  6
CONTINUOUS
 10
2.241800
 20
6.981480
  0
SEQEND
  8
0
  0
SOLID
  8
0
 62
    15
 10
2.199120
 20
6.944960
 11
2.940520
 21
6.950240
 12
2.166120
 22
6.898320
 13
2.907080
 23
6.903600
  0
POLYLINE
  8
0
  6
CONTINUOUS
 66
     1
 40
0.000000
 41
0.000000
  0
VERTEX
  8
0
  6
CONTINUOUS
 10
2.199120
 20
6.944960
  0
VERTEX
  8
0
  6
CONTINUOUS
 10
2.940520
 20
6.950240
  0
VERTEX
  8
0
  6
CONTINUOUS
 10
2.907080
 20
6.903600
  0
VERTEX
  8
0
  6
CONTINUOUS
 10
2.166120
 20
6.898320
  0
VERTEX
  8
0
  6
CONTINUOUS
 10
2.199120
 20
6.944960
  0
SEQEND
  8
0
  0
SOLID
  8
0
 62
    15
 10
2.245320
 20
7.501560
 11
2.986280
 21
7.506840
 12
2.531320
 22
7.348000
 13
3.272720
 23
7.353280
  0
POLYLINE
  8
0
  6
CONTINUOUS
 66
     1
 40
0.000000
 41
0.000000
  0
VERTEX
  8
0
  6
CONTINUOUS
 10
2.245320
 20
7.501560
  0
VERTEX
  8
0
  6
CONTINUOUS
 10
2.986280
 20
7.506840
  0
VERTEX
  8
0
  6
CONTINUOUS
 10
3.272720
 20
7.353280
  0
VERTEX
  8
0
  6
CONTINUOUS
 10
2.531320
 20
7.348000
  0
VERTEX
  8
0
  6
CONTINUOUS
 10
2.245320
 20
7.501560
  0
SEQEND
  8
0
  0
SOLID
  8
0
 62
    15
 10
2.156440
 20
6.875000
 11
2.897400
 21
6.880280
 12
2.152480
 22
6.853000
 13
2.893880
 23
6.858280
  0
POLYLINE
  8
0
  6
CONTINUOUS
 66
     1
 40
0.000000
 41
0.000000
  0
VERTEX
  8
0
  6
CONTINUOUS
 10
2.156440
 20
6.875000
  0
VERTEX
  8
0
  6
CONTINUOUS
 10
2.897400
 20
6.880280
  0
VERTEX
  8
0
  6
CONTINUOUS
 10
2.893880
 20
6.858280
  0
VERTEX
  8
0
  6
CONTINUOUS
 10
2.152480
 20
6.853000
  0
VERTEX
  8
0
  6
CONTINUOUS
 10
2.156440
 20
6.875000
  0
SEQEND
  8
0
  0
SOLID
  8
0
 62
    15
 10
2.032360
 20
4.111360
 11
2.773320
 21
4.116640
 12
2.034120
 22
4.054600
 13
2.775080
 23
4.059880
  0
POLYLINE
  8
0
  6
CONTINUOUS
 66
     1
 40
0.000000
 41
0.000000
  0
VERTEX
  8
0
  6
CONTINUOUS
 10
2.032360
 20
4.111360
  0
VERTEX
  8
0
  6
CONTINUOUS
 10
2.773320
 20
4.116640
  0
VERTEX
  8
0
  6
CONTINUOUS
 10
2.775080
 20
4.059880
  0
VERTEX
  8
0
  6
CONTINUOUS
 10
2.034120
 20
4.054600
  0
VERTEX
  8
0
  6
CONTINUOUS
 10
2.032360
 20
4.111360
  0
SEQEND
  8
0
  0
SOLID
  8
0
 62
    15
 10
2.135760
 20
4.115760
 11
2.877160
 21
4.121040
 12
2.032360
 22
4.111360
 13
2.773320
 23
4.116640
  0
POLYLINE
  8
0
  6
CONTINUOUS
 66
     1
 40
0.000000
 41
0.000000
  0
VERTEX
  8
0
  6
CONTINUOUS
 10
2.135760
 20
4.115760
  0
VERTEX
  8
0
  6
CONTINUOUS
 10
2.877160
 20
4.121040
  0
VERTEX
  8
0
  6
CONTINUOUS
 10
2.773320
 20
4.116640
  0
VERTEX
  8
0
  6
CONTINUOUS
 10
2.032360
 20
4.111360
  0
VERTEX
  8
0
  6
CONTINUOUS
 10
2.135760
 20
4.115760
  0
SEQEND
  8
0
  0
SOLID
  8
0
 62
    15
 10
2.152480
 20
6.853000
 11
2.893880
 21
6.858280
 12
2.135760
 22
4.115760
 13
2.877160
 23
4.121040
  0
POLYLINE
  8
0
  6
CONTINUOUS
 66
     1
 40
0.000000
 41
0.000000
  0
VERTEX
  8
0
  6
CONTINUOUS
 10
2.152480
 20
6.853000
  0
VERTEX
  8
0
  6
CONTINUOUS
 10
2.893880
 20
6.858280
  0
VERTEX
  8
0
  6
CONTINUOUS
 10
2.877160
 20
4.121040
  0
VERTEX
  8
0
  6
CONTINUOUS
 10
2.135760
 20
4.115760
  0
VERTEX
  8
0
  6
CONTINUOUS
 10
2.152480
 20
6.853000
  0
SEQEND
  8
0
  0
SOLID
  8
0
 62
    15
 10
2.034120
 20
4.054600
 11
2.775080
 21
4.059880
 12
2.023560
 22
4.012360
 13
2.764960
 23
4.017640
  0
POLYLINE
  8
0
  6
CONTINUOUS
 66
     1
 40
0.000000
 41
0.000000
  0
VERTEX
  8
0
  6
CONTINUOUS
 10
2.034120
 20
4.054600
  0
VERTEX
  8
0
  6
CONTINUOUS
 10
2.775080
 20
4.059880
  0
VERTEX
  8
0
  6
CONTINUOUS
 10
2.764960
 20
4.017640
  0
VERTEX
  8
0
  6
CONTINUOUS
 10
2.023560
 20
4.012360
  0
VERTEX
  8
0
  6
CONTINUOUS
 10
2.034120
 20
4.054600
  0
SEQEND
  8
0
  0
SOLID
  8
0
 62
    15
 10
2.023560
 20
4.012360
 11
2.764960
 21
4.017640
 12
2.004640
 22
3.982440
 13
2.745600
 23
3.987720
  0
POLYLINE
  8
0
  6
CONTINUOUS
 66
     1
 40
0.000000
 41
0.000000
  0
VERTEX
  8
0
  6
CONTINUOUS
 10
2.023560
 20
4.012360
  0
VERTEX
  8
0
  6
CONTINUOUS
 10
2.764960
 20
4.017640
  0
VERTEX
  8
0
  6
CONTINUOUS
 10
2.745600
 20
3.987720
  0
VERTEX
  8
0
  6
CONTINUOUS
 10
2.004640
 20
3.982440
  0
VERTEX
  8
0
  6
CONTINUOUS
 10
2.023560
 20
4.012360
  0
SEQEND
  8
0
  0
SOLID
  8
0
 62
    15
 10
2.004640
 20
3.982440
 11
2.745600
 21
3.987720
 12
1.979560
 22
3.962640
 13
2.720520
 23
3.967920
  0
POLYLINE
  8
0
  6
CONTINUOUS
 66
     1
 40
0.000000
 41
0.000000
  0
VERTEX
  8
0
  6
CONTINUOUS
 10
2.004640
 20
3.982440
  0
VERTEX
  8
0
  6
CONTINUOUS
 10
2.745600
 20
3.987720
  0
VERTEX
  8
0
  6
CONTINUOUS
 10
2.720520
 20
3.967920
  0
VERTEX
  8
0
  6
CONTINUOUS
 10
1.979560
 20
3.962640
  0
VERTEX
  8
0
  6
CONTINUOUS
 10
2.004640
 20
3.982440
  0
SEQEND
  8
0
  0
SOLID
  8
0
 62
    15
 10
1.925000
 20
3.943720
 11
2.665960
 21
3.949000
 12
1.901680
 22
3.939760
 13
2.642640
 23
3.945040
  0
POLYLINE
  8
0
  6
CONTINUOUS
 66
     1
 40
0.000000
 41
0.000000
  0
VERTEX
  8
0
  6
CONTINUOUS
 10
1.925000
 20
3.943720
  0
VERTEX
  8
0
  6
CONTINUOUS
 10
2.665960
 20
3.949000
  0
VERTEX
  8
0
  6
CONTINUOUS
 10
2.642640
 20
3.945040
  0
VERTEX
  8
0
  6
CONTINUOUS
 10
1.901680
 20
3.939760
  0
VERTEX
  8
0
  6
CONTINUOUS
 10
1.925000
 20
3.943720
  0
SEQEND
  8
0
  0
SOLID
  8
0
 62
    15
 10
1.979560
 20
3.962640
 11
2.720520
 21
3.967920
 12
1.925000
 22
3.943720
 13
2.665960
 23
3.949000
  0
POLYLINE
  8
0
  6
CONTINUOUS
 66
     1
 40
0.000000
 41
0.000000
  0
VERTEX
  8
0
  6
CONTINUOUS
 10
1.979560
 20
3.962640
  0
VERTEX
  8
0
  6
CONTINUOUS
 10
2.720520
 20
3.967920
  0
VERTEX
  8
0
  6
CONTINUOUS
 10
2.665960
 20
3.949000
  0
VERTEX
  8
0
  6
CONTINUOUS
 10
1.925000
 20
3.943720
  0
VERTEX
  8
0
  6
CONTINUOUS
 10
1.979560
 20
3.962640
  0
SEQEND
  8
0
  0
SOLID
  8
0
 62
    15
 10
1.901680
 20
3.939760
 11
2.642640
 21
3.945040
 12
1.885400
 22
3.937120
 13
2.626800
 23
3.942400
  0
POLYLINE
  8
0
  6
CONTINUOUS
 66
     1
 40
0.000000
 41
0.000000
  0
VERTEX
  8
0
  6
CONTINUOUS
 10
1.901680
 20
3.939760
  0
VERTEX
  8
0
  6
CONTINUOUS
 10
2.642640
 20
3.945040
  0
VERTEX
  8
0
  6
CONTINUOUS
 10
2.626800
 20
3.942400
  0
VERTEX
  8
0
  6
CONTINUOUS
 10
1.885400
 20
3.937120
  0
VERTEX
  8
0
  6
CONTINUOUS
 10
1.901680
 20
3.939760
  0
SEQEND
  8
0
  0
SOLID
  8
0
 62
    15
 10
1.854160
 20
3.929640
 11
2.595120
 21
3.934920
 12
1.816320
 22
3.908520
 13
2.557720
 23
3.913800
  0
POLYLINE
  8
0
  6
CONTINUOUS
 66
     1
 40
0.000000
 41
0.000000
  0
VERTEX
  8
0
  6
CONTINUOUS
 10
1.854160
 20
3.929640
  0
VERTEX
  8
0
  6
CONTINUOUS
 10
2.595120
 20
3.934920
  0
VERTEX
  8
0
  6
CONTINUOUS
 10
2.557720
 20
3.913800
  0
VERTEX
  8
0
  6
CONTINUOUS
 10
1.816320
 20
3.908520
  0
VERTEX
  8
0
  6
CONTINUOUS
 10
1.854160
 20
3.929640
  0
SEQEND
  8
0
  0
SOLID
  8
0
 62
    15
 10
1.885400
 20
3.937120
 11
2.626800
 21
3.942400
 12
1.854160
 22
3.929640
 13
2.595120
 23
3.934920
  0
POLYLINE
  8
0
  6
CONTINUOUS
 66
     1
 40
0.000000
 41
0.000000
  0
VERTEX
  8
0
  6
CONTINUOUS
 10
1.885400
 20
3.937120
  0
VERTEX
  8
0
  6
CONTINUOUS
 10
2.626800
 20
3.942400
  0
VERTEX
  8
0
  6
CONTINUOUS
 10
2.595120
 20
3.934920
  0
VERTEX
  8
0
  6
CONTINUOUS
 10
1.854160
 20
3.929640
  0
VERTEX
  8
0
  6
CONTINUOUS
 10
1.885400
 20
3.937120
  0
SEQEND
  8
0
  0
SOLID
  8
0
 62
    15
 10
1.816320
 20
3.908520
 11
2.557720
 21
3.913800
 12
1.800040
 22
3.887400
 13
2.541000
 23
3.892680
  0
POLYLINE
  8
0
  6
CONTINUOUS
 66
     1
 40
0.000000
 41
0.000000
  0
VERTEX
  8
0
  6
CONTINUOUS
 10
1.816320
 20
3.908520
  0
VERTEX
  8
0
  6
CONTINUOUS
 10
2.557720
 20
3.913800
  0
VERTEX
  8
0
  6
CONTINUOUS
 10
2.541000
 20
3.892680
  0
VERTEX
  8
0
  6
CONTINUOUS
 10
1.800040
 20
3.887400
  0
VERTEX
  8
0
  6
CONTINUOUS
 10
1.816320
 20
3.908520
  0
SEQEND
  8
0
  0
SOLID
  8
0
 62
    15
 10
1.800040
 20
3.887400
 11
2.541000
 21
3.892680
 12
1.786840
 22
3.855720
 13
2.528240
 23
3.861000
  0
POLYLINE
  8
0
  6
CONTINUOUS
 66
     1
 40
0.000000
 41
0.000000
  0
VERTEX
  8
0
  6
CONTINUOUS
 10
1.800040
 20
3.887400
  0
VERTEX
  8
0
  6
CONTINUOUS
 10
2.541000
 20
3.892680
  0
VERTEX
  8
0
  6
CONTINUOUS
 10
2.528240
 20
3.861000
  0
VERTEX
  8
0
  6
CONTINUOUS
 10
1.786840
 20
3.855720
  0
VERTEX
  8
0
  6
CONTINUOUS
 10
1.800040
 20
3.887400
  0
SEQEND
  8
0
  0
SOLID
  8
0
 62
    15
 10
1.786840
 20
3.855720
 11
2.528240
 21
3.861000
 12
1.779800
 22
3.811280
 13
2.521200
 23
3.816560
  0
POLYLINE
  8
0
  6
CONTINUOUS
 66
     1
 40
0.000000
 41
0.000000
  0
VERTEX
  8
0
  6
CONTINUOUS
 10
1.786840
 20
3.855720
  0
VERTEX
  8
0
  6
CONTINUOUS
 10
2.528240
 20
3.861000
  0
VERTEX
  8
0
  6
CONTINUOUS
 10
2.521200
 20
3.816560
  0
VERTEX
  8
0
  6
CONTINUOUS
 10
1.779800
 20
3.811280
  0
VERTEX
  8
0
  6
CONTINUOUS
 10
1.786840
 20
3.855720
  0
SEQEND
  8
0
  0
SOLID
  8
0
 62
    15
 10
1.779800
 20
3.811280
 11
2.521200
 21
3.816560
 12
1.780240
 22
3.752320
 13
2.521200
 23
3.757600
  0
POLYLINE
  8
0
  6
CONTINUOUS
 66
     1
 40
0.000000
 41
0.000000
  0
VERTEX
  8
0
  6
CONTINUOUS
 10
1.779800
 20
3.811280
  0
VERTEX
  8
0
  6
CONTINUOUS
 10
2.521200
 20
3.816560
  0
VERTEX
  8
0
  6
CONTINUOUS
 10
2.521200
 20
3.757600
  0
VERTEX
  8
0
  6
CONTINUOUS
 10
1.780240
 20
3.752320
  0
VERTEX
  8
0
  6
CONTINUOUS
 10
1.779800
 20
3.811280
  0
SEQEND
  8
0
  0
POLYLINE
  8
0
  6
CONTINUOUS
 66
     1
 40
0.000000
 41
0.000000
  0
VERTEX
  8
0
  6
CONTINUOUS
 10
1.391720
 20
7.501560
  0
VERTEX
  8
0
  6
CONTINUOUS
 10
2.245320
 20
7.501560
  0
VERTEX
  8
0
  6
CONTINUOUS
 10
2.531320
 20
7.348000
  0
VERTEX
  8
0
  6
CONTINUOUS
 10
2.568720
 20
7.311920
  0
VERTEX
  8
0
  6
CONTINUOUS
 10
2.588960
 20
7.263080
  0
VERTEX
  8
0
  6
CONTINUOUS
 10
2.593360
 20
7.207640
  0
VERTEX
  8
0
  6
CONTINUOUS
 10
2.582360
 20
7.150440
  0
VERTEX
  8
0
  6
CONTINUOUS
 10
2.556840
 20
7.096760
  0
VERTEX
  8
0
  6
CONTINUOUS
 10
2.517240
 20
7.051880
  0
VERTEX
  8
0
  6
CONTINUOUS
 10
2.464880
 20
7.021080
  0
VERTEX
  8
0
  6
CONTINUOUS
 10
2.434080
 20
7.012720
  0
VERTEX
  8
0
  6
CONTINUOUS
 10
2.400200
 20
7.009640
  0
VERTEX
  8
0
  6
CONTINUOUS
 10
2.282720
 20
6.996880
  0
VERTEX
  8
0
  6
CONTINUOUS
 10
2.262920
 20
6.992480
  0
VERTEX
  8
0
  6
CONTINUOUS
 10
2.241800
 20
6.981480
  0
VERTEX
  8
0
  6
CONTINUOUS
 10
2.199120
 20
6.944960
  0
VERTEX
  8
0
  6
CONTINUOUS
 10
2.166120
 20
6.898320
  0
VERTEX
  8
0
  6
CONTINUOUS
 10
2.156440
 20
6.875000
  0
VERTEX
  8
0
  6
CONTINUOUS
 10
2.152480
 20
6.853000
  0
VERTEX
  8
0
  6
CONTINUOUS
 10
2.135760
 20
4.115760
  0
VERTEX
  8
0
  6
CONTINUOUS
 10
2.032360
 20
4.111360
  0
VERTEX
  8
0
  6
CONTINUOUS
 10
2.034120
 20
4.054600
  0
VERTEX
  8
0
  6
CONTINUOUS
 10
2.023560
 20
4.012360
  0
VERTEX
  8
0
  6
CONTINUOUS
 10
2.004640
 20
3.982440
  0
VERTEX
  8
0
  6
CONTINUOUS
 10
1.979560
 20
3.962640
  0
VERTEX
  8
0
  6
CONTINUOUS
 10
1.925000
 20
3.943720
  0
VERTEX
  8
0
  6
CONTINUOUS
 10
1.901680
 20
3.939760
  0
VERTEX
  8
0
  6
CONTINUOUS
 10
1.885400
 20
3.937120
  0
VERTEX
  8
0
  6
CONTINUOUS
 10
1.854160
 20
3.929640
  0
VERTEX
  8
0
  6
CONTINUOUS
 10
1.816320
 20
3.908520
  0
VERTEX
  8
0
  6
CONTINUOUS
 10
1.800040
 20
3.887400
  0
VERTEX
  8
0
  6
CONTINUOUS
 10
1.786840
 20
3.855720
  0
VERTEX
  8
0
  6
CONTINUOUS
 10
1.779800
 20
3.811280
  0
VERTEX
  8
0
  6
CONTINUOUS
 10
1.780240
 20
3.752320
  0
VERTEX
  8
0
  6
CONTINUOUS
 10
1.391720
 20
3.752320
  0
VERTEX
  8
0
  6
CONTINUOUS
 10
1.391720
 20
7.501560
  0
SEQEND
  8
0
  0
TEXT
  8
0
 10
3.394600
 20
3.965280
 40
0.138396
  1
BA  1210
 41
1.000000
  7
SN0
 71
     0
 72
     5
 11
4.077589
 21
3.965280
  0
TEXT
  8
0
 10
3.164920
 20
3.773880
 40
0.138396
  1
1-3/16" x 3-3/4"
 41
1.000000
  7
SN0
 71
     0
 72
     5
 11
4.305242
 21
3.773880
  0
TEXT
  8
0
 10
3.993440
 20
8.241640
 40
0.138396
  1
BA  1210
 41
1.000000
  7
SN0
 71
     0
 72
     5
 11
4.676429
 21
8.241640
  0
TEXT
  8
0
 10
3.763760
 20
8.049800
 40
0.138396
  1
1-3/16" x 3-3/4"
 41
1.000000
  7
SN0
 71
     0
 72
     5
 11
4.904082
 21
8.049800
  0
ENDSEC
  0
EOF
