  0
SECTION
  2
HEADER
  9
$ACADVER
  1
AC1006
  9
$EXTMIN
 10
2.861320
 20
2.674320
  9
$EXTMAX
 10
5.869600
 20
9.246160
  9
$LTSCALE
 40
0.044000
  9
$PDMODE
 70
    35
  9
$PDSIZE
 40
0.035200
  0
ENDSEC
  0
SECTION
  2
TABLES
  0
TABLE
  2
LTYPE
 70
     9
  0
LTYPE
  2
CONTINUOUS
 70
    64
  3
Solid line
 72
    65
 73
     0
 40
0.000000
  0
LTYPE
  2
DASHED
 70
    64
  3
__ __ __ __ __ __ __ __ __ __ __ __ __ __ __
 72
    65
 73
     2
 40
0.000330
 49
0.000220
 49
-0.000110
  0
LTYPE
  2
HIDDEN
 70
    64
  3
 _ _ _ _ _ _ _ _ _ _ _ _ _ _ _ _ _ _ _ _ _ _
 72
    65
 73
     2
 40
0.000165
 49
0.000110
 49
-0.000055
  0
LTYPE
  2
CENTER
 70
    64
  3
____ _ ____ _ ____ _ ____ _ ____ _ ____ _ ____
 72
    65
 73
     4
 40
0.000880
 49
0.000550
 49
-0.000110
 49
0.000110
 49
-0.000110
  0
LTYPE
  2
PHANTOM
 70
    64
  3
_____ _ _ _____ _ _ _____ _ _ _____ _ _ ____
 72
    65
 73
     6
 40
0.001100
 49
0.000550
 49
-0.000110
 49
0.000110
 49
-0.000110
 49
0.000110
 49
-0.000110
  0
LTYPE
  2
DOT
 70
    64
  3
...............................................
 72
    65
 73
     2
 40
0.000110
 49
0.000000
 49
-0.000110
  0
LTYPE
  2
DASHDOT
 70
    64
  3
__ . __ . __ . __ . __ . __ . __ . __ . __ . __
 72
    65
 73
     4
 40
0.000440
 49
0.000220
 49
-0.000110
 49
0.000000
 49
-0.000110
  0
LTYPE
  2
BORDER
 70
    64
  3
__ __ . __ __ . __ __ . __ __ . __ __ . __ __
 72
    65
 73
     6
 40
0.000770
 49
0.000220
 49
-0.000110
 49
0.000220
 49
-0.000110
 49
0.000000
 49
-0.000110
  0
LTYPE
  2
DIVIDE
 70
    64
  3
__ . . __ . . __ . . __ . . __ . . __ . . __
 72
    65
 73
     6
 40
0.000550
 49
0.000220
 49
-0.000110
 49
0.000000
 49
-0.000110
 49
0.000000
 49
-0.000110
  0
LTYPE
  2
DOTDOT
 70
    64
  3
 . .  . .  . .  . .  . .  . . 
 72
    65
 73
     5
 40
0.000242
 49
-0.000110
 49
0.000000
 49
-0.000110
 49
0.000000
 49
-0.000110
  0
ENDTAB
  0
TABLE
  2
STYLE
 70
     2
  0
STYLE
 70
     0
  2
SN0
 40
0.000000
 41
0.000440
 50
0.000000
 71
     0
 42
0.000000
  3
ROMAND
  0
STYLE
 70
    68
  2
SV0
 40
0.000000
 41
0.000440
 50
0.000000
 71
     0
 42
0.000000
  3
ROMAND
  0
ENDTAB
  0
TABLE
  2
LAYER
 70
     3
  0
LAYER
  2
FOREGROUND
 70
    64
 62
     7
  6
CONTINUOUS
  0
LAYER
  2
BACKGROUND
 70
    65
 62
    -7
  6
CONTINUOUS
  0
LAYER
  2
0
 70
    64
 62
     7
  6
CONTINUOUS
  0
ENDTAB
  0
ENDSEC
  0
SECTION
  2
ENTITIES
  0
POLYLINE
  8
FOREGROUND
  6
CONTINUOUS
 66
     1
 40
0.000000
 41
0.000000
  0
VERTEX
  8
FOREGROUND
  6
CONTINUOUS
 10
0.000000
 20
11.920480
  0
VERTEX
  8
FOREGROUND
  6
CONTINUOUS
 10
8.499920
 20
11.920480
  0
VERTEX
  8
FOREGROUND
  6
CONTINUOUS
 10
8.499920
 20
0.920480
  0
VERTEX
  8
FOREGROUND
  6
CONTINUOUS
 10
0.000000
 20
0.920480
  0
VERTEX
  8
FOREGROUND
  6
CONTINUOUS
 10
0.000000
 20
11.920480
  0
SEQEND
  8
0
  0
POLYLINE
  8
0
  6
CONTINUOUS
 66
     1
 40
0.014080
 41
0.014080
  0
VERTEX
  8
0
  6
CONTINUOUS
 10
3.086160
 20
8.365280
  0
VERTEX
  8
0
  6
CONTINUOUS
 10
5.852440
 20
8.365280
  0
VERTEX
  8
0
  6
CONTINUOUS
 10
5.852440
 20
8.607280
  0
VERTEX
  8
0
  6
CONTINUOUS
 10
5.828240
 20
8.608160
  0
VERTEX
  8
0
  6
CONTINUOUS
 10
5.781160
 20
8.614760
  0
VERTEX
  8
0
  6
CONTINUOUS
 10
5.758720
 20
8.620480
  0
VERTEX
  8
0
  6
CONTINUOUS
 10
5.716920
 20
8.636320
  0
VERTEX
  8
0
  6
CONTINUOUS
 10
5.679520
 20
8.657440
  0
VERTEX
  8
0
  6
CONTINUOUS
 10
5.647400
 20
8.683840
  0
VERTEX
  8
0
  6
CONTINUOUS
 10
5.621440
 20
8.714640
  0
VERTEX
  8
0
  6
CONTINUOUS
 10
5.611320
 20
8.731360
  0
VERTEX
  8
0
  6
CONTINUOUS
 10
5.602960
 20
8.749400
  0
VERTEX
  8
0
  6
CONTINUOUS
 10
5.596800
 20
8.767880
  0
VERTEX
  8
0
  6
CONTINUOUS
 10
5.592840
 20
8.787240
  0
VERTEX
  8
0
  6
CONTINUOUS
 10
5.475800
 20
8.787240
  0
VERTEX
  8
0
  6
CONTINUOUS
 10
5.475360
 20
8.857200
  0
VERTEX
  8
0
  6
CONTINUOUS
 10
5.471400
 20
8.880080
  0
VERTEX
  8
0
  6
CONTINUOUS
 10
5.463920
 20
8.901640
  0
VERTEX
  8
0
  6
CONTINUOUS
 10
5.447200
 20
8.929360
  0
VERTEX
  8
0
  6
CONTINUOUS
 10
5.433120
 20
8.944320
  0
VERTEX
  8
0
  6
CONTINUOUS
 10
5.416840
 20
8.955760
  0
VERTEX
  8
0
  6
CONTINUOUS
 10
5.399240
 20
8.962800
  0
VERTEX
  8
0
  6
CONTINUOUS
 10
5.390000
 20
8.965000
  0
VERTEX
  8
0
  6
CONTINUOUS
 10
5.371520
 20
8.965000
  0
VERTEX
  8
0
  6
CONTINUOUS
 10
5.353040
 20
8.959720
  0
VERTEX
  8
0
  6
CONTINUOUS
 10
5.336320
 20
8.950480
  0
VERTEX
  8
0
  6
CONTINUOUS
 10
5.320920
 20
8.937280
  0
VERTEX
  8
0
  6
CONTINUOUS
 10
5.302440
 20
8.911320
  0
VERTEX
  8
0
  6
CONTINUOUS
 10
5.293640
 20
8.891080
  0
VERTEX
  8
0
  6
CONTINUOUS
 10
5.287920
 20
8.868640
  0
VERTEX
  8
0
  6
CONTINUOUS
 10
5.285720
 20
8.845320
  0
VERTEX
  8
0
  6
CONTINUOUS
 10
5.285720
 20
8.787240
  0
VERTEX
  8
0
  6
CONTINUOUS
 10
4.626600
 20
8.787240
  0
VERTEX
  8
0
  6
CONTINUOUS
 10
4.583040
 20
8.788120
  0
VERTEX
  8
0
  6
CONTINUOUS
 10
4.497240
 20
8.796480
  0
VERTEX
  8
0
  6
CONTINUOUS
 10
4.455440
 20
8.803520
  0
VERTEX
  8
0
  6
CONTINUOUS
 10
4.414520
 20
8.812760
  0
VERTEX
  8
0
  6
CONTINUOUS
 10
4.374920
 20
8.823320
  0
VERTEX
  8
0
  6
CONTINUOUS
 10
4.337080
 20
8.835640
  0
VERTEX
  8
0
  6
CONTINUOUS
 10
4.283840
 20
8.856760
  0
VERTEX
  8
0
  6
CONTINUOUS
 10
4.235440
 20
8.881400
  0
VERTEX
  8
0
  6
CONTINUOUS
 10
4.193200
 20
8.908680
  0
VERTEX
  8
0
  6
CONTINUOUS
 10
4.157560
 20
8.938600
  0
VERTEX
  8
0
  6
CONTINUOUS
 10
4.129400
 20
8.971160
  0
VERTEX
  8
0
  6
CONTINUOUS
 10
4.115760
 20
8.994040
  0
VERTEX
  8
0
  6
CONTINUOUS
 10
4.110040
 20
9.005480
  0
VERTEX
  8
0
  6
CONTINUOUS
 10
3.890920
 20
9.005480
  0
VERTEX
  8
0
  6
CONTINUOUS
 10
3.870240
 20
9.038480
  0
VERTEX
  8
0
  6
CONTINUOUS
 10
3.831080
 20
9.089960
  0
VERTEX
  8
0
  6
CONTINUOUS
 10
3.791920
 20
9.132200
  0
VERTEX
  8
0
  6
CONTINUOUS
 10
3.752320
 20
9.166520
  0
VERTEX
  8
0
  6
CONTINUOUS
 10
3.713600
 20
9.192480
  0
VERTEX
  8
0
  6
CONTINUOUS
 10
3.675320
 20
9.211400
  0
VERTEX
  8
0
  6
CONTINUOUS
 10
3.637920
 20
9.223280
  0
VERTEX
  8
0
  6
CONTINUOUS
 10
3.601840
 20
9.229000
  0
VERTEX
  8
0
  6
CONTINUOUS
 10
3.584680
 20
9.229880
  0
VERTEX
  8
0
  6
CONTINUOUS
 10
3.551240
 20
9.227240
  0
VERTEX
  8
0
  6
CONTINUOUS
 10
3.520000
 20
9.219760
  0
VERTEX
  8
0
  6
CONTINUOUS
 10
3.491400
 20
9.208320
  0
VERTEX
  8
0
  6
CONTINUOUS
 10
3.465880
 20
9.192920
  0
VERTEX
  8
0
  6
CONTINUOUS
 10
3.443000
 20
9.174440
  0
VERTEX
  8
0
  6
CONTINUOUS
 10
3.424080
 20
9.153320
  0
VERTEX
  8
0
  6
CONTINUOUS
 10
3.408680
 20
9.130000
  0
VERTEX
  8
0
  6
CONTINUOUS
 10
3.397680
 20
9.105360
  0
VERTEX
  8
0
  6
CONTINUOUS
 10
3.394600
 20
9.103600
  0
VERTEX
  8
0
  6
CONTINUOUS
 10
3.371720
 20
9.103600
  0
VERTEX
  8
0
  6
CONTINUOUS
 10
3.371720
 20
9.238240
  0
VERTEX
  8
0
  6
CONTINUOUS
 10
2.868800
 20
9.238240
  0
VERTEX
  8
0
  6
CONTINUOUS
 10
2.868800
 20
8.365720
  0
VERTEX
  8
0
  6
CONTINUOUS
 10
3.086160
 20
8.365720
  0
SEQEND
  8
0
  0
TEXT
  8
0
 10
4.028200
 20
2.901360
 40
0.138260
  1
Similar to BA  743
 41
1.000000
  7
SN0
 71
     0
 72
     5
 11
5.356369
 21
2.901360
  0
TEXT
  8
0
 10
4.241160
 20
2.709960
 40
0.138260
  1
7/8" x 3-1/2"
 41
1.000000
  7
SN0
 71
     0
 72
     5
 11
5.143145
 21
2.709960
  0
POLYLINE
  8
0
  6
CONTINUOUS
 66
     1
 40
0.000000
 41
0.000000
  0
VERTEX
  8
0
  6
CONTINUOUS
 10
5.651360
 20
3.441240
  0
VERTEX
  8
0
  6
CONTINUOUS
 10
2.885080
 20
3.441240
  0
VERTEX
  8
0
  6
CONTINUOUS
 10
2.885080
 20
3.683240
  0
VERTEX
  8
0
  6
CONTINUOUS
 10
2.909280
 20
3.684120
  0
VERTEX
  8
0
  6
CONTINUOUS
 10
2.956360
 20
3.690720
  0
VERTEX
  8
0
  6
CONTINUOUS
 10
2.978800
 20
3.696440
  0
VERTEX
  8
0
  6
CONTINUOUS
 10
3.020600
 20
3.712280
  0
VERTEX
  8
0
  6
CONTINUOUS
 10
3.058000
 20
3.733840
  0
VERTEX
  8
0
  6
CONTINUOUS
 10
3.074720
 20
3.746160
  0
VERTEX
  8
0
  6
CONTINUOUS
 10
3.103760
 20
3.774760
  0
VERTEX
  8
0
  6
CONTINUOUS
 10
3.116080
 20
3.790600
  0
VERTEX
  8
0
  6
CONTINUOUS
 10
3.134560
 20
3.825360
  0
VERTEX
  8
0
  6
CONTINUOUS
 10
3.140720
 20
3.843840
  0
VERTEX
  8
0
  6
CONTINUOUS
 10
3.144680
 20
3.863200
  0
VERTEX
  8
0
  6
CONTINUOUS
 10
3.261280
 20
3.863200
  0
VERTEX
  8
0
  6
CONTINUOUS
 10
3.261720
 20
3.933600
  0
VERTEX
  8
0
  6
CONTINUOUS
 10
3.265680
 20
3.956480
  0
VERTEX
  8
0
  6
CONTINUOUS
 10
3.278000
 20
3.987720
  0
VERTEX
  8
0
  6
CONTINUOUS
 10
3.289880
 20
4.005320
  0
VERTEX
  8
0
  6
CONTINUOUS
 10
3.304400
 20
4.020720
  0
VERTEX
  8
0
  6
CONTINUOUS
 10
3.320680
 20
4.032160
  0
VERTEX
  8
0
  6
CONTINUOUS
 10
3.338280
 20
4.039200
  0
VERTEX
  8
0
  6
CONTINUOUS
 10
3.347520
 20
4.041400
  0
VERTEX
  8
0
  6
CONTINUOUS
 10
3.366000
 20
4.041400
  0
VERTEX
  8
0
  6
CONTINUOUS
 10
3.384040
 20
4.036120
  0
VERTEX
  8
0
  6
CONTINUOUS
 10
3.401200
 20
4.026880
  0
VERTEX
  8
0
  6
CONTINUOUS
 10
3.423200
 20
4.005320
  0
VERTEX
  8
0
  6
CONTINUOUS
 10
3.435080
 20
3.987720
  0
VERTEX
  8
0
  6
CONTINUOUS
 10
3.447400
 20
3.956480
  0
VERTEX
  8
0
  6
CONTINUOUS
 10
3.451360
 20
3.933600
  0
VERTEX
  8
0
  6
CONTINUOUS
 10
3.451800
 20
3.863200
  0
VERTEX
  8
0
  6
CONTINUOUS
 10
4.110920
 20
3.863200
  0
VERTEX
  8
0
  6
CONTINUOUS
 10
4.154480
 20
3.864080
  0
VERTEX
  8
0
  6
CONTINUOUS
 10
4.240280
 20
3.872440
  0
VERTEX
  8
0
  6
CONTINUOUS
 10
4.282080
 20
3.879480
  0
VERTEX
  8
0
  6
CONTINUOUS
 10
4.323000
 20
3.888720
  0
VERTEX
  8
0
  6
CONTINUOUS
 10
4.362160
 20
3.899280
  0
VERTEX
  8
0
  6
CONTINUOUS
 10
4.400000
 20
3.911600
  0
VERTEX
  8
0
  6
CONTINUOUS
 10
4.453240
 20
3.932720
  0
VERTEX
  8
0
  6
CONTINUOUS
 10
4.501640
 20
3.957360
  0
VERTEX
  8
0
  6
CONTINUOUS
 10
4.543880
 20
3.984640
  0
VERTEX
  8
0
  6
CONTINUOUS
 10
4.579520
 20
4.014560
  0
VERTEX
  8
0
  6
CONTINUOUS
 10
4.607680
 20
4.047120
  0
VERTEX
  8
0
  6
CONTINUOUS
 10
4.621320
 20
4.070000
  0
VERTEX
  8
0
  6
CONTINUOUS
 10
4.627040
 20
4.081440
  0
VERTEX
  8
0
  6
CONTINUOUS
 10
4.846600
 20
4.081440
  0
VERTEX
  8
0
  6
CONTINUOUS
 10
4.847920
 20
4.085400
  0
VERTEX
  8
0
  6
CONTINUOUS
 10
4.886640
 20
4.141720
  0
VERTEX
  8
0
  6
CONTINUOUS
 10
4.906000
 20
4.166360
  0
VERTEX
  8
0
  6
CONTINUOUS
 10
4.945600
 20
4.208600
  0
VERTEX
  8
0
  6
CONTINUOUS
 10
4.984760
 20
4.242920
  0
VERTEX
  8
0
  6
CONTINUOUS
 10
5.023920
 20
4.268880
  0
VERTEX
  8
0
  6
CONTINUOUS
 10
5.062200
 20
4.287800
  0
VERTEX
  8
0
  6
CONTINUOUS
 10
5.099600
 20
4.299680
  0
VERTEX
  8
0
  6
CONTINUOUS
 10
5.135240
 20
4.305400
  0
VERTEX
  8
0
  6
CONTINUOUS
 10
5.152840
 20
4.306280
  0
VERTEX
  8
0
  6
CONTINUOUS
 10
5.186280
 20
4.303640
  0
VERTEX
  8
0
  6
CONTINUOUS
 10
5.217080
 20
4.296160
  0
VERTEX
  8
0
  6
CONTINUOUS
 10
5.246120
 20
4.284720
  0
VERTEX
  8
0
  6
CONTINUOUS
 10
5.271640
 20
4.269320
  0
VERTEX
  8
0
  6
CONTINUOUS
 10
5.294520
 20
4.250840
  0
VERTEX
  8
0
  6
CONTINUOUS
 10
5.313440
 20
4.229720
  0
VERTEX
  8
0
  6
CONTINUOUS
 10
5.328840
 20
4.206400
  0
VERTEX
  8
0
  6
CONTINUOUS
 10
5.339840
 20
4.181760
  0
VERTEX
  8
0
  6
CONTINUOUS
 10
5.342480
 20
4.180000
  0
VERTEX
  8
0
  6
CONTINUOUS
 10
5.365800
 20
4.180000
  0
VERTEX
  8
0
  6
CONTINUOUS
 10
5.365800
 20
4.314640
  0
VERTEX
  8
0
  6
CONTINUOUS
 10
5.868280
 20
4.314640
  0
VERTEX
  8
0
  6
CONTINUOUS
 10
5.868280
 20
3.442120
  0
VERTEX
  8
0
  6
CONTINUOUS
 10
5.651360
 20
3.442120
  0
SEQEND
  8
0
  0
POLYLINE
  8
0
  6
CONTINUOUS
 66
     1
 40
0.000000
 41
0.000000
  0
VERTEX
  8
0
  6
CONTINUOUS
 10
3.102000
 20
4.545200
  0
VERTEX
  8
0
  6
CONTINUOUS
 10
5.868280
 20
4.545200
  0
VERTEX
  8
0
  6
CONTINUOUS
 10
5.868280
 20
4.787200
  0
VERTEX
  8
0
  6
CONTINUOUS
 10
5.844080
 20
4.788080
  0
VERTEX
  8
0
  6
CONTINUOUS
 10
5.797000
 20
4.794680
  0
VERTEX
  8
0
  6
CONTINUOUS
 10
5.774560
 20
4.800400
  0
VERTEX
  8
0
  6
CONTINUOUS
 10
5.732760
 20
4.816240
  0
VERTEX
  8
0
  6
CONTINUOUS
 10
5.695360
 20
4.837360
  0
VERTEX
  8
0
  6
CONTINUOUS
 10
5.663240
 20
4.863760
  0
VERTEX
  8
0
  6
CONTINUOUS
 10
5.637280
 20
4.894560
  0
VERTEX
  8
0
  6
CONTINUOUS
 10
5.627160
 20
4.911280
  0
VERTEX
  8
0
  6
CONTINUOUS
 10
5.618800
 20
4.929320
  0
VERTEX
  8
0
  6
CONTINUOUS
 10
5.612640
 20
4.947800
  0
VERTEX
  8
0
  6
CONTINUOUS
 10
5.608680
 20
4.967160
  0
VERTEX
  8
0
  6
CONTINUOUS
 10
5.492080
 20
4.967160
  0
VERTEX
  8
0
  6
CONTINUOUS
 10
5.491640
 20
5.037120
  0
VERTEX
  8
0
  6
CONTINUOUS
 10
5.487680
 20
5.060000
  0
VERTEX
  8
0
  6
CONTINUOUS
 10
5.480200
 20
5.081560
  0
VERTEX
  8
0
  6
CONTINUOUS
 10
5.463480
 20
5.109280
  0
VERTEX
  8
0
  6
CONTINUOUS
 10
5.448960
 20
5.124240
  0
VERTEX
  8
0
  6
CONTINUOUS
 10
5.432680
 20
5.135680
  0
VERTEX
  8
0
  6
CONTINUOUS
 10
5.415080
 20
5.142720
  0
VERTEX
  8
0
  6
CONTINUOUS
 10
5.405840
 20
5.144920
  0
VERTEX
  8
0
  6
CONTINUOUS
 10
5.387360
 20
5.144920
  0
VERTEX
  8
0
  6
CONTINUOUS
 10
5.368880
 20
5.139640
  0
VERTEX
  8
0
  6
CONTINUOUS
 10
5.352160
 20
5.130400
  0
VERTEX
  8
0
  6
CONTINUOUS
 10
5.336760
 20
5.117200
  0
VERTEX
  8
0
  6
CONTINUOUS
 10
5.318280
 20
5.091240
  0
VERTEX
  8
0
  6
CONTINUOUS
 10
5.309480
 20
5.071000
  0
VERTEX
  8
0
  6
CONTINUOUS
 10
5.303760
 20
5.048560
  0
VERTEX
  8
0
  6
CONTINUOUS
 10
5.301560
 20
5.025240
  0
VERTEX
  8
0
  6
CONTINUOUS
 10
5.301560
 20
4.967160
  0
VERTEX
  8
0
  6
CONTINUOUS
 10
4.642440
 20
4.967160
  0
VERTEX
  8
0
  6
CONTINUOUS
 10
4.598880
 20
4.968040
  0
VERTEX
  8
0
  6
CONTINUOUS
 10
4.513080
 20
4.976400
  0
VERTEX
  8
0
  6
CONTINUOUS
 10
4.471280
 20
4.983440
  0
VERTEX
  8
0
  6
CONTINUOUS
 10
4.430360
 20
4.992680
  0
VERTEX
  8
0
  6
CONTINUOUS
 10
4.391200
 20
5.003240
  0
VERTEX
  8
0
  6
CONTINUOUS
 10
4.353360
 20
5.015560
  0
VERTEX
  8
0
  6
CONTINUOUS
 10
4.300120
 20
5.036680
  0
VERTEX
  8
0
  6
CONTINUOUS
 10
4.251720
 20
5.061320
  0
VERTEX
  8
0
  6
CONTINUOUS
 10
4.209040
 20
5.088600
  0
VERTEX
  8
0
  6
CONTINUOUS
 10
4.173400
 20
5.118520
  0
VERTEX
  8
0
  6
CONTINUOUS
 10
4.145680
 20
5.151080
  0
VERTEX
  8
0
  6
CONTINUOUS
 10
4.137760
 20
5.162080
  0
VERTEX
  8
0
  6
CONTINUOUS
 10
4.125880
 20
5.185400
  0
VERTEX
  8
0
  6
CONTINUOUS
 10
3.906760
 20
5.185400
  0
VERTEX
  8
0
  6
CONTINUOUS
 10
3.886080
 20
5.218400
  0
VERTEX
  8
0
  6
CONTINUOUS
 10
3.846920
 20
5.269880
  0
VERTEX
  8
0
  6
CONTINUOUS
 10
3.807760
 20
5.312120
  0
VERTEX
  8
0
  6
CONTINUOUS
 10
3.768160
 20
5.346440
  0
VERTEX
  8
0
  6
CONTINUOUS
 10
3.729440
 20
5.372400
  0
VERTEX
  8
0
  6
CONTINUOUS
 10
3.691160
 20
5.391320
  0
VERTEX
  8
0
  6
CONTINUOUS
 10
3.653760
 20
5.403200
  0
VERTEX
  8
0
  6
CONTINUOUS
 10
3.617680
 20
5.408920
  0
VERTEX
  8
0
  6
CONTINUOUS
 10
3.600520
 20
5.409800
  0
VERTEX
  8
0
  6
CONTINUOUS
 10
3.567080
 20
5.407160
  0
VERTEX
  8
0
  6
CONTINUOUS
 10
3.535840
 20
5.399680
  0
VERTEX
  8
0
  6
CONTINUOUS
 10
3.507240
 20
5.388240
  0
VERTEX
  8
0
  6
CONTINUOUS
 10
3.481720
 20
5.372840
  0
VERTEX
  8
0
  6
CONTINUOUS
 10
3.458840
 20
5.354360
  0
VERTEX
  8
0
  6
CONTINUOUS
 10
3.439920
 20
5.333240
  0
VERTEX
  8
0
  6
CONTINUOUS
 10
3.424520
 20
5.309920
  0
VERTEX
  8
0
  6
CONTINUOUS
 10
3.413520
 20
5.285280
  0
VERTEX
  8
0
  6
CONTINUOUS
 10
3.410440
 20
5.283520
  0
VERTEX
  8
0
  6
CONTINUOUS
 10
3.387560
 20
5.283520
  0
VERTEX
  8
0
  6
CONTINUOUS
 10
3.387560
 20
5.418160
  0
VERTEX
  8
0
  6
CONTINUOUS
 10
2.885080
 20
5.418160
  0
VERTEX
  8
0
  6
CONTINUOUS
 10
2.885080
 20
4.545640
  0
VERTEX
  8
0
  6
CONTINUOUS
 10
3.102000
 20
4.545640
  0
SEQEND
  8
0
  0
SOLID
  8
0
 62
    15
 10
4.392080
 20
6.622440
 11
4.389880
 21
7.374840
 12
4.472160
 22
6.602640
 13
4.470400
 23
7.355480
  0
POLYLINE
  8
0
  6
CONTINUOUS
 66
     1
 40
0.000000
 41
0.000000
  0
VERTEX
  8
0
  6
CONTINUOUS
 10
4.392080
 20
6.622440
  0
VERTEX
  8
0
  6
CONTINUOUS
 10
4.389880
 20
7.374840
  0
VERTEX
  8
0
  6
CONTINUOUS
 10
4.470400
 20
7.355480
  0
VERTEX
  8
0
  6
CONTINUOUS
 10
4.472160
 20
6.602640
  0
VERTEX
  8
0
  6
CONTINUOUS
 10
4.392080
 20
6.622440
  0
SEQEND
  8
0
  0
SOLID
  8
0
 62
    15
 10
3.388440
 20
6.902720
 11
3.386680
 21
7.655120
 12
3.411320
 22
6.902720
 13
3.409560
 23
7.655120
  0
POLYLINE
  8
0
  6
CONTINUOUS
 66
     1
 40
0.000000
 41
0.000000
  0
VERTEX
  8
0
  6
CONTINUOUS
 10
3.388440
 20
6.902720
  0
VERTEX
  8
0
  6
CONTINUOUS
 10
3.386680
 20
7.655120
  0
VERTEX
  8
0
  6
CONTINUOUS
 10
3.409560
 20
7.655120
  0
VERTEX
  8
0
  6
CONTINUOUS
 10
3.411320
 20
6.902720
  0
VERTEX
  8
0
  6
CONTINUOUS
 10
3.388440
 20
6.902720
  0
SEQEND
  8
0
  0
SOLID
  8
0
 62
    15
 10
2.885960
 20
6.164840
 11
2.884200
 21
6.917680
 12
2.885960
 22
7.037360
 13
2.884200
 23
7.789760
  0
POLYLINE
  8
0
  6
CONTINUOUS
 66
     1
 40
0.000000
 41
0.000000
  0
VERTEX
  8
0
  6
CONTINUOUS
 10
2.885960
 20
6.164840
  0
VERTEX
  8
0
  6
CONTINUOUS
 10
2.884200
 20
6.917680
  0
VERTEX
  8
0
  6
CONTINUOUS
 10
2.884200
 20
7.789760
  0
VERTEX
  8
0
  6
CONTINUOUS
 10
2.885960
 20
7.037360
  0
VERTEX
  8
0
  6
CONTINUOUS
 10
2.885960
 20
6.164840
  0
SEQEND
  8
0
  0
SOLID
  8
0
 62
    15
 10
3.411320
 20
6.902720
 11
3.409560
 21
7.655120
 12
3.414400
 22
6.904480
 13
3.412640
 23
7.657320
  0
POLYLINE
  8
0
  6
CONTINUOUS
 66
     1
 40
0.000000
 41
0.000000
  0
VERTEX
  8
0
  6
CONTINUOUS
 10
3.411320
 20
6.902720
  0
VERTEX
  8
0
  6
CONTINUOUS
 10
3.409560
 20
7.655120
  0
VERTEX
  8
0
  6
CONTINUOUS
 10
3.412640
 20
7.657320
  0
VERTEX
  8
0
  6
CONTINUOUS
 10
3.414400
 20
6.904480
  0
VERTEX
  8
0
  6
CONTINUOUS
 10
3.411320
 20
6.902720
  0
SEQEND
  8
0
  0
SOLID
  8
0
 62
    15
 10
3.414400
 20
6.904480
 11
3.412640
 21
7.657320
 12
3.425400
 22
6.929120
 13
3.423640
 23
7.681960
  0
POLYLINE
  8
0
  6
CONTINUOUS
 66
     1
 40
0.000000
 41
0.000000
  0
VERTEX
  8
0
  6
CONTINUOUS
 10
3.414400
 20
6.904480
  0
VERTEX
  8
0
  6
CONTINUOUS
 10
3.412640
 20
7.657320
  0
VERTEX
  8
0
  6
CONTINUOUS
 10
3.423640
 20
7.681960
  0
VERTEX
  8
0
  6
CONTINUOUS
 10
3.425400
 20
6.929120
  0
VERTEX
  8
0
  6
CONTINUOUS
 10
3.414400
 20
6.904480
  0
SEQEND
  8
0
  0
SOLID
  8
0
 62
    15
 10
3.425400
 20
6.929120
 11
3.423640
 21
7.681960
 12
3.440800
 22
6.952440
 13
3.439040
 23
7.704840
  0
POLYLINE
  8
0
  6
CONTINUOUS
 66
     1
 40
0.000000
 41
0.000000
  0
VERTEX
  8
0
  6
CONTINUOUS
 10
3.425400
 20
6.929120
  0
VERTEX
  8
0
  6
CONTINUOUS
 10
3.423640
 20
7.681960
  0
VERTEX
  8
0
  6
CONTINUOUS
 10
3.439040
 20
7.704840
  0
VERTEX
  8
0
  6
CONTINUOUS
 10
3.440800
 20
6.952440
  0
VERTEX
  8
0
  6
CONTINUOUS
 10
3.425400
 20
6.929120
  0
SEQEND
  8
0
  0
SOLID
  8
0
 62
    15
 10
3.440800
 20
6.952440
 11
3.439040
 21
7.704840
 12
3.459720
 22
6.973560
 13
3.457960
 23
7.725960
  0
POLYLINE
  8
0
  6
CONTINUOUS
 66
     1
 40
0.000000
 41
0.000000
  0
VERTEX
  8
0
  6
CONTINUOUS
 10
3.440800
 20
6.952440
  0
VERTEX
  8
0
  6
CONTINUOUS
 10
3.439040
 20
7.704840
  0
VERTEX
  8
0
  6
CONTINUOUS
 10
3.457960
 20
7.725960
  0
VERTEX
  8
0
  6
CONTINUOUS
 10
3.459720
 20
6.973560
  0
VERTEX
  8
0
  6
CONTINUOUS
 10
3.440800
 20
6.952440
  0
SEQEND
  8
0
  0
SOLID
  8
0
 62
    15
 10
3.459720
 20
6.973560
 11
3.457960
 21
7.725960
 12
3.482600
 22
6.992040
 13
3.480840
 23
7.744440
  0
POLYLINE
  8
0
  6
CONTINUOUS
 66
     1
 40
0.000000
 41
0.000000
  0
VERTEX
  8
0
  6
CONTINUOUS
 10
3.459720
 20
6.973560
  0
VERTEX
  8
0
  6
CONTINUOUS
 10
3.457960
 20
7.725960
  0
VERTEX
  8
0
  6
CONTINUOUS
 10
3.480840
 20
7.744440
  0
VERTEX
  8
0
  6
CONTINUOUS
 10
3.482600
 20
6.992040
  0
VERTEX
  8
0
  6
CONTINUOUS
 10
3.459720
 20
6.973560
  0
SEQEND
  8
0
  0
SOLID
  8
0
 62
    15
 10
3.482600
 20
6.992040
 11
3.480840
 21
7.744440
 12
3.508120
 22
7.007440
 13
3.506360
 23
7.759840
  0
POLYLINE
  8
0
  6
CONTINUOUS
 66
     1
 40
0.000000
 41
0.000000
  0
VERTEX
  8
0
  6
CONTINUOUS
 10
3.482600
 20
6.992040
  0
VERTEX
  8
0
  6
CONTINUOUS
 10
3.480840
 20
7.744440
  0
VERTEX
  8
0
  6
CONTINUOUS
 10
3.506360
 20
7.759840
  0
VERTEX
  8
0
  6
CONTINUOUS
 10
3.508120
 20
7.007440
  0
VERTEX
  8
0
  6
CONTINUOUS
 10
3.482600
 20
6.992040
  0
SEQEND
  8
0
  0
SOLID
  8
0
 62
    15
 10
3.508120
 20
7.007440
 11
3.506360
 21
7.759840
 12
3.536720
 22
7.019320
 13
3.534960
 23
7.771720
  0
POLYLINE
  8
0
  6
CONTINUOUS
 66
     1
 40
0.000000
 41
0.000000
  0
VERTEX
  8
0
  6
CONTINUOUS
 10
3.508120
 20
7.007440
  0
VERTEX
  8
0
  6
CONTINUOUS
 10
3.506360
 20
7.759840
  0
VERTEX
  8
0
  6
CONTINUOUS
 10
3.534960
 20
7.771720
  0
VERTEX
  8
0
  6
CONTINUOUS
 10
3.536720
 20
7.019320
  0
VERTEX
  8
0
  6
CONTINUOUS
 10
3.508120
 20
7.007440
  0
SEQEND
  8
0
  0
SOLID
  8
0
 62
    15
 10
3.536720
 20
7.019320
 11
3.534960
 21
7.771720
 12
3.567960
 22
7.026360
 13
3.566200
 23
7.779200
  0
POLYLINE
  8
0
  6
CONTINUOUS
 66
     1
 40
0.000000
 41
0.000000
  0
VERTEX
  8
0
  6
CONTINUOUS
 10
3.536720
 20
7.019320
  0
VERTEX
  8
0
  6
CONTINUOUS
 10
3.534960
 20
7.771720
  0
VERTEX
  8
0
  6
CONTINUOUS
 10
3.566200
 20
7.779200
  0
VERTEX
  8
0
  6
CONTINUOUS
 10
3.567960
 20
7.026360
  0
VERTEX
  8
0
  6
CONTINUOUS
 10
3.536720
 20
7.019320
  0
SEQEND
  8
0
  0
SOLID
  8
0
 62
    15
 10
3.567960
 20
7.026360
 11
3.566200
 21
7.779200
 12
3.601400
 22
7.029000
 13
3.599640
 23
7.781400
  0
POLYLINE
  8
0
  6
CONTINUOUS
 66
     1
 40
0.000000
 41
0.000000
  0
VERTEX
  8
0
  6
CONTINUOUS
 10
3.567960
 20
7.026360
  0
VERTEX
  8
0
  6
CONTINUOUS
 10
3.566200
 20
7.779200
  0
VERTEX
  8
0
  6
CONTINUOUS
 10
3.599640
 20
7.781400
  0
VERTEX
  8
0
  6
CONTINUOUS
 10
3.601400
 20
7.029000
  0
VERTEX
  8
0
  6
CONTINUOUS
 10
3.567960
 20
7.026360
  0
SEQEND
  8
0
  0
SOLID
  8
0
 62
    15
 10
3.601400
 20
7.029000
 11
3.599640
 21
7.781400
 12
3.636600
 22
7.025920
 13
3.634840
 23
7.778760
  0
POLYLINE
  8
0
  6
CONTINUOUS
 66
     1
 40
0.000000
 41
0.000000
  0
VERTEX
  8
0
  6
CONTINUOUS
 10
3.601400
 20
7.029000
  0
VERTEX
  8
0
  6
CONTINUOUS
 10
3.599640
 20
7.781400
  0
VERTEX
  8
0
  6
CONTINUOUS
 10
3.634840
 20
7.778760
  0
VERTEX
  8
0
  6
CONTINUOUS
 10
3.636600
 20
7.025920
  0
VERTEX
  8
0
  6
CONTINUOUS
 10
3.601400
 20
7.029000
  0
SEQEND
  8
0
  0
SOLID
  8
0
 62
    15
 10
3.636600
 20
7.025920
 11
3.634840
 21
7.778760
 12
3.673120
 22
7.017120
 13
3.671360
 23
7.769960
  0
POLYLINE
  8
0
  6
CONTINUOUS
 66
     1
 40
0.000000
 41
0.000000
  0
VERTEX
  8
0
  6
CONTINUOUS
 10
3.636600
 20
7.025920
  0
VERTEX
  8
0
  6
CONTINUOUS
 10
3.634840
 20
7.778760
  0
VERTEX
  8
0
  6
CONTINUOUS
 10
3.671360
 20
7.769960
  0
VERTEX
  8
0
  6
CONTINUOUS
 10
3.673120
 20
7.017120
  0
VERTEX
  8
0
  6
CONTINUOUS
 10
3.636600
 20
7.025920
  0
SEQEND
  8
0
  0
SOLID
  8
0
 62
    15
 10
3.673120
 20
7.017120
 11
3.671360
 21
7.769960
 12
3.710960
 22
7.002160
 13
3.709200
 23
7.754560
  0
POLYLINE
  8
0
  6
CONTINUOUS
 66
     1
 40
0.000000
 41
0.000000
  0
VERTEX
  8
0
  6
CONTINUOUS
 10
3.673120
 20
7.017120
  0
VERTEX
  8
0
  6
CONTINUOUS
 10
3.671360
 20
7.769960
  0
VERTEX
  8
0
  6
CONTINUOUS
 10
3.709200
 20
7.754560
  0
VERTEX
  8
0
  6
CONTINUOUS
 10
3.710960
 20
7.002160
  0
VERTEX
  8
0
  6
CONTINUOUS
 10
3.673120
 20
7.017120
  0
SEQEND
  8
0
  0
SOLID
  8
0
 62
    15
 10
3.710960
 20
7.002160
 11
3.709200
 21
7.754560
 12
3.749680
 22
6.979720
 13
3.747920
 23
7.732120
  0
POLYLINE
  8
0
  6
CONTINUOUS
 66
     1
 40
0.000000
 41
0.000000
  0
VERTEX
  8
0
  6
CONTINUOUS
 10
3.710960
 20
7.002160
  0
VERTEX
  8
0
  6
CONTINUOUS
 10
3.709200
 20
7.754560
  0
VERTEX
  8
0
  6
CONTINUOUS
 10
3.747920
 20
7.732120
  0
VERTEX
  8
0
  6
CONTINUOUS
 10
3.749680
 20
6.979720
  0
VERTEX
  8
0
  6
CONTINUOUS
 10
3.710960
 20
7.002160
  0
SEQEND
  8
0
  0
SOLID
  8
0
 62
    15
 10
3.749680
 20
6.979720
 11
3.747920
 21
7.732120
 12
3.788840
 22
6.949360
 13
3.787080
 23
7.702200
  0
POLYLINE
  8
0
  6
CONTINUOUS
 66
     1
 40
0.000000
 41
0.000000
  0
VERTEX
  8
0
  6
CONTINUOUS
 10
3.749680
 20
6.979720
  0
VERTEX
  8
0
  6
CONTINUOUS
 10
3.747920
 20
7.732120
  0
VERTEX
  8
0
  6
CONTINUOUS
 10
3.787080
 20
7.702200
  0
VERTEX
  8
0
  6
CONTINUOUS
 10
3.788840
 20
6.949360
  0
VERTEX
  8
0
  6
CONTINUOUS
 10
3.749680
 20
6.979720
  0
SEQEND
  8
0
  0
SOLID
  8
0
 62
    15
 10
3.788840
 20
6.949360
 11
3.787080
 21
7.702200
 12
3.828440
 22
6.911520
 13
3.826240
 23
7.663920
  0
POLYLINE
  8
0
  6
CONTINUOUS
 66
     1
 40
0.000000
 41
0.000000
  0
VERTEX
  8
0
  6
CONTINUOUS
 10
3.788840
 20
6.949360
  0
VERTEX
  8
0
  6
CONTINUOUS
 10
3.787080
 20
7.702200
  0
VERTEX
  8
0
  6
CONTINUOUS
 10
3.826240
 20
7.663920
  0
VERTEX
  8
0
  6
CONTINUOUS
 10
3.828440
 20
6.911520
  0
VERTEX
  8
0
  6
CONTINUOUS
 10
3.788840
 20
6.949360
  0
SEQEND
  8
0
  0
SOLID
  8
0
 62
    15
 10
3.828440
 20
6.911520
 11
3.826240
 21
7.663920
 12
3.867600
 22
6.864440
 13
3.865840
 23
7.616840
  0
POLYLINE
  8
0
  6
CONTINUOUS
 66
     1
 40
0.000000
 41
0.000000
  0
VERTEX
  8
0
  6
CONTINUOUS
 10
3.828440
 20
6.911520
  0
VERTEX
  8
0
  6
CONTINUOUS
 10
3.826240
 20
7.663920
  0
VERTEX
  8
0
  6
CONTINUOUS
 10
3.865840
 20
7.616840
  0
VERTEX
  8
0
  6
CONTINUOUS
 10
3.867600
 20
6.864440
  0
VERTEX
  8
0
  6
CONTINUOUS
 10
3.828440
 20
6.911520
  0
SEQEND
  8
0
  0
SOLID
  8
0
 62
    15
 10
3.867600
 20
6.864440
 11
3.865840
 21
7.616840
 12
3.906320
 22
6.808120
 13
3.904560
 23
7.560960
  0
POLYLINE
  8
0
  6
CONTINUOUS
 66
     1
 40
0.000000
 41
0.000000
  0
VERTEX
  8
0
  6
CONTINUOUS
 10
3.867600
 20
6.864440
  0
VERTEX
  8
0
  6
CONTINUOUS
 10
3.865840
 20
7.616840
  0
VERTEX
  8
0
  6
CONTINUOUS
 10
3.904560
 20
7.560960
  0
VERTEX
  8
0
  6
CONTINUOUS
 10
3.906320
 20
6.808120
  0
VERTEX
  8
0
  6
CONTINUOUS
 10
3.867600
 20
6.864440
  0
SEQEND
  8
0
  0
SOLID
  8
0
 62
    15
 10
3.906320
 20
6.808120
 11
3.904560
 21
7.560960
 12
3.907640
 22
6.804600
 13
3.905880
 23
7.557000
  0
POLYLINE
  8
0
  6
CONTINUOUS
 66
     1
 40
0.000000
 41
0.000000
  0
VERTEX
  8
0
  6
CONTINUOUS
 10
3.906320
 20
6.808120
  0
VERTEX
  8
0
  6
CONTINUOUS
 10
3.904560
 20
7.560960
  0
VERTEX
  8
0
  6
CONTINUOUS
 10
3.905880
 20
7.557000
  0
VERTEX
  8
0
  6
CONTINUOUS
 10
3.907640
 20
6.804600
  0
VERTEX
  8
0
  6
CONTINUOUS
 10
3.906320
 20
6.808120
  0
SEQEND
  8
0
  0
SOLID
  8
0
 62
    15
 10
3.907640
 20
6.804600
 11
3.905880
 21
7.557000
 12
4.126760
 22
6.804600
 13
4.125000
 23
7.557000
  0
POLYLINE
  8
0
  6
CONTINUOUS
 66
     1
 40
0.000000
 41
0.000000
  0
VERTEX
  8
0
  6
CONTINUOUS
 10
3.907640
 20
6.804600
  0
VERTEX
  8
0
  6
CONTINUOUS
 10
3.905880
 20
7.557000
  0
VERTEX
  8
0
  6
CONTINUOUS
 10
4.125000
 20
7.557000
  0
VERTEX
  8
0
  6
CONTINUOUS
 10
4.126760
 20
6.804600
  0
VERTEX
  8
0
  6
CONTINUOUS
 10
3.907640
 20
6.804600
  0
SEQEND
  8
0
  0
SOLID
  8
0
 62
    15
 10
4.126760
 20
6.804600
 11
4.125000
 21
7.557000
 12
4.154920
 22
6.759280
 13
4.153160
 23
7.511680
  0
POLYLINE
  8
0
  6
CONTINUOUS
 66
     1
 40
0.000000
 41
0.000000
  0
VERTEX
  8
0
  6
CONTINUOUS
 10
4.126760
 20
6.804600
  0
VERTEX
  8
0
  6
CONTINUOUS
 10
4.125000
 20
7.557000
  0
VERTEX
  8
0
  6
CONTINUOUS
 10
4.153160
 20
7.511680
  0
VERTEX
  8
0
  6
CONTINUOUS
 10
4.154920
 20
6.759280
  0
VERTEX
  8
0
  6
CONTINUOUS
 10
4.126760
 20
6.804600
  0
SEQEND
  8
0
  0
SOLID
  8
0
 62
    15
 10
4.154920
 20
6.759280
 11
4.153160
 21
7.511680
 12
4.197600
 22
6.717480
 13
4.195840
 23
7.469880
  0
POLYLINE
  8
0
  6
CONTINUOUS
 66
     1
 40
0.000000
 41
0.000000
  0
VERTEX
  8
0
  6
CONTINUOUS
 10
4.154920
 20
6.759280
  0
VERTEX
  8
0
  6
CONTINUOUS
 10
4.153160
 20
7.511680
  0
VERTEX
  8
0
  6
CONTINUOUS
 10
4.195840
 20
7.469880
  0
VERTEX
  8
0
  6
CONTINUOUS
 10
4.197600
 20
6.717480
  0
VERTEX
  8
0
  6
CONTINUOUS
 10
4.154920
 20
6.759280
  0
SEQEND
  8
0
  0
SOLID
  8
0
 62
    15
 10
4.197600
 20
6.717480
 11
4.195840
 21
7.469880
 12
4.252600
 22
6.680520
 13
4.250840
 23
7.432920
  0
POLYLINE
  8
0
  6
CONTINUOUS
 66
     1
 40
0.000000
 41
0.000000
  0
VERTEX
  8
0
  6
CONTINUOUS
 10
4.197600
 20
6.717480
  0
VERTEX
  8
0
  6
CONTINUOUS
 10
4.195840
 20
7.469880
  0
VERTEX
  8
0
  6
CONTINUOUS
 10
4.250840
 20
7.432920
  0
VERTEX
  8
0
  6
CONTINUOUS
 10
4.252600
 20
6.680520
  0
VERTEX
  8
0
  6
CONTINUOUS
 10
4.197600
 20
6.717480
  0
SEQEND
  8
0
  0
SOLID
  8
0
 62
    15
 10
4.252600
 20
6.680520
 11
4.250840
 21
7.432920
 12
4.318160
 22
6.648400
 13
4.316400
 23
7.400800
  0
POLYLINE
  8
0
  6
CONTINUOUS
 66
     1
 40
0.000000
 41
0.000000
  0
VERTEX
  8
0
  6
CONTINUOUS
 10
4.252600
 20
6.680520
  0
VERTEX
  8
0
  6
CONTINUOUS
 10
4.250840
 20
7.432920
  0
VERTEX
  8
0
  6
CONTINUOUS
 10
4.316400
 20
7.400800
  0
VERTEX
  8
0
  6
CONTINUOUS
 10
4.318160
 20
6.648400
  0
VERTEX
  8
0
  6
CONTINUOUS
 10
4.252600
 20
6.680520
  0
SEQEND
  8
0
  0
SOLID
  8
0
 62
    15
 10
4.318160
 20
6.648400
 11
4.316400
 21
7.400800
 12
4.392080
 22
6.622440
 13
4.389880
 23
7.374840
  0
POLYLINE
  8
0
  6
CONTINUOUS
 66
     1
 40
0.000000
 41
0.000000
  0
VERTEX
  8
0
  6
CONTINUOUS
 10
4.318160
 20
6.648400
  0
VERTEX
  8
0
  6
CONTINUOUS
 10
4.316400
 20
7.400800
  0
VERTEX
  8
0
  6
CONTINUOUS
 10
4.389880
 20
7.374840
  0
VERTEX
  8
0
  6
CONTINUOUS
 10
4.392080
 20
6.622440
  0
VERTEX
  8
0
  6
CONTINUOUS
 10
4.318160
 20
6.648400
  0
SEQEND
  8
0
  0
SOLID
  8
0
 62
    15
 10
2.885960
 20
7.037360
 11
2.884200
 21
7.789760
 12
3.388440
 22
7.037360
 13
3.386680
 23
7.789760
  0
POLYLINE
  8
0
  6
CONTINUOUS
 66
     1
 40
0.000000
 41
0.000000
  0
VERTEX
  8
0
  6
CONTINUOUS
 10
2.885960
 20
7.037360
  0
VERTEX
  8
0
  6
CONTINUOUS
 10
2.884200
 20
7.789760
  0
VERTEX
  8
0
  6
CONTINUOUS
 10
3.386680
 20
7.789760
  0
VERTEX
  8
0
  6
CONTINUOUS
 10
3.388440
 20
7.037360
  0
VERTEX
  8
0
  6
CONTINUOUS
 10
2.885960
 20
7.037360
  0
SEQEND
  8
0
  0
SOLID
  8
0
 62
    15
 10
4.472160
 20
6.602640
 11
4.470400
 21
7.355480
 12
4.556640
 22
6.590320
 13
4.554880
 23
7.343160
  0
POLYLINE
  8
0
  6
CONTINUOUS
 66
     1
 40
0.000000
 41
0.000000
  0
VERTEX
  8
0
  6
CONTINUOUS
 10
4.472160
 20
6.602640
  0
VERTEX
  8
0
  6
CONTINUOUS
 10
4.470400
 20
7.355480
  0
VERTEX
  8
0
  6
CONTINUOUS
 10
4.554880
 20
7.343160
  0
VERTEX
  8
0
  6
CONTINUOUS
 10
4.556640
 20
6.590320
  0
VERTEX
  8
0
  6
CONTINUOUS
 10
4.472160
 20
6.602640
  0
SEQEND
  8
0
  0
SOLID
  8
0
 62
    15
 10
4.556640
 20
6.590320
 11
4.554880
 21
7.343160
 12
4.643320
 22
6.586360
 13
4.641560
 23
7.338760
  0
POLYLINE
  8
0
  6
CONTINUOUS
 66
     1
 40
0.000000
 41
0.000000
  0
VERTEX
  8
0
  6
CONTINUOUS
 10
4.556640
 20
6.590320
  0
VERTEX
  8
0
  6
CONTINUOUS
 10
4.554880
 20
7.343160
  0
VERTEX
  8
0
  6
CONTINUOUS
 10
4.641560
 20
7.338760
  0
VERTEX
  8
0
  6
CONTINUOUS
 10
4.643320
 20
6.586360
  0
VERTEX
  8
0
  6
CONTINUOUS
 10
4.556640
 20
6.590320
  0
SEQEND
  8
0
  0
SOLID
  8
0
 62
    15
 10
4.643320
 20
6.586360
 11
4.641560
 21
7.338760
 12
5.302440
 22
6.586360
 13
5.300680
 23
7.338760
  0
POLYLINE
  8
0
  6
CONTINUOUS
 66
     1
 40
0.000000
 41
0.000000
  0
VERTEX
  8
0
  6
CONTINUOUS
 10
4.643320
 20
6.586360
  0
VERTEX
  8
0
  6
CONTINUOUS
 10
4.641560
 20
7.338760
  0
VERTEX
  8
0
  6
CONTINUOUS
 10
5.300680
 20
7.338760
  0
VERTEX
  8
0
  6
CONTINUOUS
 10
5.302440
 20
6.586360
  0
VERTEX
  8
0
  6
CONTINUOUS
 10
4.643320
 20
6.586360
  0
SEQEND
  8
0
  0
SOLID
  8
0
 62
    15
 10
5.302440
 20
6.586360
 11
5.300680
 21
7.338760
 12
5.302440
 22
6.644440
 13
5.300680
 23
7.396840
  0
POLYLINE
  8
0
  6
CONTINUOUS
 66
     1
 40
0.000000
 41
0.000000
  0
VERTEX
  8
0
  6
CONTINUOUS
 10
5.302440
 20
6.586360
  0
VERTEX
  8
0
  6
CONTINUOUS
 10
5.300680
 20
7.338760
  0
VERTEX
  8
0
  6
CONTINUOUS
 10
5.300680
 20
7.396840
  0
VERTEX
  8
0
  6
CONTINUOUS
 10
5.302440
 20
6.644440
  0
VERTEX
  8
0
  6
CONTINUOUS
 10
5.302440
 20
6.586360
  0
SEQEND
  8
0
  0
SOLID
  8
0
 62
    15
 10
5.302440
 20
6.644440
 11
5.300680
 21
7.396840
 12
5.310360
 22
6.690200
 13
5.308160
 23
7.442600
  0
POLYLINE
  8
0
  6
CONTINUOUS
 66
     1
 40
0.000000
 41
0.000000
  0
VERTEX
  8
0
  6
CONTINUOUS
 10
5.302440
 20
6.644440
  0
VERTEX
  8
0
  6
CONTINUOUS
 10
5.300680
 20
7.396840
  0
VERTEX
  8
0
  6
CONTINUOUS
 10
5.308160
 20
7.442600
  0
VERTEX
  8
0
  6
CONTINUOUS
 10
5.310360
 20
6.690200
  0
VERTEX
  8
0
  6
CONTINUOUS
 10
5.302440
 20
6.644440
  0
SEQEND
  8
0
  0
SOLID
  8
0
 62
    15
 10
5.310360
 20
6.690200
 11
5.308160
 21
7.442600
 12
5.331040
 22
6.728480
 13
5.329280
 23
7.480880
  0
POLYLINE
  8
0
  6
CONTINUOUS
 66
     1
 40
0.000000
 41
0.000000
  0
VERTEX
  8
0
  6
CONTINUOUS
 10
5.310360
 20
6.690200
  0
VERTEX
  8
0
  6
CONTINUOUS
 10
5.308160
 20
7.442600
  0
VERTEX
  8
0
  6
CONTINUOUS
 10
5.329280
 20
7.480880
  0
VERTEX
  8
0
  6
CONTINUOUS
 10
5.331040
 20
6.728480
  0
VERTEX
  8
0
  6
CONTINUOUS
 10
5.310360
 20
6.690200
  0
SEQEND
  8
0
  0
SOLID
  8
0
 62
    15
 10
5.331040
 20
6.728480
 11
5.329280
 21
7.480880
 12
5.345120
 22
6.743440
 13
5.343360
 23
7.495840
  0
POLYLINE
  8
0
  6
CONTINUOUS
 66
     1
 40
0.000000
 41
0.000000
  0
VERTEX
  8
0
  6
CONTINUOUS
 10
5.331040
 20
6.728480
  0
VERTEX
  8
0
  6
CONTINUOUS
 10
5.329280
 20
7.480880
  0
VERTEX
  8
0
  6
CONTINUOUS
 10
5.343360
 20
7.495840
  0
VERTEX
  8
0
  6
CONTINUOUS
 10
5.345120
 20
6.743440
  0
VERTEX
  8
0
  6
CONTINUOUS
 10
5.331040
 20
6.728480
  0
SEQEND
  8
0
  0
SOLID
  8
0
 62
    15
 10
5.345120
 20
6.743440
 11
5.343360
 21
7.495840
 12
5.361400
 22
6.754880
 13
5.359640
 23
7.507280
  0
POLYLINE
  8
0
  6
CONTINUOUS
 66
     1
 40
0.000000
 41
0.000000
  0
VERTEX
  8
0
  6
CONTINUOUS
 10
5.345120
 20
6.743440
  0
VERTEX
  8
0
  6
CONTINUOUS
 10
5.343360
 20
7.495840
  0
VERTEX
  8
0
  6
CONTINUOUS
 10
5.359640
 20
7.507280
  0
VERTEX
  8
0
  6
CONTINUOUS
 10
5.361400
 20
6.754880
  0
VERTEX
  8
0
  6
CONTINUOUS
 10
5.345120
 20
6.743440
  0
SEQEND
  8
0
  0
SOLID
  8
0
 62
    15
 10
5.361400
 20
6.754880
 11
5.359640
 21
7.507280
 12
5.379000
 22
6.761920
 13
5.377240
 23
7.514320
  0
POLYLINE
  8
0
  6
CONTINUOUS
 66
     1
 40
0.000000
 41
0.000000
  0
VERTEX
  8
0
  6
CONTINUOUS
 10
5.361400
 20
6.754880
  0
VERTEX
  8
0
  6
CONTINUOUS
 10
5.359640
 20
7.507280
  0
VERTEX
  8
0
  6
CONTINUOUS
 10
5.377240
 20
7.514320
  0
VERTEX
  8
0
  6
CONTINUOUS
 10
5.379000
 20
6.761920
  0
VERTEX
  8
0
  6
CONTINUOUS
 10
5.361400
 20
6.754880
  0
SEQEND
  8
0
  0
SOLID
  8
0
 62
    15
 10
5.379000
 20
6.761920
 11
5.377240
 21
7.514320
 12
5.397480
 22
6.764560
 13
5.395720
 23
7.516960
  0
POLYLINE
  8
0
  6
CONTINUOUS
 66
     1
 40
0.000000
 41
0.000000
  0
VERTEX
  8
0
  6
CONTINUOUS
 10
5.379000
 20
6.761920
  0
VERTEX
  8
0
  6
CONTINUOUS
 10
5.377240
 20
7.514320
  0
VERTEX
  8
0
  6
CONTINUOUS
 10
5.395720
 20
7.516960
  0
VERTEX
  8
0
  6
CONTINUOUS
 10
5.397480
 20
6.764560
  0
VERTEX
  8
0
  6
CONTINUOUS
 10
5.379000
 20
6.761920
  0
SEQEND
  8
0
  0
SOLID
  8
0
 62
    15
 10
5.397480
 20
6.764560
 11
5.395720
 21
7.516960
 12
5.415960
 22
6.761920
 13
5.414200
 23
7.514320
  0
POLYLINE
  8
0
  6
CONTINUOUS
 66
     1
 40
0.000000
 41
0.000000
  0
VERTEX
  8
0
  6
CONTINUOUS
 10
5.397480
 20
6.764560
  0
VERTEX
  8
0
  6
CONTINUOUS
 10
5.395720
 20
7.516960
  0
VERTEX
  8
0
  6
CONTINUOUS
 10
5.414200
 20
7.514320
  0
VERTEX
  8
0
  6
CONTINUOUS
 10
5.415960
 20
6.761920
  0
VERTEX
  8
0
  6
CONTINUOUS
 10
5.397480
 20
6.764560
  0
SEQEND
  8
0
  0
SOLID
  8
0
 62
    15
 10
5.415960
 20
6.761920
 11
5.414200
 21
7.514320
 12
5.433560
 22
6.754880
 13
5.431800
 23
7.507280
  0
POLYLINE
  8
0
  6
CONTINUOUS
 66
     1
 40
0.000000
 41
0.000000
  0
VERTEX
  8
0
  6
CONTINUOUS
 10
5.415960
 20
6.761920
  0
VERTEX
  8
0
  6
CONTINUOUS
 10
5.414200
 20
7.514320
  0
VERTEX
  8
0
  6
CONTINUOUS
 10
5.431800
 20
7.507280
  0
VERTEX
  8
0
  6
CONTINUOUS
 10
5.433560
 20
6.754880
  0
VERTEX
  8
0
  6
CONTINUOUS
 10
5.415960
 20
6.761920
  0
SEQEND
  8
0
  0
SOLID
  8
0
 62
    15
 10
5.433560
 20
6.754880
 11
5.431800
 21
7.507280
 12
5.449840
 22
6.743440
 13
5.448080
 23
7.495840
  0
POLYLINE
  8
0
  6
CONTINUOUS
 66
     1
 40
0.000000
 41
0.000000
  0
VERTEX
  8
0
  6
CONTINUOUS
 10
5.433560
 20
6.754880
  0
VERTEX
  8
0
  6
CONTINUOUS
 10
5.431800
 20
7.507280
  0
VERTEX
  8
0
  6
CONTINUOUS
 10
5.448080
 20
7.495840
  0
VERTEX
  8
0
  6
CONTINUOUS
 10
5.449840
 20
6.743440
  0
VERTEX
  8
0
  6
CONTINUOUS
 10
5.433560
 20
6.754880
  0
SEQEND
  8
0
  0
SOLID
  8
0
 62
    15
 10
5.449840
 20
6.743440
 11
5.448080
 21
7.495840
 12
5.463920
 22
6.728480
 13
5.462160
 23
7.480880
  0
POLYLINE
  8
0
  6
CONTINUOUS
 66
     1
 40
0.000000
 41
0.000000
  0
VERTEX
  8
0
  6
CONTINUOUS
 10
5.449840
 20
6.743440
  0
VERTEX
  8
0
  6
CONTINUOUS
 10
5.448080
 20
7.495840
  0
VERTEX
  8
0
  6
CONTINUOUS
 10
5.462160
 20
7.480880
  0
VERTEX
  8
0
  6
CONTINUOUS
 10
5.463920
 20
6.728480
  0
VERTEX
  8
0
  6
CONTINUOUS
 10
5.449840
 20
6.743440
  0
SEQEND
  8
0
  0
SOLID
  8
0
 62
    15
 10
5.463920
 20
6.728480
 11
5.462160
 21
7.480880
 12
5.485040
 22
6.690200
 13
5.483280
 23
7.442600
  0
POLYLINE
  8
0
  6
CONTINUOUS
 66
     1
 40
0.000000
 41
0.000000
  0
VERTEX
  8
0
  6
CONTINUOUS
 10
5.463920
 20
6.728480
  0
VERTEX
  8
0
  6
CONTINUOUS
 10
5.462160
 20
7.480880
  0
VERTEX
  8
0
  6
CONTINUOUS
 10
5.483280
 20
7.442600
  0
VERTEX
  8
0
  6
CONTINUOUS
 10
5.485040
 20
6.690200
  0
VERTEX
  8
0
  6
CONTINUOUS
 10
5.463920
 20
6.728480
  0
SEQEND
  8
0
  0
SOLID
  8
0
 62
    15
 10
5.492960
 20
6.586360
 11
5.491200
 21
7.338760
 12
5.609560
 22
6.586360
 13
5.607800
 23
7.338760
  0
POLYLINE
  8
0
  6
CONTINUOUS
 66
     1
 40
0.000000
 41
0.000000
  0
VERTEX
  8
0
  6
CONTINUOUS
 10
5.492960
 20
6.586360
  0
VERTEX
  8
0
  6
CONTINUOUS
 10
5.491200
 20
7.338760
  0
VERTEX
  8
0
  6
CONTINUOUS
 10
5.607800
 20
7.338760
  0
VERTEX
  8
0
  6
CONTINUOUS
 10
5.609560
 20
6.586360
  0
VERTEX
  8
0
  6
CONTINUOUS
 10
5.492960
 20
6.586360
  0
SEQEND
  8
0
  0
SOLID
  8
0
 62
    15
 10
5.485040
 20
6.690200
 11
5.483280
 21
7.442600
 12
5.492960
 22
6.644440
 13
5.491200
 23
7.396840
  0
POLYLINE
  8
0
  6
CONTINUOUS
 66
     1
 40
0.000000
 41
0.000000
  0
VERTEX
  8
0
  6
CONTINUOUS
 10
5.485040
 20
6.690200
  0
VERTEX
  8
0
  6
CONTINUOUS
 10
5.483280
 20
7.442600
  0
VERTEX
  8
0
  6
CONTINUOUS
 10
5.491200
 20
7.396840
  0
VERTEX
  8
0
  6
CONTINUOUS
 10
5.492960
 20
6.644440
  0
VERTEX
  8
0
  6
CONTINUOUS
 10
5.485040
 20
6.690200
  0
SEQEND
  8
0
  0
SOLID
  8
0
 62
    15
 10
5.609560
 20
6.586360
 11
5.607800
 21
7.338760
 12
5.619680
 22
6.548520
 13
5.617920
 23
7.300920
  0
POLYLINE
  8
0
  6
CONTINUOUS
 66
     1
 40
0.000000
 41
0.000000
  0
VERTEX
  8
0
  6
CONTINUOUS
 10
5.609560
 20
6.586360
  0
VERTEX
  8
0
  6
CONTINUOUS
 10
5.607800
 20
7.338760
  0
VERTEX
  8
0
  6
CONTINUOUS
 10
5.617920
 20
7.300920
  0
VERTEX
  8
0
  6
CONTINUOUS
 10
5.619680
 20
6.548520
  0
VERTEX
  8
0
  6
CONTINUOUS
 10
5.609560
 20
6.586360
  0
SEQEND
  8
0
  0
SOLID
  8
0
 62
    15
 10
5.619680
 20
6.548520
 11
5.617920
 21
7.300920
 12
5.638160
 22
6.513760
 13
5.636400
 23
7.266160
  0
POLYLINE
  8
0
  6
CONTINUOUS
 66
     1
 40
0.000000
 41
0.000000
  0
VERTEX
  8
0
  6
CONTINUOUS
 10
5.619680
 20
6.548520
  0
VERTEX
  8
0
  6
CONTINUOUS
 10
5.617920
 20
7.300920
  0
VERTEX
  8
0
  6
CONTINUOUS
 10
5.636400
 20
7.266160
  0
VERTEX
  8
0
  6
CONTINUOUS
 10
5.638160
 20
6.513760
  0
VERTEX
  8
0
  6
CONTINUOUS
 10
5.619680
 20
6.548520
  0
SEQEND
  8
0
  0
SOLID
  8
0
 62
    15
 10
5.638160
 20
6.513760
 11
5.636400
 21
7.266160
 12
5.664120
 22
6.482960
 13
5.662360
 23
7.235360
  0
POLYLINE
  8
0
  6
CONTINUOUS
 66
     1
 40
0.000000
 41
0.000000
  0
VERTEX
  8
0
  6
CONTINUOUS
 10
5.638160
 20
6.513760
  0
VERTEX
  8
0
  6
CONTINUOUS
 10
5.636400
 20
7.266160
  0
VERTEX
  8
0
  6
CONTINUOUS
 10
5.662360
 20
7.235360
  0
VERTEX
  8
0
  6
CONTINUOUS
 10
5.664120
 20
6.482960
  0
VERTEX
  8
0
  6
CONTINUOUS
 10
5.638160
 20
6.513760
  0
SEQEND
  8
0
  0
SOLID
  8
0
 62
    15
 10
5.664120
 20
6.482960
 11
5.662360
 21
7.235360
 12
5.696240
 22
6.456560
 13
5.694480
 23
7.209400
  0
POLYLINE
  8
0
  6
CONTINUOUS
 66
     1
 40
0.000000
 41
0.000000
  0
VERTEX
  8
0
  6
CONTINUOUS
 10
5.664120
 20
6.482960
  0
VERTEX
  8
0
  6
CONTINUOUS
 10
5.662360
 20
7.235360
  0
VERTEX
  8
0
  6
CONTINUOUS
 10
5.694480
 20
7.209400
  0
VERTEX
  8
0
  6
CONTINUOUS
 10
5.696240
 20
6.456560
  0
VERTEX
  8
0
  6
CONTINUOUS
 10
5.664120
 20
6.482960
  0
SEQEND
  8
0
  0
SOLID
  8
0
 62
    15
 10
5.696240
 20
6.456560
 11
5.694480
 21
7.209400
 12
5.733640
 22
6.435440
 13
5.731880
 23
7.187840
  0
POLYLINE
  8
0
  6
CONTINUOUS
 66
     1
 40
0.000000
 41
0.000000
  0
VERTEX
  8
0
  6
CONTINUOUS
 10
5.696240
 20
6.456560
  0
VERTEX
  8
0
  6
CONTINUOUS
 10
5.694480
 20
7.209400
  0
VERTEX
  8
0
  6
CONTINUOUS
 10
5.731880
 20
7.187840
  0
VERTEX
  8
0
  6
CONTINUOUS
 10
5.733640
 20
6.435440
  0
VERTEX
  8
0
  6
CONTINUOUS
 10
5.696240
 20
6.456560
  0
SEQEND
  8
0
  0
SOLID
  8
0
 62
    15
 10
5.733640
 20
6.435440
 11
5.731880
 21
7.187840
 12
5.775440
 22
6.419600
 13
5.773680
 23
7.172000
  0
POLYLINE
  8
0
  6
CONTINUOUS
 66
     1
 40
0.000000
 41
0.000000
  0
VERTEX
  8
0
  6
CONTINUOUS
 10
5.733640
 20
6.435440
  0
VERTEX
  8
0
  6
CONTINUOUS
 10
5.731880
 20
7.187840
  0
VERTEX
  8
0
  6
CONTINUOUS
 10
5.773680
 20
7.172000
  0
VERTEX
  8
0
  6
CONTINUOUS
 10
5.775440
 20
6.419600
  0
VERTEX
  8
0
  6
CONTINUOUS
 10
5.733640
 20
6.435440
  0
SEQEND
  8
0
  0
SOLID
  8
0
 62
    15
 10
5.775440
 20
6.419600
 11
5.773680
 21
7.172000
 12
5.821200
 22
6.409480
 13
5.819000
 23
7.162320
  0
POLYLINE
  8
0
  6
CONTINUOUS
 66
     1
 40
0.000000
 41
0.000000
  0
VERTEX
  8
0
  6
CONTINUOUS
 10
5.775440
 20
6.419600
  0
VERTEX
  8
0
  6
CONTINUOUS
 10
5.773680
 20
7.172000
  0
VERTEX
  8
0
  6
CONTINUOUS
 10
5.819000
 20
7.162320
  0
VERTEX
  8
0
  6
CONTINUOUS
 10
5.821200
 20
6.409480
  0
VERTEX
  8
0
  6
CONTINUOUS
 10
5.775440
 20
6.419600
  0
SEQEND
  8
0
  0
SOLID
  8
0
 62
    15
 10
5.821200
 20
6.409480
 11
5.819000
 21
7.162320
 12
5.869160
 22
6.406400
 13
5.867400
 23
7.158800
  0
POLYLINE
  8
0
  6
CONTINUOUS
 66
     1
 40
0.000000
 41
0.000000
  0
VERTEX
  8
0
  6
CONTINUOUS
 10
5.821200
 20
6.409480
  0
VERTEX
  8
0
  6
CONTINUOUS
 10
5.819000
 20
7.162320
  0
VERTEX
  8
0
  6
CONTINUOUS
 10
5.867400
 20
7.158800
  0
VERTEX
  8
0
  6
CONTINUOUS
 10
5.869160
 20
6.406400
  0
VERTEX
  8
0
  6
CONTINUOUS
 10
5.821200
 20
6.409480
  0
SEQEND
  8
0
  0
SOLID
  8
0
 62
    15
 10
3.102880
 20
6.164400
 11
3.101120
 21
6.916800
 12
3.102880
 22
6.164840
 13
3.101120
 23
6.917680
  0
POLYLINE
  8
0
  6
CONTINUOUS
 66
     1
 40
0.000000
 41
0.000000
  0
VERTEX
  8
0
  6
CONTINUOUS
 10
3.102880
 20
6.164400
  0
VERTEX
  8
0
  6
CONTINUOUS
 10
3.101120
 20
6.916800
  0
VERTEX
  8
0
  6
CONTINUOUS
 10
3.101120
 20
6.917680
  0
VERTEX
  8
0
  6
CONTINUOUS
 10
3.102880
 20
6.164840
  0
VERTEX
  8
0
  6
CONTINUOUS
 10
3.102880
 20
6.164400
  0
SEQEND
  8
0
  0
POLYLINE
  8
0
  6
CONTINUOUS
 66
     1
 40
0.000000
 41
0.000000
  0
VERTEX
  8
0
  6
CONTINUOUS
 10
3.102880
 20
6.164840
  0
VERTEX
  8
0
  6
CONTINUOUS
 10
2.885960
 20
6.164840
  0
VERTEX
  8
0
  6
CONTINUOUS
 10
2.885960
 20
7.037360
  0
VERTEX
  8
0
  6
CONTINUOUS
 10
3.388440
 20
7.037360
  0
VERTEX
  8
0
  6
CONTINUOUS
 10
3.388440
 20
6.902720
  0
VERTEX
  8
0
  6
CONTINUOUS
 10
3.411320
 20
6.902720
  0
VERTEX
  8
0
  6
CONTINUOUS
 10
3.414400
 20
6.904480
  0
VERTEX
  8
0
  6
CONTINUOUS
 10
3.425400
 20
6.929120
  0
VERTEX
  8
0
  6
CONTINUOUS
 10
3.440800
 20
6.952440
  0
VERTEX
  8
0
  6
CONTINUOUS
 10
3.459720
 20
6.973560
  0
VERTEX
  8
0
  6
CONTINUOUS
 10
3.482600
 20
6.992040
  0
VERTEX
  8
0
  6
CONTINUOUS
 10
3.508120
 20
7.007440
  0
VERTEX
  8
0
  6
CONTINUOUS
 10
3.536720
 20
7.019320
  0
VERTEX
  8
0
  6
CONTINUOUS
 10
3.567960
 20
7.026360
  0
VERTEX
  8
0
  6
CONTINUOUS
 10
3.601400
 20
7.029000
  0
VERTEX
  8
0
  6
CONTINUOUS
 10
3.636600
 20
7.025920
  0
VERTEX
  8
0
  6
CONTINUOUS
 10
3.673120
 20
7.017120
  0
VERTEX
  8
0
  6
CONTINUOUS
 10
3.710960
 20
7.002160
  0
VERTEX
  8
0
  6
CONTINUOUS
 10
3.749680
 20
6.979720
  0
VERTEX
  8
0
  6
CONTINUOUS
 10
3.788840
 20
6.949360
  0
VERTEX
  8
0
  6
CONTINUOUS
 10
3.828440
 20
6.911520
  0
VERTEX
  8
0
  6
CONTINUOUS
 10
3.867600
 20
6.864440
  0
VERTEX
  8
0
  6
CONTINUOUS
 10
3.907640
 20
6.804600
  0
VERTEX
  8
0
  6
CONTINUOUS
 10
4.126760
 20
6.804600
  0
VERTEX
  8
0
  6
CONTINUOUS
 10
4.154920
 20
6.759280
  0
VERTEX
  8
0
  6
CONTINUOUS
 10
4.197600
 20
6.717480
  0
VERTEX
  8
0
  6
CONTINUOUS
 10
4.252600
 20
6.680520
  0
VERTEX
  8
0
  6
CONTINUOUS
 10
4.318160
 20
6.648400
  0
VERTEX
  8
0
  6
CONTINUOUS
 10
4.392080
 20
6.622440
  0
VERTEX
  8
0
  6
CONTINUOUS
 10
4.472160
 20
6.602640
  0
VERTEX
  8
0
  6
CONTINUOUS
 10
4.556640
 20
6.590320
  0
VERTEX
  8
0
  6
CONTINUOUS
 10
4.643320
 20
6.586360
  0
VERTEX
  8
0
  6
CONTINUOUS
 10
5.302440
 20
6.586360
  0
VERTEX
  8
0
  6
CONTINUOUS
 10
5.302440
 20
6.644440
  0
VERTEX
  8
0
  6
CONTINUOUS
 10
5.310360
 20
6.690200
  0
VERTEX
  8
0
  6
CONTINUOUS
 10
5.331040
 20
6.728480
  0
VERTEX
  8
0
  6
CONTINUOUS
 10
5.345120
 20
6.743440
  0
VERTEX
  8
0
  6
CONTINUOUS
 10
5.361400
 20
6.754880
  0
VERTEX
  8
0
  6
CONTINUOUS
 10
5.379000
 20
6.761920
  0
VERTEX
  8
0
  6
CONTINUOUS
 10
5.397480
 20
6.764560
  0
VERTEX
  8
0
  6
CONTINUOUS
 10
5.415960
 20
6.761920
  0
VERTEX
  8
0
  6
CONTINUOUS
 10
5.433560
 20
6.754880
  0
VERTEX
  8
0
  6
CONTINUOUS
 10
5.449840
 20
6.743440
  0
VERTEX
  8
0
  6
CONTINUOUS
 10
5.463920
 20
6.728480
  0
VERTEX
  8
0
  6
CONTINUOUS
 10
5.485040
 20
6.690200
  0
VERTEX
  8
0
  6
CONTINUOUS
 10
5.492960
 20
6.644440
  0
VERTEX
  8
0
  6
CONTINUOUS
 10
5.492960
 20
6.586360
  0
VERTEX
  8
0
  6
CONTINUOUS
 10
5.609560
 20
6.586360
  0
VERTEX
  8
0
  6
CONTINUOUS
 10
5.619680
 20
6.548520
  0
VERTEX
  8
0
  6
CONTINUOUS
 10
5.638160
 20
6.513760
  0
VERTEX
  8
0
  6
CONTINUOUS
 10
5.664120
 20
6.482960
  0
VERTEX
  8
0
  6
CONTINUOUS
 10
5.696240
 20
6.456560
  0
VERTEX
  8
0
  6
CONTINUOUS
 10
5.733640
 20
6.435440
  0
VERTEX
  8
0
  6
CONTINUOUS
 10
5.775440
 20
6.419600
  0
VERTEX
  8
0
  6
CONTINUOUS
 10
5.821200
 20
6.409480
  0
VERTEX
  8
0
  6
CONTINUOUS
 10
5.869160
 20
6.406400
  0
VERTEX
  8
0
  6
CONTINUOUS
 10
5.869160
 20
6.164400
  0
VERTEX
  8
0
  6
CONTINUOUS
 10
3.102880
 20
6.164840
  0
SEQEND
  8
0
  0
TEXT
  8
0
 10
4.035680
 20
5.894680
 40
0.138260
  1
BA  1209
 41
1.000000
  7
SN0
 71
     0
 72
     5
 11
4.718823
 21
5.894680
  0
TEXT
  8
0
 10
4.069120
 20
5.702840
 40
0.138260
  1
7/8" x 3"
 41
1.000000
  7
SN0
 71
     0
 72
     5
 11
4.685230
 21
5.702840
  0
TEXT
  8
0
 10
3.005640
 20
8.625320
 40
0.138260
  1
BA  1209
 41
1.000000
  7
SN0
 71
     0
 72
     5
 11
3.688783
 21
8.625320
  0
TEXT
  8
0
 10
3.038640
 20
8.433920
 40
0.138260
  1
7/8" x 3"
 41
1.000000
  7
SN0
 71
     0
 72
     5
 11
3.654750
 21
8.433920
  0
ENDSEC
  0
EOF
