  0
SECTION
  2
HEADER
  9
$ACADVER
  1
AC1006
  9
$EXTMIN
 10
2.221120
 20
0.599280
  9
$EXTMAX
 10
5.768840
 20
6.973560
  9
$LTSCALE
 40
0.044000
  9
$PDMODE
 70
    35
  9
$PDSIZE
 40
0.035200
  0
ENDSEC
  0
SECTION
  2
TABLES
  0
TABLE
  2
LTYPE
 70
     9
  0
LTYPE
  2
CONTINUOUS
 70
    64
  3
Solid line
 72
    65
 73
     0
 40
0.000000
  0
LTYPE
  2
DASHED
 70
    64
  3
__ __ __ __ __ __ __ __ __ __ __ __ __ __ __
 72
    65
 73
     2
 40
0.000330
 49
0.000220
 49
-0.000110
  0
LTYPE
  2
HIDDEN
 70
    64
  3
 _ _ _ _ _ _ _ _ _ _ _ _ _ _ _ _ _ _ _ _ _ _
 72
    65
 73
     2
 40
0.000165
 49
0.000110
 49
-0.000055
  0
LTYPE
  2
CENTER
 70
    64
  3
____ _ ____ _ ____ _ ____ _ ____ _ ____ _ ____
 72
    65
 73
     4
 40
0.000880
 49
0.000550
 49
-0.000110
 49
0.000110
 49
-0.000110
  0
LTYPE
  2
PHANTOM
 70
    64
  3
_____ _ _ _____ _ _ _____ _ _ _____ _ _ ____
 72
    65
 73
     6
 40
0.001100
 49
0.000550
 49
-0.000110
 49
0.000110
 49
-0.000110
 49
0.000110
 49
-0.000110
  0
LTYPE
  2
DOT
 70
    64
  3
...............................................
 72
    65
 73
     2
 40
0.000110
 49
0.000000
 49
-0.000110
  0
LTYPE
  2
DASHDOT
 70
    64
  3
__ . __ . __ . __ . __ . __ . __ . __ . __ . __
 72
    65
 73
     4
 40
0.000440
 49
0.000220
 49
-0.000110
 49
0.000000
 49
-0.000110
  0
LTYPE
  2
BORDER
 70
    64
  3
__ __ . __ __ . __ __ . __ __ . __ __ . __ __
 72
    65
 73
     6
 40
0.000770
 49
0.000220
 49
-0.000110
 49
0.000220
 49
-0.000110
 49
0.000000
 49
-0.000110
  0
LTYPE
  2
DIVIDE
 70
    64
  3
__ . . __ . . __ . . __ . . __ . . __ . . __
 72
    65
 73
     6
 40
0.000550
 49
0.000220
 49
-0.000110
 49
0.000000
 49
-0.000110
 49
0.000000
 49
-0.000110
  0
LTYPE
  2
DOTDOT
 70
    64
  3
 . .  . .  . .  . .  . .  . . 
 72
    65
 73
     5
 40
0.000242
 49
-0.000110
 49
0.000000
 49
-0.000110
 49
0.000000
 49
-0.000110
  0
ENDTAB
  0
TABLE
  2
STYLE
 70
     2
  0
STYLE
 70
     0
  2
SN0
 40
0.000000
 41
0.000440
 50
0.000000
 71
     0
 42
0.000000
  3
ROMAND
  0
STYLE
 70
    68
  2
SV0
 40
0.000000
 41
0.000440
 50
0.000000
 71
     0
 42
0.000000
  3
ROMAND
  0
ENDTAB
  0
TABLE
  2
LAYER
 70
     3
  0
LAYER
  2
FOREGROUND
 70
    64
 62
     7
  6
CONTINUOUS
  0
LAYER
  2
BACKGROUND
 70
    65
 62
    -7
  6
CONTINUOUS
  0
LAYER
  2
0
 70
    64
 62
     7
  6
CONTINUOUS
  0
ENDTAB
  0
ENDSEC
  0
SECTION
  2
ENTITIES
  0
POLYLINE
  8
FOREGROUND
  6
CONTINUOUS
 66
     1
 40
0.000000
 41
0.000000
  0
VERTEX
  8
FOREGROUND
  6
CONTINUOUS
 10
0.000000
 20
7.572840
  0
VERTEX
  8
FOREGROUND
  6
CONTINUOUS
 10
8.499920
 20
7.572840
  0
VERTEX
  8
FOREGROUND
  6
CONTINUOUS
 10
8.499920
 20
-3.427160
  0
VERTEX
  8
FOREGROUND
  6
CONTINUOUS
 10
0.000000
 20
-3.427160
  0
VERTEX
  8
FOREGROUND
  6
CONTINUOUS
 10
0.000000
 20
7.572840
  0
SEQEND
  8
0
  0
POLYLINE
  8
FOREGROUND
  6
CONTINUOUS
 66
     1
 40
0.000000
 41
0.000000
  0
VERTEX
  8
FOREGROUND
  6
CONTINUOUS
 10
0.000000
 20
7.572840
  0
VERTEX
  8
FOREGROUND
  6
CONTINUOUS
 10
8.499920
 20
7.572840
  0
VERTEX
  8
FOREGROUND
  6
CONTINUOUS
 10
8.499920
 20
-3.427160
  0
VERTEX
  8
FOREGROUND
  6
CONTINUOUS
 10
0.000000
 20
-3.427160
  0
VERTEX
  8
FOREGROUND
  6
CONTINUOUS
 10
0.000000
 20
7.572840
  0
SEQEND
  8
0
  0
POLYLINE
  8
0
  6
CONTINUOUS
 66
     1
 40
0.014080
 41
0.014080
  0
VERTEX
  8
0
  6
CONTINUOUS
 10
2.394040
 20
6.092680
  0
VERTEX
  8
0
  6
CONTINUOUS
 10
5.731440
 20
6.092680
  0
VERTEX
  8
0
  6
CONTINUOUS
 10
5.731440
 20
6.334680
  0
VERTEX
  8
0
  6
CONTINUOUS
 10
5.701960
 20
6.335560
  0
VERTEX
  8
0
  6
CONTINUOUS
 10
5.645200
 20
6.342160
  0
VERTEX
  8
0
  6
CONTINUOUS
 10
5.618360
 20
6.347880
  0
VERTEX
  8
0
  6
CONTINUOUS
 10
5.567760
 20
6.363720
  0
VERTEX
  8
0
  6
CONTINUOUS
 10
5.522440
 20
6.384840
  0
VERTEX
  8
0
  6
CONTINUOUS
 10
5.483720
 20
6.411240
  0
VERTEX
  8
0
  6
CONTINUOUS
 10
5.467440
 20
6.426200
  0
VERTEX
  8
0
  6
CONTINUOUS
 10
5.446320
 20
6.450400
  0
VERTEX
  8
0
  6
CONTINUOUS
 10
5.430480
 20
6.476800
  0
VERTEX
  8
0
  6
CONTINUOUS
 10
5.420360
 20
6.504960
  0
VERTEX
  8
0
  6
CONTINUOUS
 10
5.418160
 20
6.514640
  0
VERTEX
  8
0
  6
CONTINUOUS
 10
5.277360
 20
6.514640
  0
VERTEX
  8
0
  6
CONTINUOUS
 10
5.276920
 20
6.584600
  0
VERTEX
  8
0
  6
CONTINUOUS
 10
5.272080
 20
6.607480
  0
VERTEX
  8
0
  6
CONTINUOUS
 10
5.262840
 20
6.629040
  0
VERTEX
  8
0
  6
CONTINUOUS
 10
5.250080
 20
6.647960
  0
VERTEX
  8
0
  6
CONTINUOUS
 10
5.234240
 20
6.664680
  0
VERTEX
  8
0
  6
CONTINUOUS
 10
5.216200
 20
6.677880
  0
VERTEX
  8
0
  6
CONTINUOUS
 10
5.195520
 20
6.687120
  0
VERTEX
  8
0
  6
CONTINUOUS
 10
5.173960
 20
6.692400
  0
VERTEX
  8
0
  6
CONTINUOUS
 10
5.151080
 20
6.692400
  0
VERTEX
  8
0
  6
CONTINUOUS
 10
5.129080
 20
6.687120
  0
VERTEX
  8
0
  6
CONTINUOUS
 10
5.108840
 20
6.677880
  0
VERTEX
  8
0
  6
CONTINUOUS
 10
5.090360
 20
6.664680
  0
VERTEX
  8
0
  6
CONTINUOUS
 10
5.074520
 20
6.647960
  0
VERTEX
  8
0
  6
CONTINUOUS
 10
5.062200
 20
6.629040
  0
VERTEX
  8
0
  6
CONTINUOUS
 10
5.052960
 20
6.607480
  0
VERTEX
  8
0
  6
CONTINUOUS
 10
5.048120
 20
6.584600
  0
VERTEX
  8
0
  6
CONTINUOUS
 10
5.047680
 20
6.514640
  0
VERTEX
  8
0
  6
CONTINUOUS
 10
4.252160
 20
6.514640
  0
VERTEX
  8
0
  6
CONTINUOUS
 10
4.199800
 20
6.515520
  0
VERTEX
  8
0
  6
CONTINUOUS
 10
4.096400
 20
6.523880
  0
VERTEX
  8
0
  6
CONTINUOUS
 10
4.045800
 20
6.530920
  0
VERTEX
  8
0
  6
CONTINUOUS
 10
3.996520
 20
6.540160
  0
VERTEX
  8
0
  6
CONTINUOUS
 10
3.926120
 20
6.556440
  0
VERTEX
  8
0
  6
CONTINUOUS
 10
3.860120
 20
6.576680
  0
VERTEX
  8
0
  6
CONTINUOUS
 10
3.799840
 20
6.600000
  0
VERTEX
  8
0
  6
CONTINUOUS
 10
3.746160
 20
6.626840
  0
VERTEX
  8
0
  6
CONTINUOUS
 10
3.714480
 20
6.645760
  0
VERTEX
  8
0
  6
CONTINUOUS
 10
3.674440
 20
6.676560
  0
VERTEX
  8
0
  6
CONTINUOUS
 10
3.644080
 20
6.709560
  0
VERTEX
  8
0
  6
CONTINUOUS
 10
3.629560
 20
6.732880
  0
VERTEX
  8
0
  6
CONTINUOUS
 10
3.365120
 20
6.732880
  0
VERTEX
  8
0
  6
CONTINUOUS
 10
3.340040
 20
6.765880
  0
VERTEX
  8
0
  6
CONTINUOUS
 10
3.292960
 20
6.817360
  0
VERTEX
  8
0
  6
CONTINUOUS
 10
3.245440
 20
6.859600
  0
VERTEX
  8
0
  6
CONTINUOUS
 10
3.197920
 20
6.893920
  0
VERTEX
  8
0
  6
CONTINUOUS
 10
3.150840
 20
6.919880
  0
VERTEX
  8
0
  6
CONTINUOUS
 10
3.104640
 20
6.938800
  0
VERTEX
  8
0
  6
CONTINUOUS
 10
3.059760
 20
6.950680
  0
VERTEX
  8
0
  6
CONTINUOUS
 10
3.016200
 20
6.956400
  0
VERTEX
  8
0
  6
CONTINUOUS
 10
2.995520
 20
6.957280
  0
VERTEX
  8
0
  6
CONTINUOUS
 10
2.955480
 20
6.954640
  0
VERTEX
  8
0
  6
CONTINUOUS
 10
2.917640
 20
6.947160
  0
VERTEX
  8
0
  6
CONTINUOUS
 10
2.883320
 20
6.935720
  0
VERTEX
  8
0
  6
CONTINUOUS
 10
2.852080
 20
6.920320
  0
VERTEX
  8
0
  6
CONTINUOUS
 10
2.824800
 20
6.901840
  0
VERTEX
  8
0
  6
CONTINUOUS
 10
2.801920
 20
6.880720
  0
VERTEX
  8
0
  6
CONTINUOUS
 10
2.783440
 20
6.857400
  0
VERTEX
  8
0
  6
CONTINUOUS
 10
2.769800
 20
6.832760
  0
VERTEX
  8
0
  6
CONTINUOUS
 10
2.766280
 20
6.831000
  0
VERTEX
  8
0
  6
CONTINUOUS
 10
2.738560
 20
6.831000
  0
VERTEX
  8
0
  6
CONTINUOUS
 10
2.738560
 20
6.965640
  0
VERTEX
  8
0
  6
CONTINUOUS
 10
2.235640
 20
6.965640
  0
VERTEX
  8
0
  6
CONTINUOUS
 10
2.235640
 20
6.093120
  0
VERTEX
  8
0
  6
CONTINUOUS
 10
2.394040
 20
6.093120
  0
SEQEND
  8
0
  0
TEXT
  8
0
 10
3.211560
 20
0.826760
 40
0.138194
  1
Similar to BA  743
 41
1.000000
  7
SN0
 71
     0
 72
     5
 11
4.537092
 21
0.826760
  0
TEXT
  8
0
 10
3.424960
 20
0.634920
 40
0.138194
  1
7/8" x 3-1/2"
 41
1.000000
  7
SN0
 71
     0
 72
     5
 11
4.324690
 21
0.634920
  0
POLYLINE
  8
0
  6
CONTINUOUS
 66
     1
 40
0.000000
 41
0.000000
  0
VERTEX
  8
0
  6
CONTINUOUS
 10
2.431440
 20
2.644840
  0
VERTEX
  8
0
  6
CONTINUOUS
 10
5.768400
 20
2.645280
  0
VERTEX
  8
0
  6
CONTINUOUS
 10
5.768400
 20
2.886840
  0
VERTEX
  8
0
  6
CONTINUOUS
 10
5.738920
 20
2.887720
  0
VERTEX
  8
0
  6
CONTINUOUS
 10
5.682600
 20
2.894320
  0
VERTEX
  8
0
  6
CONTINUOUS
 10
5.655760
 20
2.900040
  0
VERTEX
  8
0
  6
CONTINUOUS
 10
5.605160
 20
2.915880
  0
VERTEX
  8
0
  6
CONTINUOUS
 10
5.581840
 20
2.926000
  0
VERTEX
  8
0
  6
CONTINUOUS
 10
5.559840
 20
2.937440
  0
VERTEX
  8
0
  6
CONTINUOUS
 10
5.521120
 20
2.963840
  0
VERTEX
  8
0
  6
CONTINUOUS
 10
5.504840
 20
2.978800
  0
VERTEX
  8
0
  6
CONTINUOUS
 10
5.483720
 20
3.003000
  0
VERTEX
  8
0
  6
CONTINUOUS
 10
5.467880
 20
3.028960
  0
VERTEX
  8
0
  6
CONTINUOUS
 10
5.457760
 20
3.057560
  0
VERTEX
  8
0
  6
CONTINUOUS
 10
5.455560
 20
3.067240
  0
VERTEX
  8
0
  6
CONTINUOUS
 10
5.314320
 20
3.067240
  0
VERTEX
  8
0
  6
CONTINUOUS
 10
5.313880
 20
3.137200
  0
VERTEX
  8
0
  6
CONTINUOUS
 10
5.309040
 20
3.160080
  0
VERTEX
  8
0
  6
CONTINUOUS
 10
5.299800
 20
3.181640
  0
VERTEX
  8
0
  6
CONTINUOUS
 10
5.287480
 20
3.200560
  0
VERTEX
  8
0
  6
CONTINUOUS
 10
5.271640
 20
3.217280
  0
VERTEX
  8
0
  6
CONTINUOUS
 10
5.253160
 20
3.230480
  0
VERTEX
  8
0
  6
CONTINUOUS
 10
5.232920
 20
3.239720
  0
VERTEX
  8
0
  6
CONTINUOUS
 10
5.210920
 20
3.245000
  0
VERTEX
  8
0
  6
CONTINUOUS
 10
5.188040
 20
3.245000
  0
VERTEX
  8
0
  6
CONTINUOUS
 10
5.166480
 20
3.239720
  0
VERTEX
  8
0
  6
CONTINUOUS
 10
5.145800
 20
3.230480
  0
VERTEX
  8
0
  6
CONTINUOUS
 10
5.127760
 20
3.217280
  0
VERTEX
  8
0
  6
CONTINUOUS
 10
5.111920
 20
3.200560
  0
VERTEX
  8
0
  6
CONTINUOUS
 10
5.099160
 20
3.181640
  0
VERTEX
  8
0
  6
CONTINUOUS
 10
5.089920
 20
3.160080
  0
VERTEX
  8
0
  6
CONTINUOUS
 10
5.085080
 20
3.137200
  0
VERTEX
  8
0
  6
CONTINUOUS
 10
5.084640
 20
3.067240
  0
VERTEX
  8
0
  6
CONTINUOUS
 10
4.289560
 20
3.067240
  0
VERTEX
  8
0
  6
CONTINUOUS
 10
4.237200
 20
3.068120
  0
VERTEX
  8
0
  6
CONTINUOUS
 10
4.133800
 20
3.076480
  0
VERTEX
  8
0
  6
CONTINUOUS
 10
4.083200
 20
3.083520
  0
VERTEX
  8
0
  6
CONTINUOUS
 10
4.033920
 20
3.092320
  0
VERTEX
  8
0
  6
CONTINUOUS
 10
3.941080
 20
3.115200
  0
VERTEX
  8
0
  6
CONTINUOUS
 10
3.876400
 20
3.136760
  0
VERTEX
  8
0
  6
CONTINUOUS
 10
3.818320
 20
3.160960
  0
VERTEX
  8
0
  6
CONTINUOUS
 10
3.767280
 20
3.188680
  0
VERTEX
  8
0
  6
CONTINUOUS
 10
3.724160
 20
3.218600
  0
VERTEX
  8
0
  6
CONTINUOUS
 10
3.700840
 20
3.240160
  0
VERTEX
  8
0
  6
CONTINUOUS
 10
3.681480
 20
3.262160
  0
VERTEX
  8
0
  6
CONTINUOUS
 10
3.666960
 20
3.285480
  0
VERTEX
  8
0
  6
CONTINUOUS
 10
3.402520
 20
3.285480
  0
VERTEX
  8
0
  6
CONTINUOUS
 10
3.377440
 20
3.318480
  0
VERTEX
  8
0
  6
CONTINUOUS
 10
3.330360
 20
3.369960
  0
VERTEX
  8
0
  6
CONTINUOUS
 10
3.282840
 20
3.412200
  0
VERTEX
  8
0
  6
CONTINUOUS
 10
3.235320
 20
3.446520
  0
VERTEX
  8
0
  6
CONTINUOUS
 10
3.188240
 20
3.472480
  0
VERTEX
  8
0
  6
CONTINUOUS
 10
3.142040
 20
3.491400
  0
VERTEX
  8
0
  6
CONTINUOUS
 10
3.097160
 20
3.503280
  0
VERTEX
  8
0
  6
CONTINUOUS
 10
3.053600
 20
3.509000
  0
VERTEX
  8
0
  6
CONTINUOUS
 10
3.032920
 20
3.509880
  0
VERTEX
  8
0
  6
CONTINUOUS
 10
2.992880
 20
3.507240
  0
VERTEX
  8
0
  6
CONTINUOUS
 10
2.955040
 20
3.499760
  0
VERTEX
  8
0
  6
CONTINUOUS
 10
2.920720
 20
3.488320
  0
VERTEX
  8
0
  6
CONTINUOUS
 10
2.889480
 20
3.472920
  0
VERTEX
  8
0
  6
CONTINUOUS
 10
2.862200
 20
3.454440
  0
VERTEX
  8
0
  6
CONTINUOUS
 10
2.839320
 20
3.433320
  0
VERTEX
  8
0
  6
CONTINUOUS
 10
2.820840
 20
3.410000
  0
VERTEX
  8
0
  6
CONTINUOUS
 10
2.807200
 20
3.385360
  0
VERTEX
  8
0
  6
CONTINUOUS
 10
2.803680
 20
3.383600
  0
VERTEX
  8
0
  6
CONTINUOUS
 10
2.775960
 20
3.383600
  0
VERTEX
  8
0
  6
CONTINUOUS
 10
2.775960
 20
3.518240
  0
VERTEX
  8
0
  6
CONTINUOUS
 10
2.272600
 20
3.518240
  0
VERTEX
  8
0
  6
CONTINUOUS
 10
2.272600
 20
2.645720
  0
VERTEX
  8
0
  6
CONTINUOUS
 10
2.431440
 20
2.645720
  0
SEQEND
  8
0
  0
POLYLINE
  8
0
  6
CONTINUOUS
 66
     1
 40
0.000000
 41
0.000000
  0
VERTEX
  8
0
  6
CONTINUOUS
 10
5.558960
 20
1.395680
  0
VERTEX
  8
0
  6
CONTINUOUS
 10
2.221560
 20
1.395680
  0
VERTEX
  8
0
  6
CONTINUOUS
 10
2.221560
 20
1.637680
  0
VERTEX
  8
0
  6
CONTINUOUS
 10
2.251040
 20
1.638560
  0
VERTEX
  8
0
  6
CONTINUOUS
 10
2.307800
 20
1.645160
  0
VERTEX
  8
0
  6
CONTINUOUS
 10
2.334640
 20
1.650880
  0
VERTEX
  8
0
  6
CONTINUOUS
 10
2.385240
 20
1.666720
  0
VERTEX
  8
0
  6
CONTINUOUS
 10
2.430560
 20
1.687840
  0
VERTEX
  8
0
  6
CONTINUOUS
 10
2.469280
 20
1.714240
  0
VERTEX
  8
0
  6
CONTINUOUS
 10
2.500080
 20
1.745040
  0
VERTEX
  8
0
  6
CONTINUOUS
 10
2.517680
 20
1.770560
  0
VERTEX
  8
0
  6
CONTINUOUS
 10
2.530000
 20
1.798280
  0
VERTEX
  8
0
  6
CONTINUOUS
 10
2.534840
 20
1.817640
  0
VERTEX
  8
0
  6
CONTINUOUS
 10
2.676080
 20
1.817640
  0
VERTEX
  8
0
  6
CONTINUOUS
 10
2.676520
 20
1.887600
  0
VERTEX
  8
0
  6
CONTINUOUS
 10
2.681360
 20
1.910480
  0
VERTEX
  8
0
  6
CONTINUOUS
 10
2.690600
 20
1.932040
  0
VERTEX
  8
0
  6
CONTINUOUS
 10
2.702920
 20
1.950960
  0
VERTEX
  8
0
  6
CONTINUOUS
 10
2.718760
 20
1.967680
  0
VERTEX
  8
0
  6
CONTINUOUS
 10
2.737240
 20
1.980880
  0
VERTEX
  8
0
  6
CONTINUOUS
 10
2.757480
 20
1.990120
  0
VERTEX
  8
0
  6
CONTINUOUS
 10
2.779480
 20
1.995400
  0
VERTEX
  8
0
  6
CONTINUOUS
 10
2.802360
 20
1.995400
  0
VERTEX
  8
0
  6
CONTINUOUS
 10
2.823920
 20
1.990120
  0
VERTEX
  8
0
  6
CONTINUOUS
 10
2.844600
 20
1.980880
  0
VERTEX
  8
0
  6
CONTINUOUS
 10
2.862640
 20
1.967680
  0
VERTEX
  8
0
  6
CONTINUOUS
 10
2.878480
 20
1.950960
  0
VERTEX
  8
0
  6
CONTINUOUS
 10
2.891240
 20
1.932040
  0
VERTEX
  8
0
  6
CONTINUOUS
 10
2.900480
 20
1.910480
  0
VERTEX
  8
0
  6
CONTINUOUS
 10
2.905320
 20
1.887600
  0
VERTEX
  8
0
  6
CONTINUOUS
 10
2.905760
 20
1.817640
  0
VERTEX
  8
0
  6
CONTINUOUS
 10
3.700840
 20
1.817640
  0
VERTEX
  8
0
  6
CONTINUOUS
 10
3.753200
 20
1.818520
  0
VERTEX
  8
0
  6
CONTINUOUS
 10
3.856600
 20
1.826880
  0
VERTEX
  8
0
  6
CONTINUOUS
 10
3.907200
 20
1.833920
  0
VERTEX
  8
0
  6
CONTINUOUS
 10
3.956480
 20
1.843160
  0
VERTEX
  8
0
  6
CONTINUOUS
 10
4.026880
 20
1.859440
  0
VERTEX
  8
0
  6
CONTINUOUS
 10
4.092880
 20
1.879680
  0
VERTEX
  8
0
  6
CONTINUOUS
 10
4.153160
 20
1.903000
  0
VERTEX
  8
0
  6
CONTINUOUS
 10
4.206840
 20
1.929840
  0
VERTEX
  8
0
  6
CONTINUOUS
 10
4.238520
 20
1.948760
  0
VERTEX
  8
0
  6
CONTINUOUS
 10
4.278560
 20
1.979560
  0
VERTEX
  8
0
  6
CONTINUOUS
 10
4.308920
 20
2.012560
  0
VERTEX
  8
0
  6
CONTINUOUS
 10
4.323440
 20
2.035880
  0
VERTEX
  8
0
  6
CONTINUOUS
 10
4.587880
 20
2.035880
  0
VERTEX
  8
0
  6
CONTINUOUS
 10
4.612960
 20
2.068880
  0
VERTEX
  8
0
  6
CONTINUOUS
 10
4.660040
 20
2.120360
  0
VERTEX
  8
0
  6
CONTINUOUS
 10
4.707560
 20
2.162600
  0
VERTEX
  8
0
  6
CONTINUOUS
 10
4.755080
 20
2.196920
  0
VERTEX
  8
0
  6
CONTINUOUS
 10
4.802160
 20
2.222880
  0
VERTEX
  8
0
  6
CONTINUOUS
 10
4.848360
 20
2.241800
  0
VERTEX
  8
0
  6
CONTINUOUS
 10
4.893240
 20
2.253680
  0
VERTEX
  8
0
  6
CONTINUOUS
 10
4.936800
 20
2.259400
  0
VERTEX
  8
0
  6
CONTINUOUS
 10
4.957480
 20
2.260280
  0
VERTEX
  8
0
  6
CONTINUOUS
 10
4.997520
 20
2.257640
  0
VERTEX
  8
0
  6
CONTINUOUS
 10
5.035360
 20
2.250160
  0
VERTEX
  8
0
  6
CONTINUOUS
 10
5.069680
 20
2.238720
  0
VERTEX
  8
0
  6
CONTINUOUS
 10
5.100920
 20
2.223320
  0
VERTEX
  8
0
  6
CONTINUOUS
 10
5.128200
 20
2.204840
  0
VERTEX
  8
0
  6
CONTINUOUS
 10
5.151080
 20
2.183720
  0
VERTEX
  8
0
  6
CONTINUOUS
 10
5.169560
 20
2.160400
  0
VERTEX
  8
0
  6
CONTINUOUS
 10
5.183200
 20
2.135760
  0
VERTEX
  8
0
  6
CONTINUOUS
 10
5.186720
 20
2.134000
  0
VERTEX
  8
0
  6
CONTINUOUS
 10
5.214440
 20
2.134000
  0
VERTEX
  8
0
  6
CONTINUOUS
 10
5.214440
 20
2.268640
  0
VERTEX
  8
0
  6
CONTINUOUS
 10
5.717800
 20
2.268640
  0
VERTEX
  8
0
  6
CONTINUOUS
 10
5.717800
 20
1.396120
  0
VERTEX
  8
0
  6
CONTINUOUS
 10
5.558960
 20
1.396120
  0
SEQEND
  8
0
  0
SOLID
  8
0
 62
    15
 10
4.033040
 20
4.670160
 11
4.037440
 21
5.411560
 12
4.134680
 22
4.657840
 13
4.139080
 23
5.399240
  0
POLYLINE
  8
0
  6
CONTINUOUS
 66
     1
 40
0.000000
 41
0.000000
  0
VERTEX
  8
0
  6
CONTINUOUS
 10
4.033040
 20
4.670160
  0
VERTEX
  8
0
  6
CONTINUOUS
 10
4.037440
 20
5.411560
  0
VERTEX
  8
0
  6
CONTINUOUS
 10
4.139080
 20
5.399240
  0
VERTEX
  8
0
  6
CONTINUOUS
 10
4.134680
 20
4.657840
  0
VERTEX
  8
0
  6
CONTINUOUS
 10
4.033040
 20
4.670160
  0
SEQEND
  8
0
  0
SOLID
  8
0
 62
    15
 10
2.725800
 20
5.104880
 11
2.730200
 21
5.846280
 12
2.725800
 22
4.970240
 13
2.730200
 23
5.711640
  0
POLYLINE
  8
0
  6
CONTINUOUS
 66
     1
 40
0.000000
 41
0.000000
  0
VERTEX
  8
0
  6
CONTINUOUS
 10
2.725800
 20
5.104880
  0
VERTEX
  8
0
  6
CONTINUOUS
 10
2.730200
 20
5.846280
  0
VERTEX
  8
0
  6
CONTINUOUS
 10
2.730200
 20
5.711640
  0
VERTEX
  8
0
  6
CONTINUOUS
 10
2.725800
 20
4.970240
  0
VERTEX
  8
0
  6
CONTINUOUS
 10
2.725800
 20
5.104880
  0
SEQEND
  8
0
  0
SOLID
  8
0
 62
    15
 10
2.725800
 20
4.970240
 11
2.730200
 21
5.711640
 12
2.753520
 22
4.970240
 13
2.757920
 23
5.711640
  0
POLYLINE
  8
0
  6
CONTINUOUS
 66
     1
 40
0.000000
 41
0.000000
  0
VERTEX
  8
0
  6
CONTINUOUS
 10
2.725800
 20
4.970240
  0
VERTEX
  8
0
  6
CONTINUOUS
 10
2.730200
 20
5.711640
  0
VERTEX
  8
0
  6
CONTINUOUS
 10
2.757920
 20
5.711640
  0
VERTEX
  8
0
  6
CONTINUOUS
 10
2.753520
 20
4.970240
  0
VERTEX
  8
0
  6
CONTINUOUS
 10
2.725800
 20
4.970240
  0
SEQEND
  8
0
  0
SOLID
  8
0
 62
    15
 10
2.753520
 20
4.970240
 11
2.757920
 21
5.711640
 12
2.757040
 22
4.972000
 13
2.761440
 23
5.713400
  0
POLYLINE
  8
0
  6
CONTINUOUS
 66
     1
 40
0.000000
 41
0.000000
  0
VERTEX
  8
0
  6
CONTINUOUS
 10
2.753520
 20
4.970240
  0
VERTEX
  8
0
  6
CONTINUOUS
 10
2.757920
 20
5.711640
  0
VERTEX
  8
0
  6
CONTINUOUS
 10
2.761440
 20
5.713400
  0
VERTEX
  8
0
  6
CONTINUOUS
 10
2.757040
 20
4.972000
  0
VERTEX
  8
0
  6
CONTINUOUS
 10
2.753520
 20
4.970240
  0
SEQEND
  8
0
  0
SOLID
  8
0
 62
    15
 10
2.757040
 20
4.972000
 11
2.761440
 21
5.713400
 12
2.770240
 22
4.996640
 13
2.774640
 23
5.738040
  0
POLYLINE
  8
0
  6
CONTINUOUS
 66
     1
 40
0.000000
 41
0.000000
  0
VERTEX
  8
0
  6
CONTINUOUS
 10
2.757040
 20
4.972000
  0
VERTEX
  8
0
  6
CONTINUOUS
 10
2.761440
 20
5.713400
  0
VERTEX
  8
0
  6
CONTINUOUS
 10
2.774640
 20
5.738040
  0
VERTEX
  8
0
  6
CONTINUOUS
 10
2.770240
 20
4.996640
  0
VERTEX
  8
0
  6
CONTINUOUS
 10
2.757040
 20
4.972000
  0
SEQEND
  8
0
  0
SOLID
  8
0
 62
    15
 10
2.770240
 20
4.996640
 11
2.774640
 21
5.738040
 12
2.788720
 22
5.019960
 13
2.793120
 23
5.761360
  0
POLYLINE
  8
0
  6
CONTINUOUS
 66
     1
 40
0.000000
 41
0.000000
  0
VERTEX
  8
0
  6
CONTINUOUS
 10
2.770240
 20
4.996640
  0
VERTEX
  8
0
  6
CONTINUOUS
 10
2.774640
 20
5.738040
  0
VERTEX
  8
0
  6
CONTINUOUS
 10
2.793120
 20
5.761360
  0
VERTEX
  8
0
  6
CONTINUOUS
 10
2.788720
 20
5.019960
  0
VERTEX
  8
0
  6
CONTINUOUS
 10
2.770240
 20
4.996640
  0
SEQEND
  8
0
  0
SOLID
  8
0
 62
    15
 10
2.788720
 20
5.019960
 11
2.793120
 21
5.761360
 12
2.811600
 22
5.041080
 13
2.816000
 23
5.782480
  0
POLYLINE
  8
0
  6
CONTINUOUS
 66
     1
 40
0.000000
 41
0.000000
  0
VERTEX
  8
0
  6
CONTINUOUS
 10
2.788720
 20
5.019960
  0
VERTEX
  8
0
  6
CONTINUOUS
 10
2.793120
 20
5.761360
  0
VERTEX
  8
0
  6
CONTINUOUS
 10
2.816000
 20
5.782480
  0
VERTEX
  8
0
  6
CONTINUOUS
 10
2.811600
 20
5.041080
  0
VERTEX
  8
0
  6
CONTINUOUS
 10
2.788720
 20
5.019960
  0
SEQEND
  8
0
  0
SOLID
  8
0
 62
    15
 10
2.811600
 20
5.041080
 11
2.816000
 21
5.782480
 12
2.838880
 22
5.059560
 13
2.843280
 23
5.800960
  0
POLYLINE
  8
0
  6
CONTINUOUS
 66
     1
 40
0.000000
 41
0.000000
  0
VERTEX
  8
0
  6
CONTINUOUS
 10
2.811600
 20
5.041080
  0
VERTEX
  8
0
  6
CONTINUOUS
 10
2.816000
 20
5.782480
  0
VERTEX
  8
0
  6
CONTINUOUS
 10
2.843280
 20
5.800960
  0
VERTEX
  8
0
  6
CONTINUOUS
 10
2.838880
 20
5.059560
  0
VERTEX
  8
0
  6
CONTINUOUS
 10
2.811600
 20
5.041080
  0
SEQEND
  8
0
  0
SOLID
  8
0
 62
    15
 10
2.838880
 20
5.059560
 11
2.843280
 21
5.800960
 12
2.870120
 22
5.074960
 13
2.874520
 23
5.816360
  0
POLYLINE
  8
0
  6
CONTINUOUS
 66
     1
 40
0.000000
 41
0.000000
  0
VERTEX
  8
0
  6
CONTINUOUS
 10
2.838880
 20
5.059560
  0
VERTEX
  8
0
  6
CONTINUOUS
 10
2.843280
 20
5.800960
  0
VERTEX
  8
0
  6
CONTINUOUS
 10
2.874520
 20
5.816360
  0
VERTEX
  8
0
  6
CONTINUOUS
 10
2.870120
 20
5.074960
  0
VERTEX
  8
0
  6
CONTINUOUS
 10
2.838880
 20
5.059560
  0
SEQEND
  8
0
  0
SOLID
  8
0
 62
    15
 10
2.870120
 20
5.074960
 11
2.874520
 21
5.816360
 12
2.904880
 22
5.086400
 13
2.909280
 23
5.827800
  0
POLYLINE
  8
0
  6
CONTINUOUS
 66
     1
 40
0.000000
 41
0.000000
  0
VERTEX
  8
0
  6
CONTINUOUS
 10
2.870120
 20
5.074960
  0
VERTEX
  8
0
  6
CONTINUOUS
 10
2.874520
 20
5.816360
  0
VERTEX
  8
0
  6
CONTINUOUS
 10
2.909280
 20
5.827800
  0
VERTEX
  8
0
  6
CONTINUOUS
 10
2.904880
 20
5.086400
  0
VERTEX
  8
0
  6
CONTINUOUS
 10
2.870120
 20
5.074960
  0
SEQEND
  8
0
  0
SOLID
  8
0
 62
    15
 10
2.904880
 20
5.086400
 11
2.909280
 21
5.827800
 12
2.942280
 22
5.093880
 13
2.946680
 23
5.835280
  0
POLYLINE
  8
0
  6
CONTINUOUS
 66
     1
 40
0.000000
 41
0.000000
  0
VERTEX
  8
0
  6
CONTINUOUS
 10
2.904880
 20
5.086400
  0
VERTEX
  8
0
  6
CONTINUOUS
 10
2.909280
 20
5.827800
  0
VERTEX
  8
0
  6
CONTINUOUS
 10
2.946680
 20
5.835280
  0
VERTEX
  8
0
  6
CONTINUOUS
 10
2.942280
 20
5.093880
  0
VERTEX
  8
0
  6
CONTINUOUS
 10
2.904880
 20
5.086400
  0
SEQEND
  8
0
  0
SOLID
  8
0
 62
    15
 10
2.942280
 20
5.093880
 11
2.946680
 21
5.835280
 12
2.982320
 22
5.096520
 13
2.986720
 23
5.837480
  0
POLYLINE
  8
0
  6
CONTINUOUS
 66
     1
 40
0.000000
 41
0.000000
  0
VERTEX
  8
0
  6
CONTINUOUS
 10
2.942280
 20
5.093880
  0
VERTEX
  8
0
  6
CONTINUOUS
 10
2.946680
 20
5.835280
  0
VERTEX
  8
0
  6
CONTINUOUS
 10
2.986720
 20
5.837480
  0
VERTEX
  8
0
  6
CONTINUOUS
 10
2.982320
 20
5.096520
  0
VERTEX
  8
0
  6
CONTINUOUS
 10
2.942280
 20
5.093880
  0
SEQEND
  8
0
  0
SOLID
  8
0
 62
    15
 10
2.982320
 20
5.096520
 11
2.986720
 21
5.837480
 12
3.025000
 22
5.093440
 13
3.029400
 23
5.834840
  0
POLYLINE
  8
0
  6
CONTINUOUS
 66
     1
 40
0.000000
 41
0.000000
  0
VERTEX
  8
0
  6
CONTINUOUS
 10
2.982320
 20
5.096520
  0
VERTEX
  8
0
  6
CONTINUOUS
 10
2.986720
 20
5.837480
  0
VERTEX
  8
0
  6
CONTINUOUS
 10
3.029400
 20
5.834840
  0
VERTEX
  8
0
  6
CONTINUOUS
 10
3.025000
 20
5.093440
  0
VERTEX
  8
0
  6
CONTINUOUS
 10
2.982320
 20
5.096520
  0
SEQEND
  8
0
  0
SOLID
  8
0
 62
    15
 10
3.025000
 20
5.093440
 11
3.029400
 21
5.834840
 12
3.069000
 22
5.084640
 13
3.073400
 23
5.826040
  0
POLYLINE
  8
0
  6
CONTINUOUS
 66
     1
 40
0.000000
 41
0.000000
  0
VERTEX
  8
0
  6
CONTINUOUS
 10
3.025000
 20
5.093440
  0
VERTEX
  8
0
  6
CONTINUOUS
 10
3.029400
 20
5.834840
  0
VERTEX
  8
0
  6
CONTINUOUS
 10
3.073400
 20
5.826040
  0
VERTEX
  8
0
  6
CONTINUOUS
 10
3.069000
 20
5.084640
  0
VERTEX
  8
0
  6
CONTINUOUS
 10
3.025000
 20
5.093440
  0
SEQEND
  8
0
  0
SOLID
  8
0
 62
    15
 10
3.069000
 20
5.084640
 11
3.073400
 21
5.826040
 12
3.114760
 22
5.069240
 13
3.119160
 23
5.810640
  0
POLYLINE
  8
0
  6
CONTINUOUS
 66
     1
 40
0.000000
 41
0.000000
  0
VERTEX
  8
0
  6
CONTINUOUS
 10
3.069000
 20
5.084640
  0
VERTEX
  8
0
  6
CONTINUOUS
 10
3.073400
 20
5.826040
  0
VERTEX
  8
0
  6
CONTINUOUS
 10
3.119160
 20
5.810640
  0
VERTEX
  8
0
  6
CONTINUOUS
 10
3.114760
 20
5.069240
  0
VERTEX
  8
0
  6
CONTINUOUS
 10
3.069000
 20
5.084640
  0
SEQEND
  8
0
  0
SOLID
  8
0
 62
    15
 10
3.114760
 20
5.069240
 11
3.119160
 21
5.810640
 12
3.161400
 22
5.046800
 13
3.165800
 23
5.788200
  0
POLYLINE
  8
0
  6
CONTINUOUS
 66
     1
 40
0.000000
 41
0.000000
  0
VERTEX
  8
0
  6
CONTINUOUS
 10
3.114760
 20
5.069240
  0
VERTEX
  8
0
  6
CONTINUOUS
 10
3.119160
 20
5.810640
  0
VERTEX
  8
0
  6
CONTINUOUS
 10
3.165800
 20
5.788200
  0
VERTEX
  8
0
  6
CONTINUOUS
 10
3.161400
 20
5.046800
  0
VERTEX
  8
0
  6
CONTINUOUS
 10
3.114760
 20
5.069240
  0
SEQEND
  8
0
  0
SOLID
  8
0
 62
    15
 10
3.161400
 20
5.046800
 11
3.165800
 21
5.788200
 12
3.208480
 22
5.016880
 13
3.212880
 23
5.758280
  0
POLYLINE
  8
0
  6
CONTINUOUS
 66
     1
 40
0.000000
 41
0.000000
  0
VERTEX
  8
0
  6
CONTINUOUS
 10
3.161400
 20
5.046800
  0
VERTEX
  8
0
  6
CONTINUOUS
 10
3.165800
 20
5.788200
  0
VERTEX
  8
0
  6
CONTINUOUS
 10
3.212880
 20
5.758280
  0
VERTEX
  8
0
  6
CONTINUOUS
 10
3.208480
 20
5.016880
  0
VERTEX
  8
0
  6
CONTINUOUS
 10
3.161400
 20
5.046800
  0
SEQEND
  8
0
  0
SOLID
  8
0
 62
    15
 10
3.208480
 20
5.016880
 11
3.212880
 21
5.758280
 12
3.256000
 22
4.978600
 13
3.260400
 23
5.720000
  0
POLYLINE
  8
0
  6
CONTINUOUS
 66
     1
 40
0.000000
 41
0.000000
  0
VERTEX
  8
0
  6
CONTINUOUS
 10
3.208480
 20
5.016880
  0
VERTEX
  8
0
  6
CONTINUOUS
 10
3.212880
 20
5.758280
  0
VERTEX
  8
0
  6
CONTINUOUS
 10
3.260400
 20
5.720000
  0
VERTEX
  8
0
  6
CONTINUOUS
 10
3.256000
 20
4.978600
  0
VERTEX
  8
0
  6
CONTINUOUS
 10
3.208480
 20
5.016880
  0
SEQEND
  8
0
  0
SOLID
  8
0
 62
    15
 10
3.256000
 20
4.978600
 11
3.260400
 21
5.720000
 12
3.303520
 22
4.931960
 13
3.307920
 23
5.673360
  0
POLYLINE
  8
0
  6
CONTINUOUS
 66
     1
 40
0.000000
 41
0.000000
  0
VERTEX
  8
0
  6
CONTINUOUS
 10
3.256000
 20
4.978600
  0
VERTEX
  8
0
  6
CONTINUOUS
 10
3.260400
 20
5.720000
  0
VERTEX
  8
0
  6
CONTINUOUS
 10
3.307920
 20
5.673360
  0
VERTEX
  8
0
  6
CONTINUOUS
 10
3.303520
 20
4.931960
  0
VERTEX
  8
0
  6
CONTINUOUS
 10
3.256000
 20
4.978600
  0
SEQEND
  8
0
  0
SOLID
  8
0
 62
    15
 10
3.303520
 20
4.931960
 11
3.307920
 21
5.673360
 12
3.350160
 22
4.875640
 13
3.354560
 23
5.617040
  0
POLYLINE
  8
0
  6
CONTINUOUS
 66
     1
 40
0.000000
 41
0.000000
  0
VERTEX
  8
0
  6
CONTINUOUS
 10
3.303520
 20
4.931960
  0
VERTEX
  8
0
  6
CONTINUOUS
 10
3.307920
 20
5.673360
  0
VERTEX
  8
0
  6
CONTINUOUS
 10
3.354560
 20
5.617040
  0
VERTEX
  8
0
  6
CONTINUOUS
 10
3.350160
 20
4.875640
  0
VERTEX
  8
0
  6
CONTINUOUS
 10
3.303520
 20
4.931960
  0
SEQEND
  8
0
  0
SOLID
  8
0
 62
    15
 10
3.350160
 20
4.875640
 11
3.354560
 21
5.617040
 12
3.351920
 22
4.871680
 13
3.356320
 23
5.613080
  0
POLYLINE
  8
0
  6
CONTINUOUS
 66
     1
 40
0.000000
 41
0.000000
  0
VERTEX
  8
0
  6
CONTINUOUS
 10
3.350160
 20
4.875640
  0
VERTEX
  8
0
  6
CONTINUOUS
 10
3.354560
 20
5.617040
  0
VERTEX
  8
0
  6
CONTINUOUS
 10
3.356320
 20
5.613080
  0
VERTEX
  8
0
  6
CONTINUOUS
 10
3.351920
 20
4.871680
  0
VERTEX
  8
0
  6
CONTINUOUS
 10
3.350160
 20
4.875640
  0
SEQEND
  8
0
  0
SOLID
  8
0
 62
    15
 10
3.351920
 20
4.871680
 11
3.356320
 21
5.613080
 12
3.616360
 22
4.871680
 13
3.620760
 23
5.613080
  0
POLYLINE
  8
0
  6
CONTINUOUS
 66
     1
 40
0.000000
 41
0.000000
  0
VERTEX
  8
0
  6
CONTINUOUS
 10
3.351920
 20
4.871680
  0
VERTEX
  8
0
  6
CONTINUOUS
 10
3.356320
 20
5.613080
  0
VERTEX
  8
0
  6
CONTINUOUS
 10
3.620760
 20
5.613080
  0
VERTEX
  8
0
  6
CONTINUOUS
 10
3.616360
 20
4.871680
  0
VERTEX
  8
0
  6
CONTINUOUS
 10
3.351920
 20
4.871680
  0
SEQEND
  8
0
  0
SOLID
  8
0
 62
    15
 10
3.616360
 20
4.871680
 11
3.620760
 21
5.613080
 12
3.630880
 22
4.848800
 13
3.635280
 23
5.590200
  0
POLYLINE
  8
0
  6
CONTINUOUS
 66
     1
 40
0.000000
 41
0.000000
  0
VERTEX
  8
0
  6
CONTINUOUS
 10
3.616360
 20
4.871680
  0
VERTEX
  8
0
  6
CONTINUOUS
 10
3.620760
 20
5.613080
  0
VERTEX
  8
0
  6
CONTINUOUS
 10
3.635280
 20
5.590200
  0
VERTEX
  8
0
  6
CONTINUOUS
 10
3.630880
 20
4.848800
  0
VERTEX
  8
0
  6
CONTINUOUS
 10
3.616360
 20
4.871680
  0
SEQEND
  8
0
  0
SOLID
  8
0
 62
    15
 10
3.630880
 20
4.848800
 11
3.635280
 21
5.590200
 12
3.650240
 22
4.826360
 13
3.654640
 23
5.567760
  0
POLYLINE
  8
0
  6
CONTINUOUS
 66
     1
 40
0.000000
 41
0.000000
  0
VERTEX
  8
0
  6
CONTINUOUS
 10
3.630880
 20
4.848800
  0
VERTEX
  8
0
  6
CONTINUOUS
 10
3.635280
 20
5.590200
  0
VERTEX
  8
0
  6
CONTINUOUS
 10
3.654640
 20
5.567760
  0
VERTEX
  8
0
  6
CONTINUOUS
 10
3.650240
 20
4.826360
  0
VERTEX
  8
0
  6
CONTINUOUS
 10
3.630880
 20
4.848800
  0
SEQEND
  8
0
  0
SOLID
  8
0
 62
    15
 10
3.650240
 20
4.826360
 11
3.654640
 21
5.567760
 12
3.673560
 22
4.805240
 13
3.678400
 23
5.546640
  0
POLYLINE
  8
0
  6
CONTINUOUS
 66
     1
 40
0.000000
 41
0.000000
  0
VERTEX
  8
0
  6
CONTINUOUS
 10
3.650240
 20
4.826360
  0
VERTEX
  8
0
  6
CONTINUOUS
 10
3.654640
 20
5.567760
  0
VERTEX
  8
0
  6
CONTINUOUS
 10
3.678400
 20
5.546640
  0
VERTEX
  8
0
  6
CONTINUOUS
 10
3.673560
 20
4.805240
  0
VERTEX
  8
0
  6
CONTINUOUS
 10
3.650240
 20
4.826360
  0
SEQEND
  8
0
  0
SOLID
  8
0
 62
    15
 10
3.673560
 20
4.805240
 11
3.678400
 21
5.546640
 12
3.701280
 22
4.785000
 13
3.706120
 23
5.526400
  0
POLYLINE
  8
0
  6
CONTINUOUS
 66
     1
 40
0.000000
 41
0.000000
  0
VERTEX
  8
0
  6
CONTINUOUS
 10
3.673560
 20
4.805240
  0
VERTEX
  8
0
  6
CONTINUOUS
 10
3.678400
 20
5.546640
  0
VERTEX
  8
0
  6
CONTINUOUS
 10
3.706120
 20
5.526400
  0
VERTEX
  8
0
  6
CONTINUOUS
 10
3.701280
 20
4.785000
  0
VERTEX
  8
0
  6
CONTINUOUS
 10
3.673560
 20
4.805240
  0
SEQEND
  8
0
  0
SOLID
  8
0
 62
    15
 10
3.701280
 20
4.785000
 11
3.706120
 21
5.526400
 12
3.767720
 22
4.747600
 13
3.772120
 23
5.489000
  0
POLYLINE
  8
0
  6
CONTINUOUS
 66
     1
 40
0.000000
 41
0.000000
  0
VERTEX
  8
0
  6
CONTINUOUS
 10
3.701280
 20
4.785000
  0
VERTEX
  8
0
  6
CONTINUOUS
 10
3.706120
 20
5.526400
  0
VERTEX
  8
0
  6
CONTINUOUS
 10
3.772120
 20
5.489000
  0
VERTEX
  8
0
  6
CONTINUOUS
 10
3.767720
 20
4.747600
  0
VERTEX
  8
0
  6
CONTINUOUS
 10
3.701280
 20
4.785000
  0
SEQEND
  8
0
  0
SOLID
  8
0
 62
    15
 10
3.767720
 20
4.747600
 11
3.772120
 21
5.489000
 12
3.846920
 22
4.715480
 13
3.851320
 23
5.456880
  0
POLYLINE
  8
0
  6
CONTINUOUS
 66
     1
 40
0.000000
 41
0.000000
  0
VERTEX
  8
0
  6
CONTINUOUS
 10
3.767720
 20
4.747600
  0
VERTEX
  8
0
  6
CONTINUOUS
 10
3.772120
 20
5.489000
  0
VERTEX
  8
0
  6
CONTINUOUS
 10
3.851320
 20
5.456880
  0
VERTEX
  8
0
  6
CONTINUOUS
 10
3.846920
 20
4.715480
  0
VERTEX
  8
0
  6
CONTINUOUS
 10
3.767720
 20
4.747600
  0
SEQEND
  8
0
  0
SOLID
  8
0
 62
    15
 10
3.846920
 20
4.715480
 11
3.851320
 21
5.456880
 12
3.936240
 22
4.689520
 13
3.940640
 23
5.430920
  0
POLYLINE
  8
0
  6
CONTINUOUS
 66
     1
 40
0.000000
 41
0.000000
  0
VERTEX
  8
0
  6
CONTINUOUS
 10
3.846920
 20
4.715480
  0
VERTEX
  8
0
  6
CONTINUOUS
 10
3.851320
 20
5.456880
  0
VERTEX
  8
0
  6
CONTINUOUS
 10
3.940640
 20
5.430920
  0
VERTEX
  8
0
  6
CONTINUOUS
 10
3.936240
 20
4.689520
  0
VERTEX
  8
0
  6
CONTINUOUS
 10
3.846920
 20
4.715480
  0
SEQEND
  8
0
  0
SOLID
  8
0
 62
    15
 10
3.936240
 20
4.689520
 11
3.940640
 21
5.430920
 12
4.033040
 22
4.670160
 13
4.037440
 23
5.411560
  0
POLYLINE
  8
0
  6
CONTINUOUS
 66
     1
 40
0.000000
 41
0.000000
  0
VERTEX
  8
0
  6
CONTINUOUS
 10
3.936240
 20
4.689520
  0
VERTEX
  8
0
  6
CONTINUOUS
 10
3.940640
 20
5.430920
  0
VERTEX
  8
0
  6
CONTINUOUS
 10
4.037440
 20
5.411560
  0
VERTEX
  8
0
  6
CONTINUOUS
 10
4.033040
 20
4.670160
  0
VERTEX
  8
0
  6
CONTINUOUS
 10
3.936240
 20
4.689520
  0
SEQEND
  8
0
  0
SOLID
  8
0
 62
    15
 10
2.222440
 20
5.104880
 11
2.226840
 21
5.846280
 12
2.725800
 22
5.104880
 13
2.730200
 23
5.846280
  0
POLYLINE
  8
0
  6
CONTINUOUS
 66
     1
 40
0.000000
 41
0.000000
  0
VERTEX
  8
0
  6
CONTINUOUS
 10
2.222440
 20
5.104880
  0
VERTEX
  8
0
  6
CONTINUOUS
 10
2.226840
 20
5.846280
  0
VERTEX
  8
0
  6
CONTINUOUS
 10
2.730200
 20
5.846280
  0
VERTEX
  8
0
  6
CONTINUOUS
 10
2.725800
 20
5.104880
  0
VERTEX
  8
0
  6
CONTINUOUS
 10
2.222440
 20
5.104880
  0
SEQEND
  8
0
  0
SOLID
  8
0
 62
    15
 10
4.134680
 20
4.657840
 11
4.139080
 21
5.399240
 12
4.239400
 22
4.653440
 13
4.243800
 23
5.394840
  0
POLYLINE
  8
0
  6
CONTINUOUS
 66
     1
 40
0.000000
 41
0.000000
  0
VERTEX
  8
0
  6
CONTINUOUS
 10
4.134680
 20
4.657840
  0
VERTEX
  8
0
  6
CONTINUOUS
 10
4.139080
 20
5.399240
  0
VERTEX
  8
0
  6
CONTINUOUS
 10
4.243800
 20
5.394840
  0
VERTEX
  8
0
  6
CONTINUOUS
 10
4.239400
 20
4.653440
  0
VERTEX
  8
0
  6
CONTINUOUS
 10
4.134680
 20
4.657840
  0
SEQEND
  8
0
  0
SOLID
  8
0
 62
    15
 10
4.239400
 20
4.653440
 11
4.243800
 21
5.394840
 12
5.034480
 22
4.653440
 13
5.038880
 23
5.394840
  0
POLYLINE
  8
0
  6
CONTINUOUS
 66
     1
 40
0.000000
 41
0.000000
  0
VERTEX
  8
0
  6
CONTINUOUS
 10
4.239400
 20
4.653440
  0
VERTEX
  8
0
  6
CONTINUOUS
 10
4.243800
 20
5.394840
  0
VERTEX
  8
0
  6
CONTINUOUS
 10
5.038880
 20
5.394840
  0
VERTEX
  8
0
  6
CONTINUOUS
 10
5.034480
 20
4.653440
  0
VERTEX
  8
0
  6
CONTINUOUS
 10
4.239400
 20
4.653440
  0
SEQEND
  8
0
  0
SOLID
  8
0
 62
    15
 10
5.034480
 20
4.711960
 11
5.038880
 21
5.453360
 12
5.036680
 22
4.735280
 13
5.041080
 23
5.476680
  0
POLYLINE
  8
0
  6
CONTINUOUS
 66
     1
 40
0.000000
 41
0.000000
  0
VERTEX
  8
0
  6
CONTINUOUS
 10
5.034480
 20
4.711960
  0
VERTEX
  8
0
  6
CONTINUOUS
 10
5.038880
 20
5.453360
  0
VERTEX
  8
0
  6
CONTINUOUS
 10
5.041080
 20
5.476680
  0
VERTEX
  8
0
  6
CONTINUOUS
 10
5.036680
 20
4.735280
  0
VERTEX
  8
0
  6
CONTINUOUS
 10
5.034480
 20
4.711960
  0
SEQEND
  8
0
  0
SOLID
  8
0
 62
    15
 10
5.036680
 20
4.735280
 11
5.041080
 21
5.476680
 12
5.043720
 22
4.757280
 13
5.048120
 23
5.498680
  0
POLYLINE
  8
0
  6
CONTINUOUS
 66
     1
 40
0.000000
 41
0.000000
  0
VERTEX
  8
0
  6
CONTINUOUS
 10
5.036680
 20
4.735280
  0
VERTEX
  8
0
  6
CONTINUOUS
 10
5.041080
 20
5.476680
  0
VERTEX
  8
0
  6
CONTINUOUS
 10
5.048120
 20
5.498680
  0
VERTEX
  8
0
  6
CONTINUOUS
 10
5.043720
 20
4.757280
  0
VERTEX
  8
0
  6
CONTINUOUS
 10
5.036680
 20
4.735280
  0
SEQEND
  8
0
  0
SOLID
  8
0
 62
    15
 10
5.043720
 20
4.757280
 11
5.048120
 21
5.498680
 12
5.054720
 22
4.777960
 13
5.059120
 23
5.519360
  0
POLYLINE
  8
0
  6
CONTINUOUS
 66
     1
 40
0.000000
 41
0.000000
  0
VERTEX
  8
0
  6
CONTINUOUS
 10
5.043720
 20
4.757280
  0
VERTEX
  8
0
  6
CONTINUOUS
 10
5.048120
 20
5.498680
  0
VERTEX
  8
0
  6
CONTINUOUS
 10
5.059120
 20
5.519360
  0
VERTEX
  8
0
  6
CONTINUOUS
 10
5.054720
 20
4.777960
  0
VERTEX
  8
0
  6
CONTINUOUS
 10
5.043720
 20
4.757280
  0
SEQEND
  8
0
  0
SOLID
  8
0
 62
    15
 10
5.054720
 20
4.777960
 11
5.059120
 21
5.519360
 12
5.068800
 22
4.795560
 13
5.073200
 23
5.536960
  0
POLYLINE
  8
0
  6
CONTINUOUS
 66
     1
 40
0.000000
 41
0.000000
  0
VERTEX
  8
0
  6
CONTINUOUS
 10
5.054720
 20
4.777960
  0
VERTEX
  8
0
  6
CONTINUOUS
 10
5.059120
 20
5.519360
  0
VERTEX
  8
0
  6
CONTINUOUS
 10
5.073200
 20
5.536960
  0
VERTEX
  8
0
  6
CONTINUOUS
 10
5.068800
 20
4.795560
  0
VERTEX
  8
0
  6
CONTINUOUS
 10
5.054720
 20
4.777960
  0
SEQEND
  8
0
  0
SOLID
  8
0
 62
    15
 10
5.068800
 20
4.795560
 11
5.073200
 21
5.536960
 12
5.085960
 22
4.810520
 13
5.090360
 23
5.551920
  0
POLYLINE
  8
0
  6
CONTINUOUS
 66
     1
 40
0.000000
 41
0.000000
  0
VERTEX
  8
0
  6
CONTINUOUS
 10
5.068800
 20
4.795560
  0
VERTEX
  8
0
  6
CONTINUOUS
 10
5.073200
 20
5.536960
  0
VERTEX
  8
0
  6
CONTINUOUS
 10
5.090360
 20
5.551920
  0
VERTEX
  8
0
  6
CONTINUOUS
 10
5.085960
 20
4.810520
  0
VERTEX
  8
0
  6
CONTINUOUS
 10
5.068800
 20
4.795560
  0
SEQEND
  8
0
  0
SOLID
  8
0
 62
    15
 10
5.085960
 20
4.810520
 11
5.090360
 21
5.551920
 12
5.105760
 22
4.821960
 13
5.110160
 23
5.563360
  0
POLYLINE
  8
0
  6
CONTINUOUS
 66
     1
 40
0.000000
 41
0.000000
  0
VERTEX
  8
0
  6
CONTINUOUS
 10
5.085960
 20
4.810520
  0
VERTEX
  8
0
  6
CONTINUOUS
 10
5.090360
 20
5.551920
  0
VERTEX
  8
0
  6
CONTINUOUS
 10
5.110160
 20
5.563360
  0
VERTEX
  8
0
  6
CONTINUOUS
 10
5.105760
 20
4.821960
  0
VERTEX
  8
0
  6
CONTINUOUS
 10
5.085960
 20
4.810520
  0
SEQEND
  8
0
  0
SOLID
  8
0
 62
    15
 10
5.105760
 20
4.821960
 11
5.110160
 21
5.563360
 12
5.126880
 22
4.829440
 13
5.131280
 23
5.570840
  0
POLYLINE
  8
0
  6
CONTINUOUS
 66
     1
 40
0.000000
 41
0.000000
  0
VERTEX
  8
0
  6
CONTINUOUS
 10
5.105760
 20
4.821960
  0
VERTEX
  8
0
  6
CONTINUOUS
 10
5.110160
 20
5.563360
  0
VERTEX
  8
0
  6
CONTINUOUS
 10
5.131280
 20
5.570840
  0
VERTEX
  8
0
  6
CONTINUOUS
 10
5.126880
 20
4.829440
  0
VERTEX
  8
0
  6
CONTINUOUS
 10
5.105760
 20
4.821960
  0
SEQEND
  8
0
  0
SOLID
  8
0
 62
    15
 10
5.126880
 20
4.829440
 11
5.131280
 21
5.570840
 12
5.149320
 22
4.832080
 13
5.153720
 23
5.573480
  0
POLYLINE
  8
0
  6
CONTINUOUS
 66
     1
 40
0.000000
 41
0.000000
  0
VERTEX
  8
0
  6
CONTINUOUS
 10
5.126880
 20
4.829440
  0
VERTEX
  8
0
  6
CONTINUOUS
 10
5.131280
 20
5.570840
  0
VERTEX
  8
0
  6
CONTINUOUS
 10
5.153720
 20
5.573480
  0
VERTEX
  8
0
  6
CONTINUOUS
 10
5.149320
 20
4.832080
  0
VERTEX
  8
0
  6
CONTINUOUS
 10
5.126880
 20
4.829440
  0
SEQEND
  8
0
  0
SOLID
  8
0
 62
    15
 10
5.149320
 20
4.832080
 11
5.153720
 21
5.573480
 12
5.171760
 22
4.829440
 13
5.176160
 23
5.570840
  0
POLYLINE
  8
0
  6
CONTINUOUS
 66
     1
 40
0.000000
 41
0.000000
  0
VERTEX
  8
0
  6
CONTINUOUS
 10
5.149320
 20
4.832080
  0
VERTEX
  8
0
  6
CONTINUOUS
 10
5.153720
 20
5.573480
  0
VERTEX
  8
0
  6
CONTINUOUS
 10
5.176160
 20
5.570840
  0
VERTEX
  8
0
  6
CONTINUOUS
 10
5.171760
 20
4.829440
  0
VERTEX
  8
0
  6
CONTINUOUS
 10
5.149320
 20
4.832080
  0
SEQEND
  8
0
  0
SOLID
  8
0
 62
    15
 10
5.171760
 20
4.829440
 11
5.176160
 21
5.570840
 12
5.192880
 22
4.821960
 13
5.197280
 23
5.563360
  0
POLYLINE
  8
0
  6
CONTINUOUS
 66
     1
 40
0.000000
 41
0.000000
  0
VERTEX
  8
0
  6
CONTINUOUS
 10
5.171760
 20
4.829440
  0
VERTEX
  8
0
  6
CONTINUOUS
 10
5.176160
 20
5.570840
  0
VERTEX
  8
0
  6
CONTINUOUS
 10
5.197280
 20
5.563360
  0
VERTEX
  8
0
  6
CONTINUOUS
 10
5.192880
 20
4.821960
  0
VERTEX
  8
0
  6
CONTINUOUS
 10
5.171760
 20
4.829440
  0
SEQEND
  8
0
  0
SOLID
  8
0
 62
    15
 10
5.192880
 20
4.821960
 11
5.197280
 21
5.563360
 12
5.212240
 22
4.810960
 13
5.216640
 23
5.551920
  0
POLYLINE
  8
0
  6
CONTINUOUS
 66
     1
 40
0.000000
 41
0.000000
  0
VERTEX
  8
0
  6
CONTINUOUS
 10
5.192880
 20
4.821960
  0
VERTEX
  8
0
  6
CONTINUOUS
 10
5.197280
 20
5.563360
  0
VERTEX
  8
0
  6
CONTINUOUS
 10
5.216640
 20
5.551920
  0
VERTEX
  8
0
  6
CONTINUOUS
 10
5.212240
 20
4.810960
  0
VERTEX
  8
0
  6
CONTINUOUS
 10
5.192880
 20
4.821960
  0
SEQEND
  8
0
  0
SOLID
  8
0
 62
    15
 10
5.212240
 20
4.810960
 11
5.216640
 21
5.551920
 12
5.229400
 22
4.795560
 13
5.233800
 23
5.536960
  0
POLYLINE
  8
0
  6
CONTINUOUS
 66
     1
 40
0.000000
 41
0.000000
  0
VERTEX
  8
0
  6
CONTINUOUS
 10
5.212240
 20
4.810960
  0
VERTEX
  8
0
  6
CONTINUOUS
 10
5.216640
 20
5.551920
  0
VERTEX
  8
0
  6
CONTINUOUS
 10
5.233800
 20
5.536960
  0
VERTEX
  8
0
  6
CONTINUOUS
 10
5.229400
 20
4.795560
  0
VERTEX
  8
0
  6
CONTINUOUS
 10
5.212240
 20
4.810960
  0
SEQEND
  8
0
  0
SOLID
  8
0
 62
    15
 10
5.229400
 20
4.795560
 11
5.233800
 21
5.536960
 12
5.243920
 22
4.777960
 13
5.248320
 23
5.519360
  0
POLYLINE
  8
0
  6
CONTINUOUS
 66
     1
 40
0.000000
 41
0.000000
  0
VERTEX
  8
0
  6
CONTINUOUS
 10
5.229400
 20
4.795560
  0
VERTEX
  8
0
  6
CONTINUOUS
 10
5.233800
 20
5.536960
  0
VERTEX
  8
0
  6
CONTINUOUS
 10
5.248320
 20
5.519360
  0
VERTEX
  8
0
  6
CONTINUOUS
 10
5.243920
 20
4.777960
  0
VERTEX
  8
0
  6
CONTINUOUS
 10
5.229400
 20
4.795560
  0
SEQEND
  8
0
  0
SOLID
  8
0
 62
    15
 10
5.243920
 20
4.777960
 11
5.248320
 21
5.519360
 12
5.254480
 22
4.757720
 13
5.258880
 23
5.499120
  0
POLYLINE
  8
0
  6
CONTINUOUS
 66
     1
 40
0.000000
 41
0.000000
  0
VERTEX
  8
0
  6
CONTINUOUS
 10
5.243920
 20
4.777960
  0
VERTEX
  8
0
  6
CONTINUOUS
 10
5.248320
 20
5.519360
  0
VERTEX
  8
0
  6
CONTINUOUS
 10
5.258880
 20
5.499120
  0
VERTEX
  8
0
  6
CONTINUOUS
 10
5.254480
 20
4.757720
  0
VERTEX
  8
0
  6
CONTINUOUS
 10
5.243920
 20
4.777960
  0
SEQEND
  8
0
  0
SOLID
  8
0
 62
    15
 10
5.261520
 20
4.735280
 11
5.265920
 21
5.476680
 12
5.264160
 22
4.711960
 13
5.268560
 23
5.453360
  0
POLYLINE
  8
0
  6
CONTINUOUS
 66
     1
 40
0.000000
 41
0.000000
  0
VERTEX
  8
0
  6
CONTINUOUS
 10
5.261520
 20
4.735280
  0
VERTEX
  8
0
  6
CONTINUOUS
 10
5.265920
 20
5.476680
  0
VERTEX
  8
0
  6
CONTINUOUS
 10
5.268560
 20
5.453360
  0
VERTEX
  8
0
  6
CONTINUOUS
 10
5.264160
 20
4.711960
  0
VERTEX
  8
0
  6
CONTINUOUS
 10
5.261520
 20
4.735280
  0
SEQEND
  8
0
  0
SOLID
  8
0
 62
    15
 10
5.254480
 20
4.757720
 11
5.258880
 21
5.499120
 12
5.261520
 22
4.735280
 13
5.265920
 23
5.476680
  0
POLYLINE
  8
0
  6
CONTINUOUS
 66
     1
 40
0.000000
 41
0.000000
  0
VERTEX
  8
0
  6
CONTINUOUS
 10
5.254480
 20
4.757720
  0
VERTEX
  8
0
  6
CONTINUOUS
 10
5.258880
 20
5.499120
  0
VERTEX
  8
0
  6
CONTINUOUS
 10
5.265920
 20
5.476680
  0
VERTEX
  8
0
  6
CONTINUOUS
 10
5.261520
 20
4.735280
  0
VERTEX
  8
0
  6
CONTINUOUS
 10
5.254480
 20
4.757720
  0
SEQEND
  8
0
  0
SOLID
  8
0
 62
    15
 10
5.264160
 20
4.653440
 11
5.268560
 21
5.394840
 12
5.404960
 22
4.653440
 13
5.409360
 23
5.394840
  0
POLYLINE
  8
0
  6
CONTINUOUS
 66
     1
 40
0.000000
 41
0.000000
  0
VERTEX
  8
0
  6
CONTINUOUS
 10
5.264160
 20
4.653440
  0
VERTEX
  8
0
  6
CONTINUOUS
 10
5.268560
 20
5.394840
  0
VERTEX
  8
0
  6
CONTINUOUS
 10
5.409360
 20
5.394840
  0
VERTEX
  8
0
  6
CONTINUOUS
 10
5.404960
 20
4.653440
  0
VERTEX
  8
0
  6
CONTINUOUS
 10
5.264160
 20
4.653440
  0
SEQEND
  8
0
  0
SOLID
  8
0
 62
    15
 10
5.264160
 20
4.711960
 11
5.268560
 21
5.453360
 12
5.264160
 22
4.653440
 13
5.268560
 23
5.394840
  0
POLYLINE
  8
0
  6
CONTINUOUS
 66
     1
 40
0.000000
 41
0.000000
  0
VERTEX
  8
0
  6
CONTINUOUS
 10
5.264160
 20
4.711960
  0
VERTEX
  8
0
  6
CONTINUOUS
 10
5.268560
 20
5.453360
  0
VERTEX
  8
0
  6
CONTINUOUS
 10
5.268560
 20
5.394840
  0
VERTEX
  8
0
  6
CONTINUOUS
 10
5.264160
 20
4.653440
  0
VERTEX
  8
0
  6
CONTINUOUS
 10
5.264160
 20
4.711960
  0
SEQEND
  8
0
  0
SOLID
  8
0
 62
    15
 10
5.404960
 20
4.653440
 11
5.409360
 21
5.394840
 12
5.417280
 22
4.615600
 13
5.421680
 23
5.357000
  0
POLYLINE
  8
0
  6
CONTINUOUS
 66
     1
 40
0.000000
 41
0.000000
  0
VERTEX
  8
0
  6
CONTINUOUS
 10
5.404960
 20
4.653440
  0
VERTEX
  8
0
  6
CONTINUOUS
 10
5.409360
 20
5.394840
  0
VERTEX
  8
0
  6
CONTINUOUS
 10
5.421680
 20
5.357000
  0
VERTEX
  8
0
  6
CONTINUOUS
 10
5.417280
 20
4.615600
  0
VERTEX
  8
0
  6
CONTINUOUS
 10
5.404960
 20
4.653440
  0
SEQEND
  8
0
  0
SOLID
  8
0
 62
    15
 10
5.417280
 20
4.615600
 11
5.421680
 21
5.357000
 12
5.439720
 22
4.580840
 13
5.444120
 23
5.322240
  0
POLYLINE
  8
0
  6
CONTINUOUS
 66
     1
 40
0.000000
 41
0.000000
  0
VERTEX
  8
0
  6
CONTINUOUS
 10
5.417280
 20
4.615600
  0
VERTEX
  8
0
  6
CONTINUOUS
 10
5.421680
 20
5.357000
  0
VERTEX
  8
0
  6
CONTINUOUS
 10
5.444120
 20
5.322240
  0
VERTEX
  8
0
  6
CONTINUOUS
 10
5.439720
 20
4.580840
  0
VERTEX
  8
0
  6
CONTINUOUS
 10
5.417280
 20
4.615600
  0
SEQEND
  8
0
  0
SOLID
  8
0
 62
    15
 10
5.439720
 20
4.580840
 11
5.444120
 21
5.322240
 12
5.470520
 22
4.550480
 13
5.474920
 23
5.291880
  0
POLYLINE
  8
0
  6
CONTINUOUS
 66
     1
 40
0.000000
 41
0.000000
  0
VERTEX
  8
0
  6
CONTINUOUS
 10
5.439720
 20
4.580840
  0
VERTEX
  8
0
  6
CONTINUOUS
 10
5.444120
 20
5.322240
  0
VERTEX
  8
0
  6
CONTINUOUS
 10
5.474920
 20
5.291880
  0
VERTEX
  8
0
  6
CONTINUOUS
 10
5.470520
 20
4.550480
  0
VERTEX
  8
0
  6
CONTINUOUS
 10
5.439720
 20
4.580840
  0
SEQEND
  8
0
  0
SOLID
  8
0
 62
    15
 10
5.470520
 20
4.550480
 11
5.474920
 21
5.291880
 12
5.509240
 22
4.524080
 13
5.513640
 23
5.265480
  0
POLYLINE
  8
0
  6
CONTINUOUS
 66
     1
 40
0.000000
 41
0.000000
  0
VERTEX
  8
0
  6
CONTINUOUS
 10
5.470520
 20
4.550480
  0
VERTEX
  8
0
  6
CONTINUOUS
 10
5.474920
 20
5.291880
  0
VERTEX
  8
0
  6
CONTINUOUS
 10
5.513640
 20
5.265480
  0
VERTEX
  8
0
  6
CONTINUOUS
 10
5.509240
 20
4.524080
  0
VERTEX
  8
0
  6
CONTINUOUS
 10
5.470520
 20
4.550480
  0
SEQEND
  8
0
  0
SOLID
  8
0
 62
    15
 10
5.509240
 20
4.524080
 11
5.513640
 21
5.265480
 12
5.554560
 22
4.502960
 13
5.558960
 23
5.243920
  0
POLYLINE
  8
0
  6
CONTINUOUS
 66
     1
 40
0.000000
 41
0.000000
  0
VERTEX
  8
0
  6
CONTINUOUS
 10
5.509240
 20
4.524080
  0
VERTEX
  8
0
  6
CONTINUOUS
 10
5.513640
 20
5.265480
  0
VERTEX
  8
0
  6
CONTINUOUS
 10
5.558960
 20
5.243920
  0
VERTEX
  8
0
  6
CONTINUOUS
 10
5.554560
 20
4.502960
  0
VERTEX
  8
0
  6
CONTINUOUS
 10
5.509240
 20
4.524080
  0
SEQEND
  8
0
  0
SOLID
  8
0
 62
    15
 10
5.554560
 20
4.502960
 11
5.558960
 21
5.243920
 12
5.605160
 22
4.486680
 13
5.609560
 23
5.228080
  0
POLYLINE
  8
0
  6
CONTINUOUS
 66
     1
 40
0.000000
 41
0.000000
  0
VERTEX
  8
0
  6
CONTINUOUS
 10
5.554560
 20
4.502960
  0
VERTEX
  8
0
  6
CONTINUOUS
 10
5.558960
 20
5.243920
  0
VERTEX
  8
0
  6
CONTINUOUS
 10
5.609560
 20
5.228080
  0
VERTEX
  8
0
  6
CONTINUOUS
 10
5.605160
 20
4.486680
  0
VERTEX
  8
0
  6
CONTINUOUS
 10
5.554560
 20
4.502960
  0
SEQEND
  8
0
  0
SOLID
  8
0
 62
    15
 10
5.605160
 20
4.486680
 11
5.609560
 21
5.228080
 12
5.660160
 22
4.477000
 13
5.664560
 23
5.218400
  0
POLYLINE
  8
0
  6
CONTINUOUS
 66
     1
 40
0.000000
 41
0.000000
  0
VERTEX
  8
0
  6
CONTINUOUS
 10
5.605160
 20
4.486680
  0
VERTEX
  8
0
  6
CONTINUOUS
 10
5.609560
 20
5.228080
  0
VERTEX
  8
0
  6
CONTINUOUS
 10
5.664560
 20
5.218400
  0
VERTEX
  8
0
  6
CONTINUOUS
 10
5.660160
 20
4.477000
  0
VERTEX
  8
0
  6
CONTINUOUS
 10
5.605160
 20
4.486680
  0
SEQEND
  8
0
  0
SOLID
  8
0
 62
    15
 10
5.718240
 20
4.473480
 11
5.722640
 21
5.214880
 12
5.718240
 22
4.231480
 13
5.722640
 23
4.972880
  0
POLYLINE
  8
0
  6
CONTINUOUS
 66
     1
 40
0.000000
 41
0.000000
  0
VERTEX
  8
0
  6
CONTINUOUS
 10
5.718240
 20
4.473480
  0
VERTEX
  8
0
  6
CONTINUOUS
 10
5.722640
 20
5.214880
  0
VERTEX
  8
0
  6
CONTINUOUS
 10
5.722640
 20
4.972880
  0
VERTEX
  8
0
  6
CONTINUOUS
 10
5.718240
 20
4.231480
  0
VERTEX
  8
0
  6
CONTINUOUS
 10
5.718240
 20
4.473480
  0
SEQEND
  8
0
  0
SOLID
  8
0
 62
    15
 10
5.660160
 20
4.477000
 11
5.664560
 21
5.218400
 12
5.718240
 22
4.473480
 13
5.722640
 23
5.214880
  0
POLYLINE
  8
0
  6
CONTINUOUS
 66
     1
 40
0.000000
 41
0.000000
  0
VERTEX
  8
0
  6
CONTINUOUS
 10
5.660160
 20
4.477000
  0
VERTEX
  8
0
  6
CONTINUOUS
 10
5.664560
 20
5.218400
  0
VERTEX
  8
0
  6
CONTINUOUS
 10
5.722640
 20
5.214880
  0
VERTEX
  8
0
  6
CONTINUOUS
 10
5.718240
 20
4.473480
  0
VERTEX
  8
0
  6
CONTINUOUS
 10
5.660160
 20
4.477000
  0
SEQEND
  8
0
  0
POLYLINE
  8
0
  6
CONTINUOUS
 66
     1
 40
0.000000
 41
0.000000
  0
VERTEX
  8
0
  6
CONTINUOUS
 10
2.381280
 20
4.231920
  0
VERTEX
  8
0
  6
CONTINUOUS
 10
2.222440
 20
4.231920
  0
VERTEX
  8
0
  6
CONTINUOUS
 10
2.222440
 20
5.104880
  0
VERTEX
  8
0
  6
CONTINUOUS
 10
2.725800
 20
5.104880
  0
VERTEX
  8
0
  6
CONTINUOUS
 10
2.725800
 20
4.970240
  0
VERTEX
  8
0
  6
CONTINUOUS
 10
2.753520
 20
4.970240
  0
VERTEX
  8
0
  6
CONTINUOUS
 10
2.757040
 20
4.972000
  0
VERTEX
  8
0
  6
CONTINUOUS
 10
2.770240
 20
4.996640
  0
VERTEX
  8
0
  6
CONTINUOUS
 10
2.788720
 20
5.019960
  0
VERTEX
  8
0
  6
CONTINUOUS
 10
2.811600
 20
5.041080
  0
VERTEX
  8
0
  6
CONTINUOUS
 10
2.838880
 20
5.059560
  0
VERTEX
  8
0
  6
CONTINUOUS
 10
2.870120
 20
5.074960
  0
VERTEX
  8
0
  6
CONTINUOUS
 10
2.904880
 20
5.086400
  0
VERTEX
  8
0
  6
CONTINUOUS
 10
2.942280
 20
5.093880
  0
VERTEX
  8
0
  6
CONTINUOUS
 10
2.982320
 20
5.096520
  0
VERTEX
  8
0
  6
CONTINUOUS
 10
3.025000
 20
5.093440
  0
VERTEX
  8
0
  6
CONTINUOUS
 10
3.069000
 20
5.084640
  0
VERTEX
  8
0
  6
CONTINUOUS
 10
3.114760
 20
5.069240
  0
VERTEX
  8
0
  6
CONTINUOUS
 10
3.161400
 20
5.046800
  0
VERTEX
  8
0
  6
CONTINUOUS
 10
3.208480
 20
5.016880
  0
VERTEX
  8
0
  6
CONTINUOUS
 10
3.256000
 20
4.978600
  0
VERTEX
  8
0
  6
CONTINUOUS
 10
3.303520
 20
4.931960
  0
VERTEX
  8
0
  6
CONTINUOUS
 10
3.350160
 20
4.875640
  0
VERTEX
  8
0
  6
CONTINUOUS
 10
3.351920
 20
4.871680
  0
VERTEX
  8
0
  6
CONTINUOUS
 10
3.616360
 20
4.871680
  0
VERTEX
  8
0
  6
CONTINUOUS
 10
3.630880
 20
4.848800
  0
VERTEX
  8
0
  6
CONTINUOUS
 10
3.650240
 20
4.826360
  0
VERTEX
  8
0
  6
CONTINUOUS
 10
3.673560
 20
4.805240
  0
VERTEX
  8
0
  6
CONTINUOUS
 10
3.701280
 20
4.785000
  0
VERTEX
  8
0
  6
CONTINUOUS
 10
3.767720
 20
4.747600
  0
VERTEX
  8
0
  6
CONTINUOUS
 10
3.846920
 20
4.715480
  0
VERTEX
  8
0
  6
CONTINUOUS
 10
3.936240
 20
4.689520
  0
VERTEX
  8
0
  6
CONTINUOUS
 10
4.033040
 20
4.670160
  0
VERTEX
  8
0
  6
CONTINUOUS
 10
4.134680
 20
4.657840
  0
VERTEX
  8
0
  6
CONTINUOUS
 10
4.239400
 20
4.653440
  0
VERTEX
  8
0
  6
CONTINUOUS
 10
5.034480
 20
4.653440
  0
VERTEX
  8
0
  6
CONTINUOUS
 10
5.034480
 20
4.711960
  0
VERTEX
  8
0
  6
CONTINUOUS
 10
5.036680
 20
4.735280
  0
VERTEX
  8
0
  6
CONTINUOUS
 10
5.043720
 20
4.757280
  0
VERTEX
  8
0
  6
CONTINUOUS
 10
5.054720
 20
4.777960
  0
VERTEX
  8
0
  6
CONTINUOUS
 10
5.068800
 20
4.795560
  0
VERTEX
  8
0
  6
CONTINUOUS
 10
5.085960
 20
4.810520
  0
VERTEX
  8
0
  6
CONTINUOUS
 10
5.105760
 20
4.821960
  0
VERTEX
  8
0
  6
CONTINUOUS
 10
5.126880
 20
4.829440
  0
VERTEX
  8
0
  6
CONTINUOUS
 10
5.149320
 20
4.832080
  0
VERTEX
  8
0
  6
CONTINUOUS
 10
5.171760
 20
4.829440
  0
VERTEX
  8
0
  6
CONTINUOUS
 10
5.192880
 20
4.821960
  0
VERTEX
  8
0
  6
CONTINUOUS
 10
5.212240
 20
4.810960
  0
VERTEX
  8
0
  6
CONTINUOUS
 10
5.229400
 20
4.795560
  0
VERTEX
  8
0
  6
CONTINUOUS
 10
5.243920
 20
4.777960
  0
VERTEX
  8
0
  6
CONTINUOUS
 10
5.254480
 20
4.757720
  0
VERTEX
  8
0
  6
CONTINUOUS
 10
5.261520
 20
4.735280
  0
VERTEX
  8
0
  6
CONTINUOUS
 10
5.264160
 20
4.711960
  0
VERTEX
  8
0
  6
CONTINUOUS
 10
5.264160
 20
4.653440
  0
VERTEX
  8
0
  6
CONTINUOUS
 10
5.404960
 20
4.653440
  0
VERTEX
  8
0
  6
CONTINUOUS
 10
5.417280
 20
4.615600
  0
VERTEX
  8
0
  6
CONTINUOUS
 10
5.439720
 20
4.580840
  0
VERTEX
  8
0
  6
CONTINUOUS
 10
5.470520
 20
4.550480
  0
VERTEX
  8
0
  6
CONTINUOUS
 10
5.509240
 20
4.524080
  0
VERTEX
  8
0
  6
CONTINUOUS
 10
5.554560
 20
4.502960
  0
VERTEX
  8
0
  6
CONTINUOUS
 10
5.605160
 20
4.486680
  0
VERTEX
  8
0
  6
CONTINUOUS
 10
5.660160
 20
4.477000
  0
VERTEX
  8
0
  6
CONTINUOUS
 10
5.718240
 20
4.473480
  0
VERTEX
  8
0
  6
CONTINUOUS
 10
5.718240
 20
4.231480
  0
VERTEX
  8
0
  6
CONTINUOUS
 10
2.381280
 20
4.231920
  0
SEQEND
  8
0
  0
TEXT
  8
0
 10
3.631760
 20
3.998720
 40
0.138194
  1
BA  1208
 41
1.000000
  7
SN0
 71
     0
 72
     5
 11
4.313489
 21
3.998720
  0
TEXT
  8
0
 10
3.522200
 20
3.807320
 40
0.138194
  1
7/8" x 3-1/2"
 41
1.000000
  7
SN0
 71
     0
 72
     5
 11
4.421930
 21
3.807320
  0
TEXT
  8
0
 10
2.675640
 20
6.434120
 40
0.138194
  1
BA  1208
 41
1.000000
  7
SN0
 71
     0
 72
     5
 11
3.357369
 21
6.434120
  0
TEXT
  8
0
 10
2.566080
 20
6.242280
 40
0.138194
  1
7/8" x 3-1/2"
 41
1.000000
  7
SN0
 71
     0
 72
     5
 11
3.465810
 21
6.242280
  0
ENDSEC
  0
EOF
