  0
SECTION
  2
HEADER
  9
$ACADVER
  1
AC1006
  9
$EXTMIN
 10
4.021600
 20
0.434280
  9
$EXTMAX
 10
7.556560
 20
6.048680
  9
$LTSCALE
 40
0.044000
  9
$PDMODE
 70
    35
  9
$PDSIZE
 40
0.035200
  0
ENDSEC
  0
SECTION
  2
TABLES
  0
TABLE
  2
LTYPE
 70
     9
  0
LTYPE
  2
CONTINUOUS
 70
    64
  3
Solid line
 72
    65
 73
     0
 40
0.000000
  0
LTYPE
  2
DASHED
 70
    64
  3
__ __ __ __ __ __ __ __ __ __ __ __ __ __ __
 72
    65
 73
     2
 40
0.000330
 49
0.000220
 49
-0.000110
  0
LTYPE
  2
HIDDEN
 70
    64
  3
 _ _ _ _ _ _ _ _ _ _ _ _ _ _ _ _ _ _ _ _ _ _
 72
    65
 73
     2
 40
0.000165
 49
0.000110
 49
-0.000055
  0
LTYPE
  2
CENTER
 70
    64
  3
____ _ ____ _ ____ _ ____ _ ____ _ ____ _ ____
 72
    65
 73
     4
 40
0.000880
 49
0.000550
 49
-0.000110
 49
0.000110
 49
-0.000110
  0
LTYPE
  2
PHANTOM
 70
    64
  3
_____ _ _ _____ _ _ _____ _ _ _____ _ _ ____
 72
    65
 73
     6
 40
0.001100
 49
0.000550
 49
-0.000110
 49
0.000110
 49
-0.000110
 49
0.000110
 49
-0.000110
  0
LTYPE
  2
DOT
 70
    64
  3
...............................................
 72
    65
 73
     2
 40
0.000110
 49
0.000000
 49
-0.000110
  0
LTYPE
  2
DASHDOT
 70
    64
  3
__ . __ . __ . __ . __ . __ . __ . __ . __ . __
 72
    65
 73
     4
 40
0.000440
 49
0.000220
 49
-0.000110
 49
0.000000
 49
-0.000110
  0
LTYPE
  2
BORDER
 70
    64
  3
__ __ . __ __ . __ __ . __ __ . __ __ . __ __
 72
    65
 73
     6
 40
0.000770
 49
0.000220
 49
-0.000110
 49
0.000220
 49
-0.000110
 49
0.000000
 49
-0.000110
  0
LTYPE
  2
DIVIDE
 70
    64
  3
__ . . __ . . __ . . __ . . __ . . __ . . __
 72
    65
 73
     6
 40
0.000550
 49
0.000220
 49
-0.000110
 49
0.000000
 49
-0.000110
 49
0.000000
 49
-0.000110
  0
LTYPE
  2
DOTDOT
 70
    64
  3
 . .  . .  . .  . .  . .  . . 
 72
    65
 73
     5
 40
0.000242
 49
-0.000110
 49
0.000000
 49
-0.000110
 49
0.000000
 49
-0.000110
  0
ENDTAB
  0
TABLE
  2
STYLE
 70
     2
  0
STYLE
 70
     0
  2
SN0
 40
0.000000
 41
0.000440
 50
0.000000
 71
     0
 42
0.000000
  3
ROMAND
  0
STYLE
 70
    68
  2
SV0
 40
0.000000
 41
0.000440
 50
0.000000
 71
     0
 42
0.000000
  3
ROMAND
  0
ENDTAB
  0
TABLE
  2
LAYER
 70
     3
  0
LAYER
  2
FOREGROUND
 70
    64
 62
     7
  6
CONTINUOUS
  0
LAYER
  2
BACKGROUND
 70
    65
 62
    -7
  6
CONTINUOUS
  0
LAYER
  2
0
 70
    64
 62
     7
  6
CONTINUOUS
  0
ENDTAB
  0
ENDSEC
  0
SECTION
  2
ENTITIES
  0
POLYLINE
  8
FOREGROUND
  6
CONTINUOUS
 66
     1
 40
0.000000
 41
0.000000
  0
VERTEX
  8
FOREGROUND
  6
CONTINUOUS
 10
0.000000
 20
6.482960
  0
VERTEX
  8
FOREGROUND
  6
CONTINUOUS
 10
8.499920
 20
6.482960
  0
VERTEX
  8
FOREGROUND
  6
CONTINUOUS
 10
8.499920
 20
-4.517040
  0
VERTEX
  8
FOREGROUND
  6
CONTINUOUS
 10
0.000000
 20
-4.517040
  0
VERTEX
  8
FOREGROUND
  6
CONTINUOUS
 10
0.000000
 20
6.482960
  0
SEQEND
  8
0
  0
POLYLINE
  8
FOREGROUND
  6
CONTINUOUS
 66
     1
 40
0.000000
 41
0.000000
  0
VERTEX
  8
FOREGROUND
  6
CONTINUOUS
 10
0.000000
 20
6.482960
  0
VERTEX
  8
FOREGROUND
  6
CONTINUOUS
 10
8.499920
 20
6.482960
  0
VERTEX
  8
FOREGROUND
  6
CONTINUOUS
 10
8.499920
 20
-4.517040
  0
VERTEX
  8
FOREGROUND
  6
CONTINUOUS
 10
0.000000
 20
-4.517040
  0
VERTEX
  8
FOREGROUND
  6
CONTINUOUS
 10
0.000000
 20
6.482960
  0
SEQEND
  8
0
  0
POLYLINE
  8
0
  6
CONTINUOUS
 66
     1
 40
0.014080
 41
0.014080
  0
VERTEX
  8
0
  6
CONTINUOUS
 10
4.118840
 20
5.220160
  0
VERTEX
  8
0
  6
CONTINUOUS
 10
4.118840
 20
6.041200
  0
VERTEX
  8
0
  6
CONTINUOUS
 10
4.658720
 20
6.041200
  0
VERTEX
  8
0
  6
CONTINUOUS
 10
4.665760
 20
5.925480
  0
VERTEX
  8
0
  6
CONTINUOUS
 10
4.697440
 20
5.925480
  0
VERTEX
  8
0
  6
CONTINUOUS
 10
4.702280
 20
5.940880
  0
VERTEX
  8
0
  6
CONTINUOUS
 10
4.715920
 20
5.968160
  0
VERTEX
  8
0
  6
CONTINUOUS
 10
4.733520
 20
5.991040
  0
VERTEX
  8
0
  6
CONTINUOUS
 10
4.743640
 20
6.000720
  0
VERTEX
  8
0
  6
CONTINUOUS
 10
4.766520
 20
6.016560
  0
VERTEX
  8
0
  6
CONTINUOUS
 10
4.791600
 20
6.027120
  0
VERTEX
  8
0
  6
CONTINUOUS
 10
4.818880
 20
6.033280
  0
VERTEX
  8
0
  6
CONTINUOUS
 10
4.846600
 20
6.034160
  0
VERTEX
  8
0
  6
CONTINUOUS
 10
4.874760
 20
6.029760
  0
VERTEX
  8
0
  6
CONTINUOUS
 10
4.902040
 20
6.020080
  0
VERTEX
  8
0
  6
CONTINUOUS
 10
4.928440
 20
6.005120
  0
VERTEX
  8
0
  6
CONTINUOUS
 10
4.952640
 20
5.984880
  0
VERTEX
  8
0
  6
CONTINUOUS
 10
4.974200
 20
5.958920
  0
VERTEX
  8
0
  6
CONTINUOUS
 10
4.992240
 20
5.927680
  0
VERTEX
  8
0
  6
CONTINUOUS
 10
4.999720
 20
5.909640
  0
VERTEX
  8
0
  6
CONTINUOUS
 10
5.005880
 20
5.890280
  0
VERTEX
  8
0
  6
CONTINUOUS
 10
5.014680
 20
5.847160
  0
VERTEX
  8
0
  6
CONTINUOUS
 10
5.016880
 20
5.823400
  0
VERTEX
  8
0
  6
CONTINUOUS
 10
5.017760
 20
5.798320
  0
VERTEX
  8
0
  6
CONTINUOUS
 10
5.041960
 20
5.798320
  0
VERTEX
  8
0
  6
CONTINUOUS
 10
5.053400
 20
5.819880
  0
VERTEX
  8
0
  6
CONTINUOUS
 10
5.065720
 20
5.837040
  0
VERTEX
  8
0
  6
CONTINUOUS
 10
5.086400
 20
5.854640
  0
VERTEX
  8
0
  6
CONTINUOUS
 10
5.100920
 20
5.861680
  0
VERTEX
  8
0
  6
CONTINUOUS
 10
5.123360
 20
5.866080
  0
VERTEX
  8
0
  6
CONTINUOUS
 10
5.145800
 20
5.863000
  0
VERTEX
  8
0
  6
CONTINUOUS
 10
5.159880
 20
5.857720
  0
VERTEX
  8
0
  6
CONTINUOUS
 10
5.179680
 20
5.844960
  0
VERTEX
  8
0
  6
CONTINUOUS
 10
5.191120
 20
5.833960
  0
VERTEX
  8
0
  6
CONTINUOUS
 10
5.201240
 20
5.821200
  0
VERTEX
  8
0
  6
CONTINUOUS
 10
5.213120
 20
5.799200
  0
VERTEX
  8
0
  6
CONTINUOUS
 10
5.220160
 20
5.775000
  0
VERTEX
  8
0
  6
CONTINUOUS
 10
5.221480
 20
5.757840
  0
VERTEX
  8
0
  6
CONTINUOUS
 10
5.415960
 20
5.757840
  0
VERTEX
  8
0
  6
CONTINUOUS
 10
5.434440
 20
5.629800
  0
VERTEX
  8
0
  6
CONTINUOUS
 10
7.340520
 20
5.629800
  0
VERTEX
  8
0
  6
CONTINUOUS
 10
7.343160
 20
5.568200
  0
VERTEX
  8
0
  6
CONTINUOUS
 10
7.348440
 20
5.517160
  0
VERTEX
  8
0
  6
CONTINUOUS
 10
7.358120
 20
5.475800
  0
VERTEX
  8
0
  6
CONTINUOUS
 10
7.370000
 20
5.450280
  0
VERTEX
  8
0
  6
CONTINUOUS
 10
7.386280
 20
5.429600
  0
VERTEX
  8
0
  6
CONTINUOUS
 10
7.407840
 20
5.412880
  0
VERTEX
  8
0
  6
CONTINUOUS
 10
7.436000
 20
5.400120
  0
VERTEX
  8
0
  6
CONTINUOUS
 10
7.471640
 20
5.390880
  0
VERTEX
  8
0
  6
CONTINUOUS
 10
7.531920
 20
5.383400
  0
VERTEX
  8
0
  6
CONTINUOUS
 10
7.549520
 20
5.382520
  0
VERTEX
  8
0
  6
CONTINUOUS
 10
7.549520
 20
5.220600
  0
VERTEX
  8
0
  6
CONTINUOUS
 10
4.118840
 20
5.220160
  0
SEQEND
  8
0
  0
POLYLINE
  8
0
  6
CONTINUOUS
 66
     1
 40
0.000000
 41
0.000000
  0
VERTEX
  8
0
  6
CONTINUOUS
 10
4.123680
 20
4.026000
  0
VERTEX
  8
0
  6
CONTINUOUS
 10
4.123680
 20
4.847040
  0
VERTEX
  8
0
  6
CONTINUOUS
 10
4.663560
 20
4.847040
  0
VERTEX
  8
0
  6
CONTINUOUS
 10
4.670600
 20
4.731320
  0
VERTEX
  8
0
  6
CONTINUOUS
 10
4.702280
 20
4.731320
  0
VERTEX
  8
0
  6
CONTINUOUS
 10
4.707120
 20
4.746720
  0
VERTEX
  8
0
  6
CONTINUOUS
 10
4.720760
 20
4.774000
  0
VERTEX
  8
0
  6
CONTINUOUS
 10
4.738360
 20
4.796880
  0
VERTEX
  8
0
  6
CONTINUOUS
 10
4.748480
 20
4.806560
  0
VERTEX
  8
0
  6
CONTINUOUS
 10
4.771360
 20
4.822400
  0
VERTEX
  8
0
  6
CONTINUOUS
 10
4.796440
 20
4.832960
  0
VERTEX
  8
0
  6
CONTINUOUS
 10
4.823720
 20
4.839120
  0
VERTEX
  8
0
  6
CONTINUOUS
 10
4.851440
 20
4.840000
  0
VERTEX
  8
0
  6
CONTINUOUS
 10
4.879600
 20
4.835600
  0
VERTEX
  8
0
  6
CONTINUOUS
 10
4.906880
 20
4.825920
  0
VERTEX
  8
0
  6
CONTINUOUS
 10
4.933280
 20
4.810960
  0
VERTEX
  8
0
  6
CONTINUOUS
 10
4.957480
 20
4.790720
  0
VERTEX
  8
0
  6
CONTINUOUS
 10
4.979040
 20
4.764760
  0
VERTEX
  8
0
  6
CONTINUOUS
 10
4.997080
 20
4.733520
  0
VERTEX
  8
0
  6
CONTINUOUS
 10
5.004560
 20
4.715480
  0
VERTEX
  8
0
  6
CONTINUOUS
 10
5.010720
 20
4.696120
  0
VERTEX
  8
0
  6
CONTINUOUS
 10
5.019520
 20
4.653000
  0
VERTEX
  8
0
  6
CONTINUOUS
 10
5.021720
 20
4.629240
  0
VERTEX
  8
0
  6
CONTINUOUS
 10
5.022600
 20
4.604160
  0
VERTEX
  8
0
  6
CONTINUOUS
 10
5.046800
 20
4.604160
  0
VERTEX
  8
0
  6
CONTINUOUS
 10
5.058240
 20
4.625720
  0
VERTEX
  8
0
  6
CONTINUOUS
 10
5.070560
 20
4.642880
  0
VERTEX
  8
0
  6
CONTINUOUS
 10
5.091240
 20
4.660480
  0
VERTEX
  8
0
  6
CONTINUOUS
 10
5.105760
 20
4.667520
  0
VERTEX
  8
0
  6
CONTINUOUS
 10
5.128200
 20
4.671920
  0
VERTEX
  8
0
  6
CONTINUOUS
 10
5.150640
 20
4.668840
  0
VERTEX
  8
0
  6
CONTINUOUS
 10
5.171320
 20
4.660040
  0
VERTEX
  8
0
  6
CONTINUOUS
 10
5.184520
 20
4.650800
  0
VERTEX
  8
0
  6
CONTINUOUS
 10
5.195960
 20
4.639800
  0
VERTEX
  8
0
  6
CONTINUOUS
 10
5.206080
 20
4.627040
  0
VERTEX
  8
0
  6
CONTINUOUS
 10
5.217960
 20
4.605480
  0
VERTEX
  8
0
  6
CONTINUOUS
 10
5.225000
 20
4.581280
  0
VERTEX
  8
0
  6
CONTINUOUS
 10
5.226320
 20
4.564120
  0
VERTEX
  8
0
  6
CONTINUOUS
 10
5.420800
 20
4.564120
  0
VERTEX
  8
0
  6
CONTINUOUS
 10
5.439280
 20
4.435640
  0
VERTEX
  8
0
  6
CONTINUOUS
 10
7.345360
 20
4.435640
  0
VERTEX
  8
0
  6
CONTINUOUS
 10
7.348880
 20
4.360400
  0
VERTEX
  8
0
  6
CONTINUOUS
 10
7.355040
 20
4.312000
  0
VERTEX
  8
0
  6
CONTINUOUS
 10
7.362960
 20
4.281640
  0
VERTEX
  8
0
  6
CONTINUOUS
 10
7.374400
 20
4.256120
  0
VERTEX
  8
0
  6
CONTINUOUS
 10
7.390680
 20
4.235440
  0
VERTEX
  8
0
  6
CONTINUOUS
 10
7.412680
 20
4.218720
  0
VERTEX
  8
0
  6
CONTINUOUS
 10
7.440840
 20
4.205960
  0
VERTEX
  8
0
  6
CONTINUOUS
 10
7.476480
 20
4.196720
  0
VERTEX
  8
0
  6
CONTINUOUS
 10
7.536760
 20
4.189240
  0
VERTEX
  8
0
  6
CONTINUOUS
 10
7.554360
 20
4.188360
  0
VERTEX
  8
0
  6
CONTINUOUS
 10
7.554360
 20
4.026440
  0
VERTEX
  8
0
  6
CONTINUOUS
 10
4.123680
 20
4.026000
  0
SEQEND
  8
0
  0
POLYLINE
  8
0
  6
CONTINUOUS
 66
     1
 40
0.000000
 41
0.000000
  0
VERTEX
  8
0
  6
CONTINUOUS
 10
7.481760
 20
0.434720
  0
VERTEX
  8
0
  6
CONTINUOUS
 10
7.481760
 20
1.255760
  0
VERTEX
  8
0
  6
CONTINUOUS
 10
6.941440
 20
1.255760
  0
VERTEX
  8
0
  6
CONTINUOUS
 10
6.934400
 20
1.140040
  0
VERTEX
  8
0
  6
CONTINUOUS
 10
6.903160
 20
1.140040
  0
VERTEX
  8
0
  6
CONTINUOUS
 10
6.892160
 20
1.169520
  0
VERTEX
  8
0
  6
CONTINUOUS
 10
6.876320
 20
1.195040
  0
VERTEX
  8
0
  6
CONTINUOUS
 10
6.856520
 20
1.215280
  0
VERTEX
  8
0
  6
CONTINUOUS
 10
6.833640
 20
1.231120
  0
VERTEX
  8
0
  6
CONTINUOUS
 10
6.808560
 20
1.241680
  0
VERTEX
  8
0
  6
CONTINUOUS
 10
6.781720
 20
1.247840
  0
VERTEX
  8
0
  6
CONTINUOUS
 10
6.754000
 20
1.248720
  0
VERTEX
  8
0
  6
CONTINUOUS
 10
6.725840
 20
1.244320
  0
VERTEX
  8
0
  6
CONTINUOUS
 10
6.711760
 20
1.240360
  0
VERTEX
  8
0
  6
CONTINUOUS
 10
6.684920
 20
1.228040
  0
VERTEX
  8
0
  6
CONTINUOUS
 10
6.659840
 20
1.210440
  0
VERTEX
  8
0
  6
CONTINUOUS
 10
6.636960
 20
1.187120
  0
VERTEX
  8
0
  6
CONTINUOUS
 10
6.617160
 20
1.158520
  0
VERTEX
  8
0
  6
CONTINUOUS
 10
6.608360
 20
1.142240
  0
VERTEX
  8
0
  6
CONTINUOUS
 10
6.594720
 20
1.104840
  0
VERTEX
  8
0
  6
CONTINUOUS
 10
6.585920
 20
1.061720
  0
VERTEX
  8
0
  6
CONTINUOUS
 10
6.582840
 20
1.012880
  0
VERTEX
  8
0
  6
CONTINUOUS
 10
6.558640
 20
1.012880
  0
VERTEX
  8
0
  6
CONTINUOUS
 10
6.547200
 20
1.034440
  0
VERTEX
  8
0
  6
CONTINUOUS
 10
6.534880
 20
1.051600
  0
VERTEX
  8
0
  6
CONTINUOUS
 10
6.514200
 20
1.069200
  0
VERTEX
  8
0
  6
CONTINUOUS
 10
6.499680
 20
1.076240
  0
VERTEX
  8
0
  6
CONTINUOUS
 10
6.477240
 20
1.080640
  0
VERTEX
  8
0
  6
CONTINUOUS
 10
6.454800
 20
1.077560
  0
VERTEX
  8
0
  6
CONTINUOUS
 10
6.440720
 20
1.072280
  0
VERTEX
  8
0
  6
CONTINUOUS
 10
6.420920
 20
1.059520
  0
VERTEX
  8
0
  6
CONTINUOUS
 10
6.409480
 20
1.048520
  0
VERTEX
  8
0
  6
CONTINUOUS
 10
6.399360
 20
1.035760
  0
VERTEX
  8
0
  6
CONTINUOUS
 10
6.387480
 20
1.013760
  0
VERTEX
  8
0
  6
CONTINUOUS
 10
6.380440
 20
0.989560
  0
VERTEX
  8
0
  6
CONTINUOUS
 10
6.379120
 20
0.972400
  0
VERTEX
  8
0
  6
CONTINUOUS
 10
6.184640
 20
0.972400
  0
VERTEX
  8
0
  6
CONTINUOUS
 10
6.166160
 20
0.844360
  0
VERTEX
  8
0
  6
CONTINUOUS
 10
4.260080
 20
0.844360
  0
VERTEX
  8
0
  6
CONTINUOUS
 10
4.257440
 20
0.782760
  0
VERTEX
  8
0
  6
CONTINUOUS
 10
4.252160
 20
0.731720
  0
VERTEX
  8
0
  6
CONTINUOUS
 10
4.242480
 20
0.690360
  0
VERTEX
  8
0
  6
CONTINUOUS
 10
4.230600
 20
0.664840
  0
VERTEX
  8
0
  6
CONTINUOUS
 10
4.214320
 20
0.644160
  0
VERTEX
  8
0
  6
CONTINUOUS
 10
4.192760
 20
0.627440
  0
VERTEX
  8
0
  6
CONTINUOUS
 10
4.164600
 20
0.614680
  0
VERTEX
  8
0
  6
CONTINUOUS
 10
4.128960
 20
0.605440
  0
VERTEX
  8
0
  6
CONTINUOUS
 10
4.068680
 20
0.597960
  0
VERTEX
  8
0
  6
CONTINUOUS
 10
4.051080
 20
0.597080
  0
VERTEX
  8
0
  6
CONTINUOUS
 10
4.051080
 20
0.435160
  0
VERTEX
  8
0
  6
CONTINUOUS
 10
7.481760
 20
0.434720
  0
SEQEND
  8
0
  0
SOLID
  8
0
 62
    15
 10
4.958800
 20
2.708200
 11
4.956160
 21
3.453120
 12
4.971560
 22
2.725360
 13
4.968920
 23
3.470280
  0
POLYLINE
  8
0
  6
CONTINUOUS
 66
     1
 40
0.000000
 41
0.000000
  0
VERTEX
  8
0
  6
CONTINUOUS
 10
4.958800
 20
2.708200
  0
VERTEX
  8
0
  6
CONTINUOUS
 10
4.956160
 20
3.453120
  0
VERTEX
  8
0
  6
CONTINUOUS
 10
4.968920
 20
3.470280
  0
VERTEX
  8
0
  6
CONTINUOUS
 10
4.971560
 20
2.725360
  0
VERTEX
  8
0
  6
CONTINUOUS
 10
4.958800
 20
2.708200
  0
SEQEND
  8
0
  0
SOLID
  8
0
 62
    15
 10
4.024680
 20
2.108920
 11
4.022040
 21
2.853400
 12
4.024680
 22
2.929960
 13
4.022040
 23
3.674440
  0
POLYLINE
  8
0
  6
CONTINUOUS
 66
     1
 40
0.000000
 41
0.000000
  0
VERTEX
  8
0
  6
CONTINUOUS
 10
4.024680
 20
2.108920
  0
VERTEX
  8
0
  6
CONTINUOUS
 10
4.022040
 20
2.853400
  0
VERTEX
  8
0
  6
CONTINUOUS
 10
4.022040
 20
3.674440
  0
VERTEX
  8
0
  6
CONTINUOUS
 10
4.024680
 20
2.929960
  0
VERTEX
  8
0
  6
CONTINUOUS
 10
4.024680
 20
2.108920
  0
SEQEND
  8
0
  0
SOLID
  8
0
 62
    15
 10
4.564560
 20
2.929960
 11
4.561920
 21
3.674440
 12
4.571600
 22
2.814240
 13
4.568960
 23
3.559160
  0
POLYLINE
  8
0
  6
CONTINUOUS
 66
     1
 40
0.000000
 41
0.000000
  0
VERTEX
  8
0
  6
CONTINUOUS
 10
4.564560
 20
2.929960
  0
VERTEX
  8
0
  6
CONTINUOUS
 10
4.561920
 20
3.674440
  0
VERTEX
  8
0
  6
CONTINUOUS
 10
4.568960
 20
3.559160
  0
VERTEX
  8
0
  6
CONTINUOUS
 10
4.571600
 20
2.814240
  0
VERTEX
  8
0
  6
CONTINUOUS
 10
4.564560
 20
2.929960
  0
SEQEND
  8
0
  0
SOLID
  8
0
 62
    15
 10
4.571600
 20
2.814240
 11
4.568960
 21
3.559160
 12
4.603280
 22
2.814240
 13
4.600640
 23
3.559160
  0
POLYLINE
  8
0
  6
CONTINUOUS
 66
     1
 40
0.000000
 41
0.000000
  0
VERTEX
  8
0
  6
CONTINUOUS
 10
4.571600
 20
2.814240
  0
VERTEX
  8
0
  6
CONTINUOUS
 10
4.568960
 20
3.559160
  0
VERTEX
  8
0
  6
CONTINUOUS
 10
4.600640
 20
3.559160
  0
VERTEX
  8
0
  6
CONTINUOUS
 10
4.603280
 20
2.814240
  0
VERTEX
  8
0
  6
CONTINUOUS
 10
4.571600
 20
2.814240
  0
SEQEND
  8
0
  0
SOLID
  8
0
 62
    15
 10
4.603280
 20
2.814240
 11
4.600640
 21
3.559160
 12
4.614280
 22
2.843720
 13
4.611640
 23
3.588640
  0
POLYLINE
  8
0
  6
CONTINUOUS
 66
     1
 40
0.000000
 41
0.000000
  0
VERTEX
  8
0
  6
CONTINUOUS
 10
4.603280
 20
2.814240
  0
VERTEX
  8
0
  6
CONTINUOUS
 10
4.600640
 20
3.559160
  0
VERTEX
  8
0
  6
CONTINUOUS
 10
4.611640
 20
3.588640
  0
VERTEX
  8
0
  6
CONTINUOUS
 10
4.614280
 20
2.843720
  0
VERTEX
  8
0
  6
CONTINUOUS
 10
4.603280
 20
2.814240
  0
SEQEND
  8
0
  0
SOLID
  8
0
 62
    15
 10
4.614280
 20
2.843720
 11
4.611640
 21
3.588640
 12
4.630120
 22
2.868800
 13
4.627480
 23
3.613720
  0
POLYLINE
  8
0
  6
CONTINUOUS
 66
     1
 40
0.000000
 41
0.000000
  0
VERTEX
  8
0
  6
CONTINUOUS
 10
4.614280
 20
2.843720
  0
VERTEX
  8
0
  6
CONTINUOUS
 10
4.611640
 20
3.588640
  0
VERTEX
  8
0
  6
CONTINUOUS
 10
4.627480
 20
3.613720
  0
VERTEX
  8
0
  6
CONTINUOUS
 10
4.630120
 20
2.868800
  0
VERTEX
  8
0
  6
CONTINUOUS
 10
4.614280
 20
2.843720
  0
SEQEND
  8
0
  0
SOLID
  8
0
 62
    15
 10
4.630120
 20
2.868800
 11
4.627480
 21
3.613720
 12
4.649920
 22
2.889480
 13
4.647280
 23
3.634400
  0
POLYLINE
  8
0
  6
CONTINUOUS
 66
     1
 40
0.000000
 41
0.000000
  0
VERTEX
  8
0
  6
CONTINUOUS
 10
4.630120
 20
2.868800
  0
VERTEX
  8
0
  6
CONTINUOUS
 10
4.627480
 20
3.613720
  0
VERTEX
  8
0
  6
CONTINUOUS
 10
4.647280
 20
3.634400
  0
VERTEX
  8
0
  6
CONTINUOUS
 10
4.649920
 20
2.889480
  0
VERTEX
  8
0
  6
CONTINUOUS
 10
4.630120
 20
2.868800
  0
SEQEND
  8
0
  0
SOLID
  8
0
 62
    15
 10
4.649920
 20
2.889480
 11
4.647280
 21
3.634400
 12
4.672360
 22
2.905320
 13
4.669720
 23
3.649800
  0
POLYLINE
  8
0
  6
CONTINUOUS
 66
     1
 40
0.000000
 41
0.000000
  0
VERTEX
  8
0
  6
CONTINUOUS
 10
4.649920
 20
2.889480
  0
VERTEX
  8
0
  6
CONTINUOUS
 10
4.647280
 20
3.634400
  0
VERTEX
  8
0
  6
CONTINUOUS
 10
4.669720
 20
3.649800
  0
VERTEX
  8
0
  6
CONTINUOUS
 10
4.672360
 20
2.905320
  0
VERTEX
  8
0
  6
CONTINUOUS
 10
4.649920
 20
2.889480
  0
SEQEND
  8
0
  0
SOLID
  8
0
 62
    15
 10
4.672360
 20
2.905320
 11
4.669720
 21
3.649800
 12
4.697880
 22
2.915880
 13
4.695240
 23
3.660800
  0
POLYLINE
  8
0
  6
CONTINUOUS
 66
     1
 40
0.000000
 41
0.000000
  0
VERTEX
  8
0
  6
CONTINUOUS
 10
4.672360
 20
2.905320
  0
VERTEX
  8
0
  6
CONTINUOUS
 10
4.669720
 20
3.649800
  0
VERTEX
  8
0
  6
CONTINUOUS
 10
4.695240
 20
3.660800
  0
VERTEX
  8
0
  6
CONTINUOUS
 10
4.697880
 20
2.915880
  0
VERTEX
  8
0
  6
CONTINUOUS
 10
4.672360
 20
2.905320
  0
SEQEND
  8
0
  0
SOLID
  8
0
 62
    15
 10
4.697880
 20
2.915880
 11
4.695240
 21
3.660800
 12
4.724720
 22
2.922040
 13
4.722080
 23
3.666520
  0
POLYLINE
  8
0
  6
CONTINUOUS
 66
     1
 40
0.000000
 41
0.000000
  0
VERTEX
  8
0
  6
CONTINUOUS
 10
4.697880
 20
2.915880
  0
VERTEX
  8
0
  6
CONTINUOUS
 10
4.695240
 20
3.660800
  0
VERTEX
  8
0
  6
CONTINUOUS
 10
4.722080
 20
3.666520
  0
VERTEX
  8
0
  6
CONTINUOUS
 10
4.724720
 20
2.922040
  0
VERTEX
  8
0
  6
CONTINUOUS
 10
4.697880
 20
2.915880
  0
SEQEND
  8
0
  0
SOLID
  8
0
 62
    15
 10
4.724720
 20
2.922040
 11
4.722080
 21
3.666520
 12
4.752440
 22
2.922920
 13
4.749800
 23
3.667400
  0
POLYLINE
  8
0
  6
CONTINUOUS
 66
     1
 40
0.000000
 41
0.000000
  0
VERTEX
  8
0
  6
CONTINUOUS
 10
4.724720
 20
2.922040
  0
VERTEX
  8
0
  6
CONTINUOUS
 10
4.722080
 20
3.666520
  0
VERTEX
  8
0
  6
CONTINUOUS
 10
4.749800
 20
3.667400
  0
VERTEX
  8
0
  6
CONTINUOUS
 10
4.752440
 20
2.922920
  0
VERTEX
  8
0
  6
CONTINUOUS
 10
4.724720
 20
2.922040
  0
SEQEND
  8
0
  0
SOLID
  8
0
 62
    15
 10
4.752440
 20
2.922920
 11
4.749800
 21
3.667400
 12
4.780600
 22
2.918520
 13
4.777960
 23
3.663000
  0
POLYLINE
  8
0
  6
CONTINUOUS
 66
     1
 40
0.000000
 41
0.000000
  0
VERTEX
  8
0
  6
CONTINUOUS
 10
4.752440
 20
2.922920
  0
VERTEX
  8
0
  6
CONTINUOUS
 10
4.749800
 20
3.667400
  0
VERTEX
  8
0
  6
CONTINUOUS
 10
4.777960
 20
3.663000
  0
VERTEX
  8
0
  6
CONTINUOUS
 10
4.780600
 20
2.918520
  0
VERTEX
  8
0
  6
CONTINUOUS
 10
4.752440
 20
2.922920
  0
SEQEND
  8
0
  0
SOLID
  8
0
 62
    15
 10
4.780600
 20
2.918520
 11
4.777960
 21
3.663000
 12
4.807880
 22
2.908840
 13
4.805240
 23
3.653760
  0
POLYLINE
  8
0
  6
CONTINUOUS
 66
     1
 40
0.000000
 41
0.000000
  0
VERTEX
  8
0
  6
CONTINUOUS
 10
4.780600
 20
2.918520
  0
VERTEX
  8
0
  6
CONTINUOUS
 10
4.777960
 20
3.663000
  0
VERTEX
  8
0
  6
CONTINUOUS
 10
4.805240
 20
3.653760
  0
VERTEX
  8
0
  6
CONTINUOUS
 10
4.807880
 20
2.908840
  0
VERTEX
  8
0
  6
CONTINUOUS
 10
4.780600
 20
2.918520
  0
SEQEND
  8
0
  0
SOLID
  8
0
 62
    15
 10
4.807880
 20
2.908840
 11
4.805240
 21
3.653760
 12
4.834280
 22
2.893880
 13
4.831640
 23
3.638800
  0
POLYLINE
  8
0
  6
CONTINUOUS
 66
     1
 40
0.000000
 41
0.000000
  0
VERTEX
  8
0
  6
CONTINUOUS
 10
4.807880
 20
2.908840
  0
VERTEX
  8
0
  6
CONTINUOUS
 10
4.805240
 20
3.653760
  0
VERTEX
  8
0
  6
CONTINUOUS
 10
4.831640
 20
3.638800
  0
VERTEX
  8
0
  6
CONTINUOUS
 10
4.834280
 20
2.893880
  0
VERTEX
  8
0
  6
CONTINUOUS
 10
4.807880
 20
2.908840
  0
SEQEND
  8
0
  0
SOLID
  8
0
 62
    15
 10
4.834280
 20
2.893880
 11
4.831640
 21
3.638800
 12
4.858480
 22
2.873640
 13
4.855840
 23
3.618560
  0
POLYLINE
  8
0
  6
CONTINUOUS
 66
     1
 40
0.000000
 41
0.000000
  0
VERTEX
  8
0
  6
CONTINUOUS
 10
4.834280
 20
2.893880
  0
VERTEX
  8
0
  6
CONTINUOUS
 10
4.831640
 20
3.638800
  0
VERTEX
  8
0
  6
CONTINUOUS
 10
4.855840
 20
3.618560
  0
VERTEX
  8
0
  6
CONTINUOUS
 10
4.858480
 20
2.873640
  0
VERTEX
  8
0
  6
CONTINUOUS
 10
4.834280
 20
2.893880
  0
SEQEND
  8
0
  0
SOLID
  8
0
 62
    15
 10
4.858480
 20
2.873640
 11
4.855840
 21
3.618560
 12
4.880040
 22
2.847680
 13
4.877400
 23
3.592600
  0
POLYLINE
  8
0
  6
CONTINUOUS
 66
     1
 40
0.000000
 41
0.000000
  0
VERTEX
  8
0
  6
CONTINUOUS
 10
4.858480
 20
2.873640
  0
VERTEX
  8
0
  6
CONTINUOUS
 10
4.855840
 20
3.618560
  0
VERTEX
  8
0
  6
CONTINUOUS
 10
4.877400
 20
3.592600
  0
VERTEX
  8
0
  6
CONTINUOUS
 10
4.880040
 20
2.847680
  0
VERTEX
  8
0
  6
CONTINUOUS
 10
4.858480
 20
2.873640
  0
SEQEND
  8
0
  0
SOLID
  8
0
 62
    15
 10
4.880040
 20
2.847680
 11
4.877400
 21
3.592600
 12
4.898080
 22
2.816440
 13
4.895440
 23
3.560920
  0
POLYLINE
  8
0
  6
CONTINUOUS
 66
     1
 40
0.000000
 41
0.000000
  0
VERTEX
  8
0
  6
CONTINUOUS
 10
4.880040
 20
2.847680
  0
VERTEX
  8
0
  6
CONTINUOUS
 10
4.877400
 20
3.592600
  0
VERTEX
  8
0
  6
CONTINUOUS
 10
4.895440
 20
3.560920
  0
VERTEX
  8
0
  6
CONTINUOUS
 10
4.898080
 20
2.816440
  0
VERTEX
  8
0
  6
CONTINUOUS
 10
4.880040
 20
2.847680
  0
SEQEND
  8
0
  0
SOLID
  8
0
 62
    15
 10
4.898080
 20
2.816440
 11
4.895440
 21
3.560920
 12
4.911720
 22
2.779040
 13
4.909080
 23
3.523520
  0
POLYLINE
  8
0
  6
CONTINUOUS
 66
     1
 40
0.000000
 41
0.000000
  0
VERTEX
  8
0
  6
CONTINUOUS
 10
4.898080
 20
2.816440
  0
VERTEX
  8
0
  6
CONTINUOUS
 10
4.895440
 20
3.560920
  0
VERTEX
  8
0
  6
CONTINUOUS
 10
4.909080
 20
3.523520
  0
VERTEX
  8
0
  6
CONTINUOUS
 10
4.911720
 20
2.779040
  0
VERTEX
  8
0
  6
CONTINUOUS
 10
4.898080
 20
2.816440
  0
SEQEND
  8
0
  0
SOLID
  8
0
 62
    15
 10
4.911720
 20
2.779040
 11
4.909080
 21
3.523520
 12
4.920520
 22
2.735920
 13
4.917880
 23
3.480400
  0
POLYLINE
  8
0
  6
CONTINUOUS
 66
     1
 40
0.000000
 41
0.000000
  0
VERTEX
  8
0
  6
CONTINUOUS
 10
4.911720
 20
2.779040
  0
VERTEX
  8
0
  6
CONTINUOUS
 10
4.909080
 20
3.523520
  0
VERTEX
  8
0
  6
CONTINUOUS
 10
4.917880
 20
3.480400
  0
VERTEX
  8
0
  6
CONTINUOUS
 10
4.920520
 20
2.735920
  0
VERTEX
  8
0
  6
CONTINUOUS
 10
4.911720
 20
2.779040
  0
SEQEND
  8
0
  0
SOLID
  8
0
 62
    15
 10
4.920520
 20
2.735920
 11
4.917880
 21
3.480400
 12
4.923600
 22
2.686640
 13
4.920960
 23
3.431560
  0
POLYLINE
  8
0
  6
CONTINUOUS
 66
     1
 40
0.000000
 41
0.000000
  0
VERTEX
  8
0
  6
CONTINUOUS
 10
4.920520
 20
2.735920
  0
VERTEX
  8
0
  6
CONTINUOUS
 10
4.917880
 20
3.480400
  0
VERTEX
  8
0
  6
CONTINUOUS
 10
4.920960
 20
3.431560
  0
VERTEX
  8
0
  6
CONTINUOUS
 10
4.923600
 20
2.686640
  0
VERTEX
  8
0
  6
CONTINUOUS
 10
4.920520
 20
2.735920
  0
SEQEND
  8
0
  0
SOLID
  8
0
 62
    15
 10
4.923600
 20
2.686640
 11
4.920960
 21
3.431560
 12
4.947800
 22
2.686640
 13
4.945160
 23
3.431560
  0
POLYLINE
  8
0
  6
CONTINUOUS
 66
     1
 40
0.000000
 41
0.000000
  0
VERTEX
  8
0
  6
CONTINUOUS
 10
4.923600
 20
2.686640
  0
VERTEX
  8
0
  6
CONTINUOUS
 10
4.920960
 20
3.431560
  0
VERTEX
  8
0
  6
CONTINUOUS
 10
4.945160
 20
3.431560
  0
VERTEX
  8
0
  6
CONTINUOUS
 10
4.947800
 20
2.686640
  0
VERTEX
  8
0
  6
CONTINUOUS
 10
4.923600
 20
2.686640
  0
SEQEND
  8
0
  0
SOLID
  8
0
 62
    15
 10
4.947800
 20
2.686640
 11
4.945160
 21
3.431560
 12
4.958800
 22
2.708200
 13
4.956160
 23
3.453120
  0
POLYLINE
  8
0
  6
CONTINUOUS
 66
     1
 40
0.000000
 41
0.000000
  0
VERTEX
  8
0
  6
CONTINUOUS
 10
4.947800
 20
2.686640
  0
VERTEX
  8
0
  6
CONTINUOUS
 10
4.945160
 20
3.431560
  0
VERTEX
  8
0
  6
CONTINUOUS
 10
4.956160
 20
3.453120
  0
VERTEX
  8
0
  6
CONTINUOUS
 10
4.958800
 20
2.708200
  0
VERTEX
  8
0
  6
CONTINUOUS
 10
4.947800
 20
2.686640
  0
SEQEND
  8
0
  0
SOLID
  8
0
 62
    15
 10
4.024680
 20
2.929960
 11
4.022040
 21
3.674440
 12
4.564560
 22
2.929960
 13
4.561920
 23
3.674440
  0
POLYLINE
  8
0
  6
CONTINUOUS
 66
     1
 40
0.000000
 41
0.000000
  0
VERTEX
  8
0
  6
CONTINUOUS
 10
4.024680
 20
2.929960
  0
VERTEX
  8
0
  6
CONTINUOUS
 10
4.022040
 20
3.674440
  0
VERTEX
  8
0
  6
CONTINUOUS
 10
4.561920
 20
3.674440
  0
VERTEX
  8
0
  6
CONTINUOUS
 10
4.564560
 20
2.929960
  0
VERTEX
  8
0
  6
CONTINUOUS
 10
4.024680
 20
2.929960
  0
SEQEND
  8
0
  0
SOLID
  8
0
 62
    15
 10
4.971560
 20
2.725360
 11
4.968920
 21
3.470280
 12
4.985200
 22
2.738560
 13
4.982560
 23
3.483040
  0
POLYLINE
  8
0
  6
CONTINUOUS
 66
     1
 40
0.000000
 41
0.000000
  0
VERTEX
  8
0
  6
CONTINUOUS
 10
4.971560
 20
2.725360
  0
VERTEX
  8
0
  6
CONTINUOUS
 10
4.968920
 20
3.470280
  0
VERTEX
  8
0
  6
CONTINUOUS
 10
4.982560
 20
3.483040
  0
VERTEX
  8
0
  6
CONTINUOUS
 10
4.985200
 20
2.738560
  0
VERTEX
  8
0
  6
CONTINUOUS
 10
4.971560
 20
2.725360
  0
SEQEND
  8
0
  0
SOLID
  8
0
 62
    15
 10
4.985200
 20
2.738560
 11
4.982560
 21
3.483040
 12
4.999720
 22
2.747360
 13
4.997080
 23
3.491840
  0
POLYLINE
  8
0
  6
CONTINUOUS
 66
     1
 40
0.000000
 41
0.000000
  0
VERTEX
  8
0
  6
CONTINUOUS
 10
4.985200
 20
2.738560
  0
VERTEX
  8
0
  6
CONTINUOUS
 10
4.982560
 20
3.483040
  0
VERTEX
  8
0
  6
CONTINUOUS
 10
4.997080
 20
3.491840
  0
VERTEX
  8
0
  6
CONTINUOUS
 10
4.999720
 20
2.747360
  0
VERTEX
  8
0
  6
CONTINUOUS
 10
4.985200
 20
2.738560
  0
SEQEND
  8
0
  0
SOLID
  8
0
 62
    15
 10
4.999720
 20
2.747360
 11
4.997080
 21
3.491840
 12
5.029200
 22
2.754400
 13
5.026560
 23
3.499320
  0
POLYLINE
  8
0
  6
CONTINUOUS
 66
     1
 40
0.000000
 41
0.000000
  0
VERTEX
  8
0
  6
CONTINUOUS
 10
4.999720
 20
2.747360
  0
VERTEX
  8
0
  6
CONTINUOUS
 10
4.997080
 20
3.491840
  0
VERTEX
  8
0
  6
CONTINUOUS
 10
5.026560
 20
3.499320
  0
VERTEX
  8
0
  6
CONTINUOUS
 10
5.029200
 20
2.754400
  0
VERTEX
  8
0
  6
CONTINUOUS
 10
4.999720
 20
2.747360
  0
SEQEND
  8
0
  0
SOLID
  8
0
 62
    15
 10
5.029200
 20
2.754400
 11
5.026560
 21
3.499320
 12
5.058680
 22
2.749120
 13
5.056040
 23
3.494040
  0
POLYLINE
  8
0
  6
CONTINUOUS
 66
     1
 40
0.000000
 41
0.000000
  0
VERTEX
  8
0
  6
CONTINUOUS
 10
5.029200
 20
2.754400
  0
VERTEX
  8
0
  6
CONTINUOUS
 10
5.026560
 20
3.499320
  0
VERTEX
  8
0
  6
CONTINUOUS
 10
5.056040
 20
3.494040
  0
VERTEX
  8
0
  6
CONTINUOUS
 10
5.058680
 20
2.749120
  0
VERTEX
  8
0
  6
CONTINUOUS
 10
5.029200
 20
2.754400
  0
SEQEND
  8
0
  0
SOLID
  8
0
 62
    15
 10
5.058680
 20
2.749120
 11
5.056040
 21
3.494040
 12
5.085520
 22
2.733720
 13
5.082880
 23
3.478200
  0
POLYLINE
  8
0
  6
CONTINUOUS
 66
     1
 40
0.000000
 41
0.000000
  0
VERTEX
  8
0
  6
CONTINUOUS
 10
5.058680
 20
2.749120
  0
VERTEX
  8
0
  6
CONTINUOUS
 10
5.056040
 20
3.494040
  0
VERTEX
  8
0
  6
CONTINUOUS
 10
5.082880
 20
3.478200
  0
VERTEX
  8
0
  6
CONTINUOUS
 10
5.085520
 20
2.733720
  0
VERTEX
  8
0
  6
CONTINUOUS
 10
5.058680
 20
2.749120
  0
SEQEND
  8
0
  0
SOLID
  8
0
 62
    15
 10
5.085520
 20
2.733720
 11
5.082880
 21
3.478200
 12
5.107080
 22
2.709960
 13
5.104440
 23
3.454440
  0
POLYLINE
  8
0
  6
CONTINUOUS
 66
     1
 40
0.000000
 41
0.000000
  0
VERTEX
  8
0
  6
CONTINUOUS
 10
5.085520
 20
2.733720
  0
VERTEX
  8
0
  6
CONTINUOUS
 10
5.082880
 20
3.478200
  0
VERTEX
  8
0
  6
CONTINUOUS
 10
5.104440
 20
3.454440
  0
VERTEX
  8
0
  6
CONTINUOUS
 10
5.107080
 20
2.709960
  0
VERTEX
  8
0
  6
CONTINUOUS
 10
5.085520
 20
2.733720
  0
SEQEND
  8
0
  0
SOLID
  8
0
 62
    15
 10
5.107080
 20
2.709960
 11
5.104440
 21
3.454440
 12
5.122040
 22
2.680040
 13
5.119400
 23
3.424960
  0
POLYLINE
  8
0
  6
CONTINUOUS
 66
     1
 40
0.000000
 41
0.000000
  0
VERTEX
  8
0
  6
CONTINUOUS
 10
5.107080
 20
2.709960
  0
VERTEX
  8
0
  6
CONTINUOUS
 10
5.104440
 20
3.454440
  0
VERTEX
  8
0
  6
CONTINUOUS
 10
5.119400
 20
3.424960
  0
VERTEX
  8
0
  6
CONTINUOUS
 10
5.122040
 20
2.680040
  0
VERTEX
  8
0
  6
CONTINUOUS
 10
5.107080
 20
2.709960
  0
SEQEND
  8
0
  0
SOLID
  8
0
 62
    15
 10
5.122040
 20
2.680040
 11
5.119400
 21
3.424960
 12
5.127320
 22
2.646600
 13
5.124680
 23
3.391520
  0
POLYLINE
  8
0
  6
CONTINUOUS
 66
     1
 40
0.000000
 41
0.000000
  0
VERTEX
  8
0
  6
CONTINUOUS
 10
5.122040
 20
2.680040
  0
VERTEX
  8
0
  6
CONTINUOUS
 10
5.119400
 20
3.424960
  0
VERTEX
  8
0
  6
CONTINUOUS
 10
5.124680
 20
3.391520
  0
VERTEX
  8
0
  6
CONTINUOUS
 10
5.127320
 20
2.646600
  0
VERTEX
  8
0
  6
CONTINUOUS
 10
5.122040
 20
2.680040
  0
SEQEND
  8
0
  0
SOLID
  8
0
 62
    15
 10
5.127320
 20
2.646600
 11
5.124680
 21
3.391520
 12
5.321800
 22
2.646600
 13
5.319160
 23
3.391520
  0
POLYLINE
  8
0
  6
CONTINUOUS
 66
     1
 40
0.000000
 41
0.000000
  0
VERTEX
  8
0
  6
CONTINUOUS
 10
5.127320
 20
2.646600
  0
VERTEX
  8
0
  6
CONTINUOUS
 10
5.124680
 20
3.391520
  0
VERTEX
  8
0
  6
CONTINUOUS
 10
5.319160
 20
3.391520
  0
VERTEX
  8
0
  6
CONTINUOUS
 10
5.321800
 20
2.646600
  0
VERTEX
  8
0
  6
CONTINUOUS
 10
5.127320
 20
2.646600
  0
SEQEND
  8
0
  0
SOLID
  8
0
 62
    15
 10
5.321800
 20
2.646600
 11
5.319160
 21
3.391520
 12
5.340280
 22
2.518560
 13
5.337640
 23
3.263480
  0
POLYLINE
  8
0
  6
CONTINUOUS
 66
     1
 40
0.000000
 41
0.000000
  0
VERTEX
  8
0
  6
CONTINUOUS
 10
5.321800
 20
2.646600
  0
VERTEX
  8
0
  6
CONTINUOUS
 10
5.319160
 20
3.391520
  0
VERTEX
  8
0
  6
CONTINUOUS
 10
5.337640
 20
3.263480
  0
VERTEX
  8
0
  6
CONTINUOUS
 10
5.340280
 20
2.518560
  0
VERTEX
  8
0
  6
CONTINUOUS
 10
5.321800
 20
2.646600
  0
SEQEND
  8
0
  0
SOLID
  8
0
 62
    15
 10
7.246360
 20
2.518560
 11
7.243720
 21
3.263480
 12
7.249000
 22
2.456960
 13
7.246360
 23
3.201880
  0
POLYLINE
  8
0
  6
CONTINUOUS
 66
     1
 40
0.000000
 41
0.000000
  0
VERTEX
  8
0
  6
CONTINUOUS
 10
7.246360
 20
2.518560
  0
VERTEX
  8
0
  6
CONTINUOUS
 10
7.243720
 20
3.263480
  0
VERTEX
  8
0
  6
CONTINUOUS
 10
7.246360
 20
3.201880
  0
VERTEX
  8
0
  6
CONTINUOUS
 10
7.249000
 20
2.456960
  0
VERTEX
  8
0
  6
CONTINUOUS
 10
7.246360
 20
2.518560
  0
SEQEND
  8
0
  0
SOLID
  8
0
 62
    15
 10
5.340280
 20
2.518560
 11
5.337640
 21
3.263480
 12
7.246360
 22
2.518560
 13
7.243720
 23
3.263480
  0
POLYLINE
  8
0
  6
CONTINUOUS
 66
     1
 40
0.000000
 41
0.000000
  0
VERTEX
  8
0
  6
CONTINUOUS
 10
5.340280
 20
2.518560
  0
VERTEX
  8
0
  6
CONTINUOUS
 10
5.337640
 20
3.263480
  0
VERTEX
  8
0
  6
CONTINUOUS
 10
7.243720
 20
3.263480
  0
VERTEX
  8
0
  6
CONTINUOUS
 10
7.246360
 20
2.518560
  0
VERTEX
  8
0
  6
CONTINUOUS
 10
5.340280
 20
2.518560
  0
SEQEND
  8
0
  0
SOLID
  8
0
 62
    15
 10
7.254280
 20
2.405920
 11
7.251640
 21
3.150840
 12
7.263960
 22
2.364560
 13
7.261320
 23
3.109040
  0
POLYLINE
  8
0
  6
CONTINUOUS
 66
     1
 40
0.000000
 41
0.000000
  0
VERTEX
  8
0
  6
CONTINUOUS
 10
7.254280
 20
2.405920
  0
VERTEX
  8
0
  6
CONTINUOUS
 10
7.251640
 20
3.150840
  0
VERTEX
  8
0
  6
CONTINUOUS
 10
7.261320
 20
3.109040
  0
VERTEX
  8
0
  6
CONTINUOUS
 10
7.263960
 20
2.364560
  0
VERTEX
  8
0
  6
CONTINUOUS
 10
7.254280
 20
2.405920
  0
SEQEND
  8
0
  0
SOLID
  8
0
 62
    15
 10
7.249000
 20
2.456960
 11
7.246360
 21
3.201880
 12
7.254280
 22
2.405920
 13
7.251640
 23
3.150840
  0
POLYLINE
  8
0
  6
CONTINUOUS
 66
     1
 40
0.000000
 41
0.000000
  0
VERTEX
  8
0
  6
CONTINUOUS
 10
7.249000
 20
2.456960
  0
VERTEX
  8
0
  6
CONTINUOUS
 10
7.246360
 20
3.201880
  0
VERTEX
  8
0
  6
CONTINUOUS
 10
7.251640
 20
3.150840
  0
VERTEX
  8
0
  6
CONTINUOUS
 10
7.254280
 20
2.405920
  0
VERTEX
  8
0
  6
CONTINUOUS
 10
7.249000
 20
2.456960
  0
SEQEND
  8
0
  0
SOLID
  8
0
 62
    15
 10
7.263960
 20
2.364560
 11
7.261320
 21
3.109040
 12
7.280680
 22
2.331560
 13
7.278040
 23
3.076480
  0
POLYLINE
  8
0
  6
CONTINUOUS
 66
     1
 40
0.000000
 41
0.000000
  0
VERTEX
  8
0
  6
CONTINUOUS
 10
7.263960
 20
2.364560
  0
VERTEX
  8
0
  6
CONTINUOUS
 10
7.261320
 20
3.109040
  0
VERTEX
  8
0
  6
CONTINUOUS
 10
7.278040
 20
3.076480
  0
VERTEX
  8
0
  6
CONTINUOUS
 10
7.280680
 20
2.331560
  0
VERTEX
  8
0
  6
CONTINUOUS
 10
7.263960
 20
2.364560
  0
SEQEND
  8
0
  0
SOLID
  8
0
 62
    15
 10
7.280680
 20
2.331560
 11
7.278040
 21
3.076480
 12
7.305760
 22
2.306920
 13
7.303120
 23
3.051400
  0
POLYLINE
  8
0
  6
CONTINUOUS
 66
     1
 40
0.000000
 41
0.000000
  0
VERTEX
  8
0
  6
CONTINUOUS
 10
7.280680
 20
2.331560
  0
VERTEX
  8
0
  6
CONTINUOUS
 10
7.278040
 20
3.076480
  0
VERTEX
  8
0
  6
CONTINUOUS
 10
7.303120
 20
3.051400
  0
VERTEX
  8
0
  6
CONTINUOUS
 10
7.305760
 20
2.306920
  0
VERTEX
  8
0
  6
CONTINUOUS
 10
7.280680
 20
2.331560
  0
SEQEND
  8
0
  0
SOLID
  8
0
 62
    15
 10
7.305760
 20
2.306920
 11
7.303120
 21
3.051400
 12
7.341840
 22
2.288880
 13
7.339200
 23
3.033800
  0
POLYLINE
  8
0
  6
CONTINUOUS
 66
     1
 40
0.000000
 41
0.000000
  0
VERTEX
  8
0
  6
CONTINUOUS
 10
7.305760
 20
2.306920
  0
VERTEX
  8
0
  6
CONTINUOUS
 10
7.303120
 20
3.051400
  0
VERTEX
  8
0
  6
CONTINUOUS
 10
7.339200
 20
3.033800
  0
VERTEX
  8
0
  6
CONTINUOUS
 10
7.341840
 20
2.288880
  0
VERTEX
  8
0
  6
CONTINUOUS
 10
7.305760
 20
2.306920
  0
SEQEND
  8
0
  0
SOLID
  8
0
 62
    15
 10
7.341840
 20
2.288880
 11
7.339200
 21
3.033800
 12
7.364720
 22
2.282280
 13
7.362080
 23
3.027200
  0
POLYLINE
  8
0
  6
CONTINUOUS
 66
     1
 40
0.000000
 41
0.000000
  0
VERTEX
  8
0
  6
CONTINUOUS
 10
7.341840
 20
2.288880
  0
VERTEX
  8
0
  6
CONTINUOUS
 10
7.339200
 20
3.033800
  0
VERTEX
  8
0
  6
CONTINUOUS
 10
7.362080
 20
3.027200
  0
VERTEX
  8
0
  6
CONTINUOUS
 10
7.364720
 20
2.282280
  0
VERTEX
  8
0
  6
CONTINUOUS
 10
7.341840
 20
2.288880
  0
SEQEND
  8
0
  0
SOLID
  8
0
 62
    15
 10
7.364720
 20
2.282280
 11
7.362080
 21
3.027200
 12
7.391120
 22
2.277440
 13
7.388480
 23
3.021920
  0
POLYLINE
  8
0
  6
CONTINUOUS
 66
     1
 40
0.000000
 41
0.000000
  0
VERTEX
  8
0
  6
CONTINUOUS
 10
7.364720
 20
2.282280
  0
VERTEX
  8
0
  6
CONTINUOUS
 10
7.362080
 20
3.027200
  0
VERTEX
  8
0
  6
CONTINUOUS
 10
7.388480
 20
3.021920
  0
VERTEX
  8
0
  6
CONTINUOUS
 10
7.391120
 20
2.277440
  0
VERTEX
  8
0
  6
CONTINUOUS
 10
7.364720
 20
2.282280
  0
SEQEND
  8
0
  0
SOLID
  8
0
 62
    15
 10
7.391120
 20
2.277440
 11
7.388480
 21
3.021920
 12
7.421040
 22
2.273480
 13
7.418400
 23
3.018400
  0
POLYLINE
  8
0
  6
CONTINUOUS
 66
     1
 40
0.000000
 41
0.000000
  0
VERTEX
  8
0
  6
CONTINUOUS
 10
7.391120
 20
2.277440
  0
VERTEX
  8
0
  6
CONTINUOUS
 10
7.388480
 20
3.021920
  0
VERTEX
  8
0
  6
CONTINUOUS
 10
7.418400
 20
3.018400
  0
VERTEX
  8
0
  6
CONTINUOUS
 10
7.421040
 20
2.273480
  0
VERTEX
  8
0
  6
CONTINUOUS
 10
7.391120
 20
2.277440
  0
SEQEND
  8
0
  0
SOLID
  8
0
 62
    15
 10
7.421040
 20
2.273480
 11
7.418400
 21
3.018400
 12
7.455360
 22
2.270840
 13
7.452720
 23
3.015760
  0
POLYLINE
  8
0
  6
CONTINUOUS
 66
     1
 40
0.000000
 41
0.000000
  0
VERTEX
  8
0
  6
CONTINUOUS
 10
7.421040
 20
2.273480
  0
VERTEX
  8
0
  6
CONTINUOUS
 10
7.418400
 20
3.018400
  0
VERTEX
  8
0
  6
CONTINUOUS
 10
7.452720
 20
3.015760
  0
VERTEX
  8
0
  6
CONTINUOUS
 10
7.455360
 20
2.270840
  0
VERTEX
  8
0
  6
CONTINUOUS
 10
7.421040
 20
2.273480
  0
SEQEND
  8
0
  0
POLYLINE
  8
0
  6
CONTINUOUS
 66
     1
 40
0.000000
 41
0.000000
  0
VERTEX
  8
0
  6
CONTINUOUS
 10
4.024680
 20
2.108920
  0
VERTEX
  8
0
  6
CONTINUOUS
 10
4.024680
 20
2.929960
  0
VERTEX
  8
0
  6
CONTINUOUS
 10
4.564560
 20
2.929960
  0
VERTEX
  8
0
  6
CONTINUOUS
 10
4.571600
 20
2.814240
  0
VERTEX
  8
0
  6
CONTINUOUS
 10
4.603280
 20
2.814240
  0
VERTEX
  8
0
  6
CONTINUOUS
 10
4.614280
 20
2.843720
  0
VERTEX
  8
0
  6
CONTINUOUS
 10
4.630120
 20
2.868800
  0
VERTEX
  8
0
  6
CONTINUOUS
 10
4.649920
 20
2.889480
  0
VERTEX
  8
0
  6
CONTINUOUS
 10
4.672360
 20
2.905320
  0
VERTEX
  8
0
  6
CONTINUOUS
 10
4.697880
 20
2.915880
  0
VERTEX
  8
0
  6
CONTINUOUS
 10
4.724720
 20
2.922040
  0
VERTEX
  8
0
  6
CONTINUOUS
 10
4.752440
 20
2.922920
  0
VERTEX
  8
0
  6
CONTINUOUS
 10
4.780600
 20
2.918520
  0
VERTEX
  8
0
  6
CONTINUOUS
 10
4.807880
 20
2.908840
  0
VERTEX
  8
0
  6
CONTINUOUS
 10
4.834280
 20
2.893880
  0
VERTEX
  8
0
  6
CONTINUOUS
 10
4.858480
 20
2.873640
  0
VERTEX
  8
0
  6
CONTINUOUS
 10
4.880040
 20
2.847680
  0
VERTEX
  8
0
  6
CONTINUOUS
 10
4.898080
 20
2.816440
  0
VERTEX
  8
0
  6
CONTINUOUS
 10
4.911720
 20
2.779040
  0
VERTEX
  8
0
  6
CONTINUOUS
 10
4.920520
 20
2.735920
  0
VERTEX
  8
0
  6
CONTINUOUS
 10
4.923600
 20
2.686640
  0
VERTEX
  8
0
  6
CONTINUOUS
 10
4.947800
 20
2.686640
  0
VERTEX
  8
0
  6
CONTINUOUS
 10
4.958800
 20
2.708200
  0
VERTEX
  8
0
  6
CONTINUOUS
 10
4.971560
 20
2.725360
  0
VERTEX
  8
0
  6
CONTINUOUS
 10
4.985200
 20
2.738560
  0
VERTEX
  8
0
  6
CONTINUOUS
 10
4.999720
 20
2.747360
  0
VERTEX
  8
0
  6
CONTINUOUS
 10
5.029200
 20
2.754400
  0
VERTEX
  8
0
  6
CONTINUOUS
 10
5.058680
 20
2.749120
  0
VERTEX
  8
0
  6
CONTINUOUS
 10
5.085520
 20
2.733720
  0
VERTEX
  8
0
  6
CONTINUOUS
 10
5.107080
 20
2.709960
  0
VERTEX
  8
0
  6
CONTINUOUS
 10
5.122040
 20
2.680040
  0
VERTEX
  8
0
  6
CONTINUOUS
 10
5.127320
 20
2.646600
  0
VERTEX
  8
0
  6
CONTINUOUS
 10
5.321800
 20
2.646600
  0
VERTEX
  8
0
  6
CONTINUOUS
 10
5.340280
 20
2.518560
  0
VERTEX
  8
0
  6
CONTINUOUS
 10
7.246360
 20
2.518560
  0
VERTEX
  8
0
  6
CONTINUOUS
 10
7.249000
 20
2.456960
  0
VERTEX
  8
0
  6
CONTINUOUS
 10
7.254280
 20
2.405920
  0
VERTEX
  8
0
  6
CONTINUOUS
 10
7.263960
 20
2.364560
  0
VERTEX
  8
0
  6
CONTINUOUS
 10
7.280680
 20
2.331560
  0
VERTEX
  8
0
  6
CONTINUOUS
 10
7.305760
 20
2.306920
  0
VERTEX
  8
0
  6
CONTINUOUS
 10
7.341840
 20
2.288880
  0
VERTEX
  8
0
  6
CONTINUOUS
 10
7.364720
 20
2.282280
  0
VERTEX
  8
0
  6
CONTINUOUS
 10
7.391120
 20
2.277440
  0
VERTEX
  8
0
  6
CONTINUOUS
 10
7.421040
 20
2.273480
  0
VERTEX
  8
0
  6
CONTINUOUS
 10
7.455360
 20
2.270840
  0
VERTEX
  8
0
  6
CONTINUOUS
 10
7.455360
 20
2.109360
  0
VERTEX
  8
0
  6
CONTINUOUS
 10
4.024680
 20
2.109360
  0
VERTEX
  8
0
  6
CONTINUOUS
 10
4.024680
 20
2.108920
  0
SEQEND
  8
0
  0
TEXT
  8
0
 10
5.396600
 20
1.880120
 40
0.138189
  1
BA  1206
 41
1.000000
  7
SN0
 71
     0
 72
     5
 11
6.080153
 21
1.880120
  0
TEXT
  8
0
 10
5.102680
 20
1.688720
 40
0.138189
  1
13/16" x 3 - 7/16"
 41
1.000000
  7
SN0
 71
     0
 72
     5
 11
6.374061
 21
1.688720
  0
TEXT
  8
0
 10
4.527600
 20
5.527280
 40
0.138189
  1
BA  1206
 41
1.000000
  7
SN0
 71
     0
 72
     5
 11
5.211153
 21
5.527280
  0
TEXT
  8
0
 10
4.279440
 20
5.335880
 40
0.138189
  1
13/16" x 3-7/16"
 41
1.000000
  7
SN0
 71
     0
 72
     5
 11
5.458745
 21
5.335880
  0
ENDSEC
  0
EOF
