  0
SECTION
  2
HEADER
  9
$ACADVER
  1
AC1006
  9
$EXTMIN
 10
2.398440
 20
0.706640
  9
$EXTMAX
 10
7.388480
 20
7.447440
  9
$LTSCALE
 40
0.044000
  9
$PDMODE
 70
    35
  9
$PDSIZE
 40
0.035200
  0
ENDSEC
  0
SECTION
  2
TABLES
  0
TABLE
  2
LTYPE
 70
     9
  0
LTYPE
  2
CONTINUOUS
 70
    64
  3
Solid line
 72
    65
 73
     0
 40
0.000000
  0
LTYPE
  2
DASHED
 70
    64
  3
__ __ __ __ __ __ __ __ __ __ __ __ __ __ __
 72
    65
 73
     2
 40
0.000330
 49
0.000220
 49
-0.000110
  0
LTYPE
  2
HIDDEN
 70
    64
  3
 _ _ _ _ _ _ _ _ _ _ _ _ _ _ _ _ _ _ _ _ _ _
 72
    65
 73
     2
 40
0.000165
 49
0.000110
 49
-0.000055
  0
LTYPE
  2
CENTER
 70
    64
  3
____ _ ____ _ ____ _ ____ _ ____ _ ____ _ ____
 72
    65
 73
     4
 40
0.000880
 49
0.000550
 49
-0.000110
 49
0.000110
 49
-0.000110
  0
LTYPE
  2
PHANTOM
 70
    64
  3
_____ _ _ _____ _ _ _____ _ _ _____ _ _ ____
 72
    65
 73
     6
 40
0.001100
 49
0.000550
 49
-0.000110
 49
0.000110
 49
-0.000110
 49
0.000110
 49
-0.000110
  0
LTYPE
  2
DOT
 70
    64
  3
...............................................
 72
    65
 73
     2
 40
0.000110
 49
0.000000
 49
-0.000110
  0
LTYPE
  2
DASHDOT
 70
    64
  3
__ . __ . __ . __ . __ . __ . __ . __ . __ . __
 72
    65
 73
     4
 40
0.000440
 49
0.000220
 49
-0.000110
 49
0.000000
 49
-0.000110
  0
LTYPE
  2
BORDER
 70
    64
  3
__ __ . __ __ . __ __ . __ __ . __ __ . __ __
 72
    65
 73
     6
 40
0.000770
 49
0.000220
 49
-0.000110
 49
0.000220
 49
-0.000110
 49
0.000000
 49
-0.000110
  0
LTYPE
  2
DIVIDE
 70
    64
  3
__ . . __ . . __ . . __ . . __ . . __ . . __
 72
    65
 73
     6
 40
0.000550
 49
0.000220
 49
-0.000110
 49
0.000000
 49
-0.000110
 49
0.000000
 49
-0.000110
  0
LTYPE
  2
DOTDOT
 70
    64
  3
 . .  . .  . .  . .  . .  . . 
 72
    65
 73
     5
 40
0.000242
 49
-0.000110
 49
0.000000
 49
-0.000110
 49
0.000000
 49
-0.000110
  0
ENDTAB
  0
TABLE
  2
STYLE
 70
     2
  0
STYLE
 70
     0
  2
SN0
 40
0.000000
 41
0.000440
 50
0.000000
 71
     0
 42
0.000000
  3
ROMAND
  0
STYLE
 70
    68
  2
SV0
 40
0.000000
 41
0.000440
 50
0.000000
 71
     0
 42
0.000000
  3
ROMAND
  0
ENDTAB
  0
TABLE
  2
LAYER
 70
     3
  0
LAYER
  2
FOREGROUND
 70
    64
 62
     7
  6
CONTINUOUS
  0
LAYER
  2
BACKGROUND
 70
    65
 62
    -7
  6
CONTINUOUS
  0
LAYER
  2
0
 70
    64
 62
     7
  6
CONTINUOUS
  0
ENDTAB
  0
ENDSEC
  0
SECTION
  2
ENTITIES
  0
POLYLINE
  8
FOREGROUND
  6
CONTINUOUS
 66
     1
 40
0.000000
 41
0.000000
  0
VERTEX
  8
FOREGROUND
  6
CONTINUOUS
 10
0.000000
 20
8.154080
  0
VERTEX
  8
FOREGROUND
  6
CONTINUOUS
 10
8.499920
 20
8.154080
  0
VERTEX
  8
FOREGROUND
  6
CONTINUOUS
 10
8.499920
 20
-2.845920
  0
VERTEX
  8
FOREGROUND
  6
CONTINUOUS
 10
0.000000
 20
-2.845920
  0
VERTEX
  8
FOREGROUND
  6
CONTINUOUS
 10
0.000000
 20
8.154080
  0
SEQEND
  8
0
  0
POLYLINE
  8
FOREGROUND
  6
CONTINUOUS
 66
     1
 40
0.000000
 41
0.000000
  0
VERTEX
  8
FOREGROUND
  6
CONTINUOUS
 10
0.000000
 20
8.154080
  0
VERTEX
  8
FOREGROUND
  6
CONTINUOUS
 10
8.499920
 20
8.154080
  0
VERTEX
  8
FOREGROUND
  6
CONTINUOUS
 10
8.499920
 20
-2.845920
  0
VERTEX
  8
FOREGROUND
  6
CONTINUOUS
 10
0.000000
 20
-2.845920
  0
VERTEX
  8
FOREGROUND
  6
CONTINUOUS
 10
0.000000
 20
8.154080
  0
SEQEND
  8
0
  0
POLYLINE
  8
0
  6
CONTINUOUS
 66
     1
 40
0.014080
 41
0.014080
  0
VERTEX
  8
0
  6
CONTINUOUS
 10
2.421320
 20
7.439520
  0
VERTEX
  8
0
  6
CONTINUOUS
 10
2.977920
 20
7.439520
  0
VERTEX
  8
0
  6
CONTINUOUS
 10
2.977920
 20
7.346240
  0
VERTEX
  8
0
  6
CONTINUOUS
 10
3.257320
 20
7.346240
  0
VERTEX
  8
0
  6
CONTINUOUS
 10
3.264360
 20
7.298720
  0
VERTEX
  8
0
  6
CONTINUOUS
 10
3.275800
 20
7.255600
  0
VERTEX
  8
0
  6
CONTINUOUS
 10
3.290320
 20
7.217320
  0
VERTEX
  8
0
  6
CONTINUOUS
 10
3.308800
 20
7.182560
  0
VERTEX
  8
0
  6
CONTINUOUS
 10
3.330360
 20
7.151760
  0
VERTEX
  8
0
  6
CONTINUOUS
 10
3.355440
 20
7.124480
  0
VERTEX
  8
0
  6
CONTINUOUS
 10
3.383600
 20
7.101160
  0
VERTEX
  8
0
  6
CONTINUOUS
 10
3.415280
 20
7.080920
  0
VERTEX
  8
0
  6
CONTINUOUS
 10
3.449160
 20
7.063760
  0
VERTEX
  8
0
  6
CONTINUOUS
 10
3.486120
 20
7.049680
  0
VERTEX
  8
0
  6
CONTINUOUS
 10
3.525720
 20
7.037800
  0
VERTEX
  8
0
  6
CONTINUOUS
 10
3.589960
 20
7.025480
  0
VERTEX
  8
0
  6
CONTINUOUS
 10
3.635720
 20
7.019760
  0
VERTEX
  8
0
  6
CONTINUOUS
 10
3.707880
 20
7.015360
  0
VERTEX
  8
0
  6
CONTINUOUS
 10
3.758920
 20
7.014480
  0
VERTEX
  8
0
  6
CONTINUOUS
 10
3.770360
 20
7.054520
  0
VERTEX
  8
0
  6
CONTINUOUS
 10
3.785320
 20
7.087520
  0
VERTEX
  8
0
  6
CONTINUOUS
 10
3.793680
 20
7.101600
  0
VERTEX
  8
0
  6
CONTINUOUS
 10
3.813480
 20
7.125800
  0
VERTEX
  8
0
  6
CONTINUOUS
 10
3.835040
 20
7.143840
  0
VERTEX
  8
0
  6
CONTINUOUS
 10
3.858360
 20
7.156160
  0
VERTEX
  8
0
  6
CONTINUOUS
 10
3.882560
 20
7.163200
  0
VERTEX
  8
0
  6
CONTINUOUS
 10
3.907200
 20
7.164960
  0
VERTEX
  8
0
  6
CONTINUOUS
 10
3.931840
 20
7.162320
  0
VERTEX
  8
0
  6
CONTINUOUS
 10
3.955160
 20
7.154840
  0
VERTEX
  8
0
  6
CONTINUOUS
 10
3.977160
 20
7.143400
  0
VERTEX
  8
0
  6
CONTINUOUS
 10
4.006200
 20
7.118760
  0
VERTEX
  8
0
  6
CONTINUOUS
 10
4.021600
 20
7.097640
  0
VERTEX
  8
0
  6
CONTINUOUS
 10
4.033480
 20
7.073440
  0
VERTEX
  8
0
  6
CONTINUOUS
 10
4.040960
 20
7.046160
  0
VERTEX
  8
0
  6
CONTINUOUS
 10
4.043600
 20
7.016240
  0
VERTEX
  8
0
  6
CONTINUOUS
 10
4.167680
 20
7.016240
  0
VERTEX
  8
0
  6
CONTINUOUS
 10
4.167680
 20
6.891280
  0
VERTEX
  8
0
  6
CONTINUOUS
 10
5.901280
 20
6.891280
  0
VERTEX
  8
0
  6
CONTINUOUS
 10
5.911400
 20
6.750040
  0
VERTEX
  8
0
  6
CONTINUOUS
 10
5.942640
 20
6.750040
  0
VERTEX
  8
0
  6
CONTINUOUS
 10
5.952760
 20
6.788760
  0
VERTEX
  8
0
  6
CONTINUOUS
 10
5.965520
 20
6.820880
  0
VERTEX
  8
0
  6
CONTINUOUS
 10
5.980480
 20
6.846400
  0
VERTEX
  8
0
  6
CONTINUOUS
 10
5.997200
 20
6.865760
  0
VERTEX
  8
0
  6
CONTINUOUS
 10
6.015240
 20
6.879840
  0
VERTEX
  8
0
  6
CONTINUOUS
 10
6.034160
 20
6.888200
  0
VERTEX
  8
0
  6
CONTINUOUS
 10
6.043840
 20
6.890840
  0
VERTEX
  8
0
  6
CONTINUOUS
 10
6.062760
 20
6.892160
  0
VERTEX
  8
0
  6
CONTINUOUS
 10
6.081680
 20
6.889520
  0
VERTEX
  8
0
  6
CONTINUOUS
 10
6.099720
 20
6.882920
  0
VERTEX
  8
0
  6
CONTINUOUS
 10
6.116440
 20
6.872800
  0
VERTEX
  8
0
  6
CONTINUOUS
 10
6.137560
 20
6.852560
  0
VERTEX
  8
0
  6
CONTINUOUS
 10
6.149000
 20
6.835840
  0
VERTEX
  8
0
  6
CONTINUOUS
 10
6.160000
 20
6.807240
  0
VERTEX
  8
0
  6
CONTINUOUS
 10
6.162640
 20
6.786560
  0
VERTEX
  8
0
  6
CONTINUOUS
 10
6.162640
 20
6.776000
  0
VERTEX
  8
0
  6
CONTINUOUS
 10
7.299160
 20
6.776000
  0
VERTEX
  8
0
  6
CONTINUOUS
 10
7.299160
 20
6.376920
  0
VERTEX
  8
0
  6
CONTINUOUS
 10
2.420000
 20
6.376920
  0
VERTEX
  8
0
  6
CONTINUOUS
 10
2.420000
 20
7.439520
  0
VERTEX
  8
0
  6
CONTINUOUS
 10
2.421320
 20
7.439520
  0
SEQEND
  8
0
  0
POLYLINE
  8
0
  6
CONTINUOUS
 66
     1
 40
0.000000
 41
0.000000
  0
VERTEX
  8
0
  6
CONTINUOUS
 10
2.400200
 20
3.247640
  0
VERTEX
  8
0
  6
CONTINUOUS
 10
2.956800
 20
3.247640
  0
VERTEX
  8
0
  6
CONTINUOUS
 10
2.956800
 20
3.153920
  0
VERTEX
  8
0
  6
CONTINUOUS
 10
3.236200
 20
3.153920
  0
VERTEX
  8
0
  6
CONTINUOUS
 10
3.243240
 20
3.106400
  0
VERTEX
  8
0
  6
CONTINUOUS
 10
3.254680
 20
3.063720
  0
VERTEX
  8
0
  6
CONTINUOUS
 10
3.269200
 20
3.025000
  0
VERTEX
  8
0
  6
CONTINUOUS
 10
3.287680
 20
2.990240
  0
VERTEX
  8
0
  6
CONTINUOUS
 10
3.309240
 20
2.959440
  0
VERTEX
  8
0
  6
CONTINUOUS
 10
3.334320
 20
2.932600
  0
VERTEX
  8
0
  6
CONTINUOUS
 10
3.362480
 20
2.908840
  0
VERTEX
  8
0
  6
CONTINUOUS
 10
3.394160
 20
2.888600
  0
VERTEX
  8
0
  6
CONTINUOUS
 10
3.428040
 20
2.871440
  0
VERTEX
  8
0
  6
CONTINUOUS
 10
3.465000
 20
2.857360
  0
VERTEX
  8
0
  6
CONTINUOUS
 10
3.504600
 20
2.845920
  0
VERTEX
  8
0
  6
CONTINUOUS
 10
3.546840
 20
2.836680
  0
VERTEX
  8
0
  6
CONTINUOUS
 10
3.614600
 20
2.827440
  0
VERTEX
  8
0
  6
CONTINUOUS
 10
3.686760
 20
2.823040
  0
VERTEX
  8
0
  6
CONTINUOUS
 10
3.737800
 20
2.822160
  0
VERTEX
  8
0
  6
CONTINUOUS
 10
3.749240
 20
2.862200
  0
VERTEX
  8
0
  6
CONTINUOUS
 10
3.764200
 20
2.895200
  0
VERTEX
  8
0
  6
CONTINUOUS
 10
3.782240
 20
2.922480
  0
VERTEX
  8
0
  6
CONTINUOUS
 10
3.803360
 20
2.943160
  0
VERTEX
  8
0
  6
CONTINUOUS
 10
3.825800
 20
2.958560
  0
VERTEX
  8
0
  6
CONTINUOUS
 10
3.849560
 20
2.968240
  0
VERTEX
  8
0
  6
CONTINUOUS
 10
3.874200
 20
2.972640
  0
VERTEX
  8
0
  6
CONTINUOUS
 10
3.886520
 20
2.973080
  0
VERTEX
  8
0
  6
CONTINUOUS
 10
3.911160
 20
2.970000
  0
VERTEX
  8
0
  6
CONTINUOUS
 10
3.934480
 20
2.962960
  0
VERTEX
  8
0
  6
CONTINUOUS
 10
3.956480
 20
2.951080
  0
VERTEX
  8
0
  6
CONTINUOUS
 10
3.976280
 20
2.935680
  0
VERTEX
  8
0
  6
CONTINUOUS
 10
3.993440
 20
2.916320
  0
VERTEX
  8
0
  6
CONTINUOUS
 10
4.007080
 20
2.893880
  0
VERTEX
  8
0
  6
CONTINUOUS
 10
4.017200
 20
2.867920
  0
VERTEX
  8
0
  6
CONTINUOUS
 10
4.022040
 20
2.839320
  0
VERTEX
  8
0
  6
CONTINUOUS
 10
4.022920
 20
2.823920
  0
VERTEX
  8
0
  6
CONTINUOUS
 10
4.146560
 20
2.823920
  0
VERTEX
  8
0
  6
CONTINUOUS
 10
4.146560
 20
2.699400
  0
VERTEX
  8
0
  6
CONTINUOUS
 10
5.880600
 20
2.699400
  0
VERTEX
  8
0
  6
CONTINUOUS
 10
5.890720
 20
2.557720
  0
VERTEX
  8
0
  6
CONTINUOUS
 10
5.921960
 20
2.557720
  0
VERTEX
  8
0
  6
CONTINUOUS
 10
5.932080
 20
2.596440
  0
VERTEX
  8
0
  6
CONTINUOUS
 10
5.944840
 20
2.628560
  0
VERTEX
  8
0
  6
CONTINUOUS
 10
5.959800
 20
2.654080
  0
VERTEX
  8
0
  6
CONTINUOUS
 10
5.976520
 20
2.673440
  0
VERTEX
  8
0
  6
CONTINUOUS
 10
5.994560
 20
2.687520
  0
VERTEX
  8
0
  6
CONTINUOUS
 10
6.013040
 20
2.695880
  0
VERTEX
  8
0
  6
CONTINUOUS
 10
6.032400
 20
2.699840
  0
VERTEX
  8
0
  6
CONTINUOUS
 10
6.051320
 20
2.698960
  0
VERTEX
  8
0
  6
CONTINUOUS
 10
6.069800
 20
2.694120
  0
VERTEX
  8
0
  6
CONTINUOUS
 10
6.086960
 20
2.686200
  0
VERTEX
  8
0
  6
CONTINUOUS
 10
6.109840
 20
2.667720
  0
VERTEX
  8
0
  6
CONTINUOUS
 10
6.127880
 20
2.643960
  0
VERTEX
  8
0
  6
CONTINUOUS
 10
6.138880
 20
2.615360
  0
VERTEX
  8
0
  6
CONTINUOUS
 10
6.141520
 20
2.594680
  0
VERTEX
  8
0
  6
CONTINUOUS
 10
6.141520
 20
2.584120
  0
VERTEX
  8
0
  6
CONTINUOUS
 10
7.278480
 20
2.584120
  0
VERTEX
  8
0
  6
CONTINUOUS
 10
7.278480
 20
2.184600
  0
VERTEX
  8
0
  6
CONTINUOUS
 10
2.398880
 20
2.184600
  0
VERTEX
  8
0
  6
CONTINUOUS
 10
2.398880
 20
3.247640
  0
VERTEX
  8
0
  6
CONTINUOUS
 10
2.400200
 20
3.247640
  0
SEQEND
  8
0
  0
SOLID
  8
0
 62
    15
 10
4.015000
 20
4.960120
 11
4.016320
 21
5.712080
 12
4.042280
 22
4.915240
 13
4.044040
 23
5.666760
  0
POLYLINE
  8
0
  6
CONTINUOUS
 66
     1
 40
0.000000
 41
0.000000
  0
VERTEX
  8
0
  6
CONTINUOUS
 10
4.015000
 20
4.960120
  0
VERTEX
  8
0
  6
CONTINUOUS
 10
4.016320
 20
5.712080
  0
VERTEX
  8
0
  6
CONTINUOUS
 10
4.044040
 20
5.666760
  0
VERTEX
  8
0
  6
CONTINUOUS
 10
4.042280
 20
4.915240
  0
VERTEX
  8
0
  6
CONTINUOUS
 10
4.015000
 20
4.960120
  0
SEQEND
  8
0
  0
SOLID
  8
0
 62
    15
 10
2.986720
 20
5.281320
 11
2.988040
 21
6.033280
 12
2.986720
 22
5.188040
 13
2.988040
 23
5.939560
  0
POLYLINE
  8
0
  6
CONTINUOUS
 66
     1
 40
0.000000
 41
0.000000
  0
VERTEX
  8
0
  6
CONTINUOUS
 10
2.986720
 20
5.281320
  0
VERTEX
  8
0
  6
CONTINUOUS
 10
2.988040
 20
6.033280
  0
VERTEX
  8
0
  6
CONTINUOUS
 10
2.988040
 20
5.939560
  0
VERTEX
  8
0
  6
CONTINUOUS
 10
2.986720
 20
5.188040
  0
VERTEX
  8
0
  6
CONTINUOUS
 10
2.986720
 20
5.281320
  0
SEQEND
  8
0
  0
SOLID
  8
0
 62
    15
 10
2.986720
 20
5.188040
 11
2.988040
 21
5.939560
 12
3.266120
 22
5.188040
 13
3.267440
 23
5.939560
  0
POLYLINE
  8
0
  6
CONTINUOUS
 66
     1
 40
0.000000
 41
0.000000
  0
VERTEX
  8
0
  6
CONTINUOUS
 10
2.986720
 20
5.188040
  0
VERTEX
  8
0
  6
CONTINUOUS
 10
2.988040
 20
5.939560
  0
VERTEX
  8
0
  6
CONTINUOUS
 10
3.267440
 20
5.939560
  0
VERTEX
  8
0
  6
CONTINUOUS
 10
3.266120
 20
5.188040
  0
VERTEX
  8
0
  6
CONTINUOUS
 10
2.986720
 20
5.188040
  0
SEQEND
  8
0
  0
SOLID
  8
0
 62
    15
 10
3.266120
 20
5.188040
 11
3.267440
 21
5.939560
 12
3.273160
 22
5.140520
 13
3.274480
 23
5.892480
  0
POLYLINE
  8
0
  6
CONTINUOUS
 66
     1
 40
0.000000
 41
0.000000
  0
VERTEX
  8
0
  6
CONTINUOUS
 10
3.266120
 20
5.188040
  0
VERTEX
  8
0
  6
CONTINUOUS
 10
3.267440
 20
5.939560
  0
VERTEX
  8
0
  6
CONTINUOUS
 10
3.274480
 20
5.892480
  0
VERTEX
  8
0
  6
CONTINUOUS
 10
3.273160
 20
5.140520
  0
VERTEX
  8
0
  6
CONTINUOUS
 10
3.266120
 20
5.188040
  0
SEQEND
  8
0
  0
SOLID
  8
0
 62
    15
 10
3.273160
 20
5.140520
 11
3.274480
 21
5.892480
 12
3.284160
 22
5.097400
 13
3.285480
 23
5.849360
  0
POLYLINE
  8
0
  6
CONTINUOUS
 66
     1
 40
0.000000
 41
0.000000
  0
VERTEX
  8
0
  6
CONTINUOUS
 10
3.273160
 20
5.140520
  0
VERTEX
  8
0
  6
CONTINUOUS
 10
3.274480
 20
5.892480
  0
VERTEX
  8
0
  6
CONTINUOUS
 10
3.285480
 20
5.849360
  0
VERTEX
  8
0
  6
CONTINUOUS
 10
3.284160
 20
5.097400
  0
VERTEX
  8
0
  6
CONTINUOUS
 10
3.273160
 20
5.140520
  0
SEQEND
  8
0
  0
SOLID
  8
0
 62
    15
 10
3.284160
 20
5.097400
 11
3.285480
 21
5.849360
 12
3.299120
 22
5.059120
 13
3.300440
 23
5.810640
  0
POLYLINE
  8
0
  6
CONTINUOUS
 66
     1
 40
0.000000
 41
0.000000
  0
VERTEX
  8
0
  6
CONTINUOUS
 10
3.284160
 20
5.097400
  0
VERTEX
  8
0
  6
CONTINUOUS
 10
3.285480
 20
5.849360
  0
VERTEX
  8
0
  6
CONTINUOUS
 10
3.300440
 20
5.810640
  0
VERTEX
  8
0
  6
CONTINUOUS
 10
3.299120
 20
5.059120
  0
VERTEX
  8
0
  6
CONTINUOUS
 10
3.284160
 20
5.097400
  0
SEQEND
  8
0
  0
SOLID
  8
0
 62
    15
 10
3.299120
 20
5.059120
 11
3.300440
 21
5.810640
 12
3.317600
 22
5.024360
 13
3.318920
 23
5.775880
  0
POLYLINE
  8
0
  6
CONTINUOUS
 66
     1
 40
0.000000
 41
0.000000
  0
VERTEX
  8
0
  6
CONTINUOUS
 10
3.299120
 20
5.059120
  0
VERTEX
  8
0
  6
CONTINUOUS
 10
3.300440
 20
5.810640
  0
VERTEX
  8
0
  6
CONTINUOUS
 10
3.318920
 20
5.775880
  0
VERTEX
  8
0
  6
CONTINUOUS
 10
3.317600
 20
5.024360
  0
VERTEX
  8
0
  6
CONTINUOUS
 10
3.299120
 20
5.059120
  0
SEQEND
  8
0
  0
SOLID
  8
0
 62
    15
 10
3.317600
 20
5.024360
 11
3.318920
 21
5.775880
 12
3.364240
 22
4.966280
 13
3.365560
 23
5.718240
  0
POLYLINE
  8
0
  6
CONTINUOUS
 66
     1
 40
0.000000
 41
0.000000
  0
VERTEX
  8
0
  6
CONTINUOUS
 10
3.317600
 20
5.024360
  0
VERTEX
  8
0
  6
CONTINUOUS
 10
3.318920
 20
5.775880
  0
VERTEX
  8
0
  6
CONTINUOUS
 10
3.365560
 20
5.718240
  0
VERTEX
  8
0
  6
CONTINUOUS
 10
3.364240
 20
4.966280
  0
VERTEX
  8
0
  6
CONTINUOUS
 10
3.317600
 20
5.024360
  0
SEQEND
  8
0
  0
SOLID
  8
0
 62
    15
 10
3.364240
 20
4.966280
 11
3.365560
 21
5.718240
 12
3.423640
 22
4.922720
 13
3.424960
 23
5.674240
  0
POLYLINE
  8
0
  6
CONTINUOUS
 66
     1
 40
0.000000
 41
0.000000
  0
VERTEX
  8
0
  6
CONTINUOUS
 10
3.364240
 20
4.966280
  0
VERTEX
  8
0
  6
CONTINUOUS
 10
3.365560
 20
5.718240
  0
VERTEX
  8
0
  6
CONTINUOUS
 10
3.424960
 20
5.674240
  0
VERTEX
  8
0
  6
CONTINUOUS
 10
3.423640
 20
4.922720
  0
VERTEX
  8
0
  6
CONTINUOUS
 10
3.364240
 20
4.966280
  0
SEQEND
  8
0
  0
SOLID
  8
0
 62
    15
 10
3.423640
 20
4.922720
 11
3.424960
 21
5.674240
 12
3.494920
 22
4.891040
 13
3.496240
 23
5.643000
  0
POLYLINE
  8
0
  6
CONTINUOUS
 66
     1
 40
0.000000
 41
0.000000
  0
VERTEX
  8
0
  6
CONTINUOUS
 10
3.423640
 20
4.922720
  0
VERTEX
  8
0
  6
CONTINUOUS
 10
3.424960
 20
5.674240
  0
VERTEX
  8
0
  6
CONTINUOUS
 10
3.496240
 20
5.643000
  0
VERTEX
  8
0
  6
CONTINUOUS
 10
3.494920
 20
4.891040
  0
VERTEX
  8
0
  6
CONTINUOUS
 10
3.423640
 20
4.922720
  0
SEQEND
  8
0
  0
SOLID
  8
0
 62
    15
 10
3.494920
 20
4.891040
 11
3.496240
 21
5.643000
 12
3.576760
 22
4.870800
 13
3.578080
 23
5.622320
  0
POLYLINE
  8
0
  6
CONTINUOUS
 66
     1
 40
0.000000
 41
0.000000
  0
VERTEX
  8
0
  6
CONTINUOUS
 10
3.494920
 20
4.891040
  0
VERTEX
  8
0
  6
CONTINUOUS
 10
3.496240
 20
5.643000
  0
VERTEX
  8
0
  6
CONTINUOUS
 10
3.578080
 20
5.622320
  0
VERTEX
  8
0
  6
CONTINUOUS
 10
3.576760
 20
4.870800
  0
VERTEX
  8
0
  6
CONTINUOUS
 10
3.494920
 20
4.891040
  0
SEQEND
  8
0
  0
SOLID
  8
0
 62
    15
 10
3.576760
 20
4.870800
 11
3.578080
 21
5.622320
 12
3.667840
 22
4.859360
 13
3.669160
 23
5.611320
  0
POLYLINE
  8
0
  6
CONTINUOUS
 66
     1
 40
0.000000
 41
0.000000
  0
VERTEX
  8
0
  6
CONTINUOUS
 10
3.576760
 20
4.870800
  0
VERTEX
  8
0
  6
CONTINUOUS
 10
3.578080
 20
5.622320
  0
VERTEX
  8
0
  6
CONTINUOUS
 10
3.669160
 20
5.611320
  0
VERTEX
  8
0
  6
CONTINUOUS
 10
3.667840
 20
4.859360
  0
VERTEX
  8
0
  6
CONTINUOUS
 10
3.576760
 20
4.870800
  0
SEQEND
  8
0
  0
SOLID
  8
0
 62
    15
 10
3.667840
 20
4.859360
 11
3.669160
 21
5.611320
 12
3.767720
 22
4.855840
 13
3.769040
 23
5.607800
  0
POLYLINE
  8
0
  6
CONTINUOUS
 66
     1
 40
0.000000
 41
0.000000
  0
VERTEX
  8
0
  6
CONTINUOUS
 10
3.667840
 20
4.859360
  0
VERTEX
  8
0
  6
CONTINUOUS
 10
3.669160
 20
5.611320
  0
VERTEX
  8
0
  6
CONTINUOUS
 10
3.769040
 20
5.607800
  0
VERTEX
  8
0
  6
CONTINUOUS
 10
3.767720
 20
4.855840
  0
VERTEX
  8
0
  6
CONTINUOUS
 10
3.667840
 20
4.859360
  0
SEQEND
  8
0
  0
SOLID
  8
0
 62
    15
 10
3.767720
 20
4.855840
 11
3.769040
 21
5.607800
 12
3.779160
 22
4.895880
 13
3.780480
 23
5.647840
  0
POLYLINE
  8
0
  6
CONTINUOUS
 66
     1
 40
0.000000
 41
0.000000
  0
VERTEX
  8
0
  6
CONTINUOUS
 10
3.767720
 20
4.855840
  0
VERTEX
  8
0
  6
CONTINUOUS
 10
3.769040
 20
5.607800
  0
VERTEX
  8
0
  6
CONTINUOUS
 10
3.780480
 20
5.647840
  0
VERTEX
  8
0
  6
CONTINUOUS
 10
3.779160
 20
4.895880
  0
VERTEX
  8
0
  6
CONTINUOUS
 10
3.767720
 20
4.855840
  0
SEQEND
  8
0
  0
SOLID
  8
0
 62
    15
 10
3.779160
 20
4.895880
 11
3.780480
 21
5.647840
 12
3.794120
 22
4.929320
 13
3.795440
 23
5.680840
  0
POLYLINE
  8
0
  6
CONTINUOUS
 66
     1
 40
0.000000
 41
0.000000
  0
VERTEX
  8
0
  6
CONTINUOUS
 10
3.779160
 20
4.895880
  0
VERTEX
  8
0
  6
CONTINUOUS
 10
3.780480
 20
5.647840
  0
VERTEX
  8
0
  6
CONTINUOUS
 10
3.795440
 20
5.680840
  0
VERTEX
  8
0
  6
CONTINUOUS
 10
3.794120
 20
4.929320
  0
VERTEX
  8
0
  6
CONTINUOUS
 10
3.779160
 20
4.895880
  0
SEQEND
  8
0
  0
SOLID
  8
0
 62
    15
 10
3.794120
 20
4.929320
 11
3.795440
 21
5.680840
 12
3.812160
 22
4.956160
 13
3.813480
 23
5.708120
  0
POLYLINE
  8
0
  6
CONTINUOUS
 66
     1
 40
0.000000
 41
0.000000
  0
VERTEX
  8
0
  6
CONTINUOUS
 10
3.794120
 20
4.929320
  0
VERTEX
  8
0
  6
CONTINUOUS
 10
3.795440
 20
5.680840
  0
VERTEX
  8
0
  6
CONTINUOUS
 10
3.813480
 20
5.708120
  0
VERTEX
  8
0
  6
CONTINUOUS
 10
3.812160
 20
4.956160
  0
VERTEX
  8
0
  6
CONTINUOUS
 10
3.794120
 20
4.929320
  0
SEQEND
  8
0
  0
SOLID
  8
0
 62
    15
 10
3.812160
 20
4.956160
 11
3.813480
 21
5.708120
 12
3.832840
 22
4.977280
 13
3.834160
 23
5.728800
  0
POLYLINE
  8
0
  6
CONTINUOUS
 66
     1
 40
0.000000
 41
0.000000
  0
VERTEX
  8
0
  6
CONTINUOUS
 10
3.812160
 20
4.956160
  0
VERTEX
  8
0
  6
CONTINUOUS
 10
3.813480
 20
5.708120
  0
VERTEX
  8
0
  6
CONTINUOUS
 10
3.834160
 20
5.728800
  0
VERTEX
  8
0
  6
CONTINUOUS
 10
3.832840
 20
4.977280
  0
VERTEX
  8
0
  6
CONTINUOUS
 10
3.812160
 20
4.956160
  0
SEQEND
  8
0
  0
SOLID
  8
0
 62
    15
 10
3.832840
 20
4.977280
 11
3.834160
 21
5.728800
 12
3.855720
 22
4.992240
 13
3.857040
 23
5.744200
  0
POLYLINE
  8
0
  6
CONTINUOUS
 66
     1
 40
0.000000
 41
0.000000
  0
VERTEX
  8
0
  6
CONTINUOUS
 10
3.832840
 20
4.977280
  0
VERTEX
  8
0
  6
CONTINUOUS
 10
3.834160
 20
5.728800
  0
VERTEX
  8
0
  6
CONTINUOUS
 10
3.857040
 20
5.744200
  0
VERTEX
  8
0
  6
CONTINUOUS
 10
3.855720
 20
4.992240
  0
VERTEX
  8
0
  6
CONTINUOUS
 10
3.832840
 20
4.977280
  0
SEQEND
  8
0
  0
SOLID
  8
0
 62
    15
 10
3.855720
 20
4.992240
 11
3.857040
 21
5.744200
 12
3.879480
 22
5.001920
 13
3.880800
 23
5.753880
  0
POLYLINE
  8
0
  6
CONTINUOUS
 66
     1
 40
0.000000
 41
0.000000
  0
VERTEX
  8
0
  6
CONTINUOUS
 10
3.855720
 20
4.992240
  0
VERTEX
  8
0
  6
CONTINUOUS
 10
3.857040
 20
5.744200
  0
VERTEX
  8
0
  6
CONTINUOUS
 10
3.880800
 20
5.753880
  0
VERTEX
  8
0
  6
CONTINUOUS
 10
3.879480
 20
5.001920
  0
VERTEX
  8
0
  6
CONTINUOUS
 10
3.855720
 20
4.992240
  0
SEQEND
  8
0
  0
SOLID
  8
0
 62
    15
 10
3.879480
 20
5.001920
 11
3.880800
 21
5.753880
 12
3.928760
 22
5.005880
 13
3.930080
 23
5.757840
  0
POLYLINE
  8
0
  6
CONTINUOUS
 66
     1
 40
0.000000
 41
0.000000
  0
VERTEX
  8
0
  6
CONTINUOUS
 10
3.879480
 20
5.001920
  0
VERTEX
  8
0
  6
CONTINUOUS
 10
3.880800
 20
5.753880
  0
VERTEX
  8
0
  6
CONTINUOUS
 10
3.930080
 20
5.757840
  0
VERTEX
  8
0
  6
CONTINUOUS
 10
3.928760
 20
5.005880
  0
VERTEX
  8
0
  6
CONTINUOUS
 10
3.879480
 20
5.001920
  0
SEQEND
  8
0
  0
SOLID
  8
0
 62
    15
 10
3.928760
 20
5.005880
 11
3.930080
 21
5.757840
 12
3.975400
 22
4.991360
 13
3.976720
 23
5.743320
  0
POLYLINE
  8
0
  6
CONTINUOUS
 66
     1
 40
0.000000
 41
0.000000
  0
VERTEX
  8
0
  6
CONTINUOUS
 10
3.928760
 20
5.005880
  0
VERTEX
  8
0
  6
CONTINUOUS
 10
3.930080
 20
5.757840
  0
VERTEX
  8
0
  6
CONTINUOUS
 10
3.976720
 20
5.743320
  0
VERTEX
  8
0
  6
CONTINUOUS
 10
3.975400
 20
4.991360
  0
VERTEX
  8
0
  6
CONTINUOUS
 10
3.928760
 20
5.005880
  0
SEQEND
  8
0
  0
SOLID
  8
0
 62
    15
 10
3.975400
 20
4.991360
 11
3.976720
 21
5.743320
 12
4.015000
 22
4.960120
 13
4.016320
 23
5.712080
  0
POLYLINE
  8
0
  6
CONTINUOUS
 66
     1
 40
0.000000
 41
0.000000
  0
VERTEX
  8
0
  6
CONTINUOUS
 10
3.975400
 20
4.991360
  0
VERTEX
  8
0
  6
CONTINUOUS
 10
3.976720
 20
5.743320
  0
VERTEX
  8
0
  6
CONTINUOUS
 10
4.016320
 20
5.712080
  0
VERTEX
  8
0
  6
CONTINUOUS
 10
4.015000
 20
4.960120
  0
VERTEX
  8
0
  6
CONTINUOUS
 10
3.975400
 20
4.991360
  0
SEQEND
  8
0
  0
SOLID
  8
0
 62
    15
 10
2.430120
 20
5.281320
 11
2.431440
 21
6.033280
 12
2.986720
 22
5.281320
 13
2.988040
 23
6.033280
  0
POLYLINE
  8
0
  6
CONTINUOUS
 66
     1
 40
0.000000
 41
0.000000
  0
VERTEX
  8
0
  6
CONTINUOUS
 10
2.430120
 20
5.281320
  0
VERTEX
  8
0
  6
CONTINUOUS
 10
2.431440
 20
6.033280
  0
VERTEX
  8
0
  6
CONTINUOUS
 10
2.988040
 20
6.033280
  0
VERTEX
  8
0
  6
CONTINUOUS
 10
2.986720
 20
5.281320
  0
VERTEX
  8
0
  6
CONTINUOUS
 10
2.430120
 20
5.281320
  0
SEQEND
  8
0
  0
SOLID
  8
0
 62
    15
 10
4.042280
 20
4.915240
 11
4.044040
 21
5.666760
 12
4.050200
 22
4.887960
 13
4.051520
 23
5.639920
  0
POLYLINE
  8
0
  6
CONTINUOUS
 66
     1
 40
0.000000
 41
0.000000
  0
VERTEX
  8
0
  6
CONTINUOUS
 10
4.042280
 20
4.915240
  0
VERTEX
  8
0
  6
CONTINUOUS
 10
4.044040
 20
5.666760
  0
VERTEX
  8
0
  6
CONTINUOUS
 10
4.051520
 20
5.639920
  0
VERTEX
  8
0
  6
CONTINUOUS
 10
4.050200
 20
4.887960
  0
VERTEX
  8
0
  6
CONTINUOUS
 10
4.042280
 20
4.915240
  0
SEQEND
  8
0
  0
SOLID
  8
0
 62
    15
 10
4.050200
 20
4.887960
 11
4.051520
 21
5.639920
 12
4.052840
 22
4.858040
 13
4.054160
 23
5.610000
  0
POLYLINE
  8
0
  6
CONTINUOUS
 66
     1
 40
0.000000
 41
0.000000
  0
VERTEX
  8
0
  6
CONTINUOUS
 10
4.050200
 20
4.887960
  0
VERTEX
  8
0
  6
CONTINUOUS
 10
4.051520
 20
5.639920
  0
VERTEX
  8
0
  6
CONTINUOUS
 10
4.054160
 20
5.610000
  0
VERTEX
  8
0
  6
CONTINUOUS
 10
4.052840
 20
4.858040
  0
VERTEX
  8
0
  6
CONTINUOUS
 10
4.050200
 20
4.887960
  0
SEQEND
  8
0
  0
SOLID
  8
0
 62
    15
 10
4.052840
 20
4.858040
 11
4.054160
 21
5.610000
 12
4.176480
 22
4.858040
 13
4.177800
 23
5.610000
  0
POLYLINE
  8
0
  6
CONTINUOUS
 66
     1
 40
0.000000
 41
0.000000
  0
VERTEX
  8
0
  6
CONTINUOUS
 10
4.052840
 20
4.858040
  0
VERTEX
  8
0
  6
CONTINUOUS
 10
4.054160
 20
5.610000
  0
VERTEX
  8
0
  6
CONTINUOUS
 10
4.177800
 20
5.610000
  0
VERTEX
  8
0
  6
CONTINUOUS
 10
4.176480
 20
4.858040
  0
VERTEX
  8
0
  6
CONTINUOUS
 10
4.052840
 20
4.858040
  0
SEQEND
  8
0
  0
SOLID
  8
0
 62
    15
 10
4.176480
 20
4.858040
 11
4.177800
 21
5.610000
 12
4.176480
 22
4.733080
 13
4.177800
 23
5.485040
  0
POLYLINE
  8
0
  6
CONTINUOUS
 66
     1
 40
0.000000
 41
0.000000
  0
VERTEX
  8
0
  6
CONTINUOUS
 10
4.176480
 20
4.858040
  0
VERTEX
  8
0
  6
CONTINUOUS
 10
4.177800
 20
5.610000
  0
VERTEX
  8
0
  6
CONTINUOUS
 10
4.177800
 20
5.485040
  0
VERTEX
  8
0
  6
CONTINUOUS
 10
4.176480
 20
4.733080
  0
VERTEX
  8
0
  6
CONTINUOUS
 10
4.176480
 20
4.858040
  0
SEQEND
  8
0
  0
SOLID
  8
0
 62
    15
 10
5.920200
 20
4.591840
 11
5.921520
 21
5.343360
 12
5.951880
 22
4.591840
 13
5.953200
 23
5.343360
  0
POLYLINE
  8
0
  6
CONTINUOUS
 66
     1
 40
0.000000
 41
0.000000
  0
VERTEX
  8
0
  6
CONTINUOUS
 10
5.920200
 20
4.591840
  0
VERTEX
  8
0
  6
CONTINUOUS
 10
5.921520
 20
5.343360
  0
VERTEX
  8
0
  6
CONTINUOUS
 10
5.953200
 20
5.343360
  0
VERTEX
  8
0
  6
CONTINUOUS
 10
5.951880
 20
4.591840
  0
VERTEX
  8
0
  6
CONTINUOUS
 10
5.920200
 20
4.591840
  0
SEQEND
  8
0
  0
SOLID
  8
0
 62
    15
 10
5.910520
 20
4.733080
 11
5.911840
 21
5.485040
 12
5.920200
 22
4.591840
 13
5.921520
 23
5.343360
  0
POLYLINE
  8
0
  6
CONTINUOUS
 66
     1
 40
0.000000
 41
0.000000
  0
VERTEX
  8
0
  6
CONTINUOUS
 10
5.910520
 20
4.733080
  0
VERTEX
  8
0
  6
CONTINUOUS
 10
5.911840
 20
5.485040
  0
VERTEX
  8
0
  6
CONTINUOUS
 10
5.921520
 20
5.343360
  0
VERTEX
  8
0
  6
CONTINUOUS
 10
5.920200
 20
4.591840
  0
VERTEX
  8
0
  6
CONTINUOUS
 10
5.910520
 20
4.733080
  0
SEQEND
  8
0
  0
SOLID
  8
0
 62
    15
 10
4.176480
 20
4.733080
 11
4.177800
 21
5.485040
 12
5.910520
 22
4.733080
 13
5.911840
 23
5.485040
  0
POLYLINE
  8
0
  6
CONTINUOUS
 66
     1
 40
0.000000
 41
0.000000
  0
VERTEX
  8
0
  6
CONTINUOUS
 10
4.176480
 20
4.733080
  0
VERTEX
  8
0
  6
CONTINUOUS
 10
4.177800
 20
5.485040
  0
VERTEX
  8
0
  6
CONTINUOUS
 10
5.911840
 20
5.485040
  0
VERTEX
  8
0
  6
CONTINUOUS
 10
5.910520
 20
4.733080
  0
VERTEX
  8
0
  6
CONTINUOUS
 10
4.176480
 20
4.733080
  0
SEQEND
  8
0
  0
SOLID
  8
0
 62
    15
 10
5.951880
 20
4.591840
 11
5.953200
 21
5.343360
 12
5.961560
 22
4.630560
 13
5.962880
 23
5.382520
  0
POLYLINE
  8
0
  6
CONTINUOUS
 66
     1
 40
0.000000
 41
0.000000
  0
VERTEX
  8
0
  6
CONTINUOUS
 10
5.951880
 20
4.591840
  0
VERTEX
  8
0
  6
CONTINUOUS
 10
5.953200
 20
5.343360
  0
VERTEX
  8
0
  6
CONTINUOUS
 10
5.962880
 20
5.382520
  0
VERTEX
  8
0
  6
CONTINUOUS
 10
5.961560
 20
4.630560
  0
VERTEX
  8
0
  6
CONTINUOUS
 10
5.951880
 20
4.591840
  0
SEQEND
  8
0
  0
SOLID
  8
0
 62
    15
 10
5.961560
 20
4.630560
 11
5.962880
 21
5.382520
 12
5.974320
 22
4.662680
 13
5.975640
 23
5.414640
  0
POLYLINE
  8
0
  6
CONTINUOUS
 66
     1
 40
0.000000
 41
0.000000
  0
VERTEX
  8
0
  6
CONTINUOUS
 10
5.961560
 20
4.630560
  0
VERTEX
  8
0
  6
CONTINUOUS
 10
5.962880
 20
5.382520
  0
VERTEX
  8
0
  6
CONTINUOUS
 10
5.975640
 20
5.414640
  0
VERTEX
  8
0
  6
CONTINUOUS
 10
5.974320
 20
4.662680
  0
VERTEX
  8
0
  6
CONTINUOUS
 10
5.961560
 20
4.630560
  0
SEQEND
  8
0
  0
SOLID
  8
0
 62
    15
 10
5.974320
 20
4.662680
 11
5.975640
 21
5.414640
 12
5.989280
 22
4.688200
 13
5.990600
 23
5.440160
  0
POLYLINE
  8
0
  6
CONTINUOUS
 66
     1
 40
0.000000
 41
0.000000
  0
VERTEX
  8
0
  6
CONTINUOUS
 10
5.974320
 20
4.662680
  0
VERTEX
  8
0
  6
CONTINUOUS
 10
5.975640
 20
5.414640
  0
VERTEX
  8
0
  6
CONTINUOUS
 10
5.990600
 20
5.440160
  0
VERTEX
  8
0
  6
CONTINUOUS
 10
5.989280
 20
4.688200
  0
VERTEX
  8
0
  6
CONTINUOUS
 10
5.974320
 20
4.662680
  0
SEQEND
  8
0
  0
SOLID
  8
0
 62
    15
 10
5.989280
 20
4.688200
 11
5.990600
 21
5.440160
 12
6.006000
 22
4.707560
 13
6.007320
 23
5.459520
  0
POLYLINE
  8
0
  6
CONTINUOUS
 66
     1
 40
0.000000
 41
0.000000
  0
VERTEX
  8
0
  6
CONTINUOUS
 10
5.989280
 20
4.688200
  0
VERTEX
  8
0
  6
CONTINUOUS
 10
5.990600
 20
5.440160
  0
VERTEX
  8
0
  6
CONTINUOUS
 10
6.007320
 20
5.459520
  0
VERTEX
  8
0
  6
CONTINUOUS
 10
6.006000
 20
4.707560
  0
VERTEX
  8
0
  6
CONTINUOUS
 10
5.989280
 20
4.688200
  0
SEQEND
  8
0
  0
SOLID
  8
0
 62
    15
 10
6.006000
 20
4.707560
 11
6.007320
 21
5.459520
 12
6.024040
 22
4.721640
 13
6.025360
 23
5.473160
  0
POLYLINE
  8
0
  6
CONTINUOUS
 66
     1
 40
0.000000
 41
0.000000
  0
VERTEX
  8
0
  6
CONTINUOUS
 10
6.006000
 20
4.707560
  0
VERTEX
  8
0
  6
CONTINUOUS
 10
6.007320
 20
5.459520
  0
VERTEX
  8
0
  6
CONTINUOUS
 10
6.025360
 20
5.473160
  0
VERTEX
  8
0
  6
CONTINUOUS
 10
6.024040
 20
4.721640
  0
VERTEX
  8
0
  6
CONTINUOUS
 10
6.006000
 20
4.707560
  0
SEQEND
  8
0
  0
SOLID
  8
0
 62
    15
 10
6.024040
 20
4.721640
 11
6.025360
 21
5.473160
 12
6.042960
 22
4.730000
 13
6.044280
 23
5.481960
  0
POLYLINE
  8
0
  6
CONTINUOUS
 66
     1
 40
0.000000
 41
0.000000
  0
VERTEX
  8
0
  6
CONTINUOUS
 10
6.024040
 20
4.721640
  0
VERTEX
  8
0
  6
CONTINUOUS
 10
6.025360
 20
5.473160
  0
VERTEX
  8
0
  6
CONTINUOUS
 10
6.044280
 20
5.481960
  0
VERTEX
  8
0
  6
CONTINUOUS
 10
6.042960
 20
4.730000
  0
VERTEX
  8
0
  6
CONTINUOUS
 10
6.024040
 20
4.721640
  0
SEQEND
  8
0
  0
SOLID
  8
0
 62
    15
 10
6.042960
 20
4.730000
 11
6.044280
 21
5.481960
 12
6.081240
 22
4.733080
 13
6.082560
 23
5.484600
  0
POLYLINE
  8
0
  6
CONTINUOUS
 66
     1
 40
0.000000
 41
0.000000
  0
VERTEX
  8
0
  6
CONTINUOUS
 10
6.042960
 20
4.730000
  0
VERTEX
  8
0
  6
CONTINUOUS
 10
6.044280
 20
5.481960
  0
VERTEX
  8
0
  6
CONTINUOUS
 10
6.082560
 20
5.484600
  0
VERTEX
  8
0
  6
CONTINUOUS
 10
6.081240
 20
4.733080
  0
VERTEX
  8
0
  6
CONTINUOUS
 10
6.042960
 20
4.730000
  0
SEQEND
  8
0
  0
SOLID
  8
0
 62
    15
 10
6.081240
 20
4.733080
 11
6.082560
 21
5.484600
 12
6.116880
 22
4.719880
 13
6.118200
 23
5.471840
  0
POLYLINE
  8
0
  6
CONTINUOUS
 66
     1
 40
0.000000
 41
0.000000
  0
VERTEX
  8
0
  6
CONTINUOUS
 10
6.081240
 20
4.733080
  0
VERTEX
  8
0
  6
CONTINUOUS
 10
6.082560
 20
5.484600
  0
VERTEX
  8
0
  6
CONTINUOUS
 10
6.118200
 20
5.471840
  0
VERTEX
  8
0
  6
CONTINUOUS
 10
6.116880
 20
4.719880
  0
VERTEX
  8
0
  6
CONTINUOUS
 10
6.081240
 20
4.733080
  0
SEQEND
  8
0
  0
SOLID
  8
0
 62
    15
 10
6.116880
 20
4.719880
 11
6.118200
 21
5.471840
 12
6.146360
 22
4.694360
 13
6.147680
 23
5.445880
  0
POLYLINE
  8
0
  6
CONTINUOUS
 66
     1
 40
0.000000
 41
0.000000
  0
VERTEX
  8
0
  6
CONTINUOUS
 10
6.116880
 20
4.719880
  0
VERTEX
  8
0
  6
CONTINUOUS
 10
6.118200
 20
5.471840
  0
VERTEX
  8
0
  6
CONTINUOUS
 10
6.147680
 20
5.445880
  0
VERTEX
  8
0
  6
CONTINUOUS
 10
6.146360
 20
4.694360
  0
VERTEX
  8
0
  6
CONTINUOUS
 10
6.116880
 20
4.719880
  0
SEQEND
  8
0
  0
SOLID
  8
0
 62
    15
 10
7.307960
 20
4.617800
 11
7.309720
 21
5.369760
 12
7.307960
 22
4.218720
 13
7.309720
 23
4.970240
  0
POLYLINE
  8
0
  6
CONTINUOUS
 66
     1
 40
0.000000
 41
0.000000
  0
VERTEX
  8
0
  6
CONTINUOUS
 10
7.307960
 20
4.617800
  0
VERTEX
  8
0
  6
CONTINUOUS
 10
7.309720
 20
5.369760
  0
VERTEX
  8
0
  6
CONTINUOUS
 10
7.309720
 20
4.970240
  0
VERTEX
  8
0
  6
CONTINUOUS
 10
7.307960
 20
4.218720
  0
VERTEX
  8
0
  6
CONTINUOUS
 10
7.307960
 20
4.617800
  0
SEQEND
  8
0
  0
SOLID
  8
0
 62
    15
 10
6.171440
 20
4.617800
 11
6.172760
 21
5.369760
 12
7.307960
 22
4.617800
 13
7.309720
 23
5.369760
  0
POLYLINE
  8
0
  6
CONTINUOUS
 66
     1
 40
0.000000
 41
0.000000
  0
VERTEX
  8
0
  6
CONTINUOUS
 10
6.171440
 20
4.617800
  0
VERTEX
  8
0
  6
CONTINUOUS
 10
6.172760
 20
5.369760
  0
VERTEX
  8
0
  6
CONTINUOUS
 10
7.309720
 20
5.369760
  0
VERTEX
  8
0
  6
CONTINUOUS
 10
7.307960
 20
4.617800
  0
VERTEX
  8
0
  6
CONTINUOUS
 10
6.171440
 20
4.617800
  0
SEQEND
  8
0
  0
SOLID
  8
0
 62
    15
 10
6.165720
 20
4.659160
 11
6.167040
 21
5.411120
 12
6.171440
 22
4.617800
 13
6.172760
 23
5.369760
  0
POLYLINE
  8
0
  6
CONTINUOUS
 66
     1
 40
0.000000
 41
0.000000
  0
VERTEX
  8
0
  6
CONTINUOUS
 10
6.165720
 20
4.659160
  0
VERTEX
  8
0
  6
CONTINUOUS
 10
6.167040
 20
5.411120
  0
VERTEX
  8
0
  6
CONTINUOUS
 10
6.172760
 20
5.369760
  0
VERTEX
  8
0
  6
CONTINUOUS
 10
6.171440
 20
4.617800
  0
VERTEX
  8
0
  6
CONTINUOUS
 10
6.165720
 20
4.659160
  0
SEQEND
  8
0
  0
SOLID
  8
0
 62
    15
 10
6.146360
 20
4.694360
 11
6.147680
 21
5.445880
 12
6.165720
 22
4.659160
 13
6.167040
 23
5.411120
  0
POLYLINE
  8
0
  6
CONTINUOUS
 66
     1
 40
0.000000
 41
0.000000
  0
VERTEX
  8
0
  6
CONTINUOUS
 10
6.146360
 20
4.694360
  0
VERTEX
  8
0
  6
CONTINUOUS
 10
6.147680
 20
5.445880
  0
VERTEX
  8
0
  6
CONTINUOUS
 10
6.167040
 20
5.411120
  0
VERTEX
  8
0
  6
CONTINUOUS
 10
6.165720
 20
4.659160
  0
VERTEX
  8
0
  6
CONTINUOUS
 10
6.146360
 20
4.694360
  0
SEQEND
  8
0
  0
SOLID
  8
0
 62
    15
 10
2.428800
 20
5.281320
 11
2.430120
 21
6.033280
 12
2.430120
 22
5.281320
 13
2.431440
 23
6.033280
  0
POLYLINE
  8
0
  6
CONTINUOUS
 66
     1
 40
0.000000
 41
0.000000
  0
VERTEX
  8
0
  6
CONTINUOUS
 10
2.428800
 20
5.281320
  0
VERTEX
  8
0
  6
CONTINUOUS
 10
2.430120
 20
6.033280
  0
VERTEX
  8
0
  6
CONTINUOUS
 10
2.431440
 20
6.033280
  0
VERTEX
  8
0
  6
CONTINUOUS
 10
2.430120
 20
5.281320
  0
VERTEX
  8
0
  6
CONTINUOUS
 10
2.428800
 20
5.281320
  0
SEQEND
  8
0
  0
POLYLINE
  8
0
  6
CONTINUOUS
 66
     1
 40
0.000000
 41
0.000000
  0
VERTEX
  8
0
  6
CONTINUOUS
 10
2.430120
 20
5.281320
  0
VERTEX
  8
0
  6
CONTINUOUS
 10
2.986720
 20
5.281320
  0
VERTEX
  8
0
  6
CONTINUOUS
 10
2.986720
 20
5.188040
  0
VERTEX
  8
0
  6
CONTINUOUS
 10
3.266120
 20
5.188040
  0
VERTEX
  8
0
  6
CONTINUOUS
 10
3.273160
 20
5.140520
  0
VERTEX
  8
0
  6
CONTINUOUS
 10
3.284160
 20
5.097400
  0
VERTEX
  8
0
  6
CONTINUOUS
 10
3.299120
 20
5.059120
  0
VERTEX
  8
0
  6
CONTINUOUS
 10
3.317600
 20
5.024360
  0
VERTEX
  8
0
  6
CONTINUOUS
 10
3.364240
 20
4.966280
  0
VERTEX
  8
0
  6
CONTINUOUS
 10
3.423640
 20
4.922720
  0
VERTEX
  8
0
  6
CONTINUOUS
 10
3.494920
 20
4.891040
  0
VERTEX
  8
0
  6
CONTINUOUS
 10
3.576760
 20
4.870800
  0
VERTEX
  8
0
  6
CONTINUOUS
 10
3.667840
 20
4.859360
  0
VERTEX
  8
0
  6
CONTINUOUS
 10
3.767720
 20
4.855840
  0
VERTEX
  8
0
  6
CONTINUOUS
 10
3.779160
 20
4.895880
  0
VERTEX
  8
0
  6
CONTINUOUS
 10
3.794120
 20
4.929320
  0
VERTEX
  8
0
  6
CONTINUOUS
 10
3.812160
 20
4.956160
  0
VERTEX
  8
0
  6
CONTINUOUS
 10
3.832840
 20
4.977280
  0
VERTEX
  8
0
  6
CONTINUOUS
 10
3.855720
 20
4.992240
  0
VERTEX
  8
0
  6
CONTINUOUS
 10
3.879480
 20
5.001920
  0
VERTEX
  8
0
  6
CONTINUOUS
 10
3.928760
 20
5.005880
  0
VERTEX
  8
0
  6
CONTINUOUS
 10
3.975400
 20
4.991360
  0
VERTEX
  8
0
  6
CONTINUOUS
 10
4.015000
 20
4.960120
  0
VERTEX
  8
0
  6
CONTINUOUS
 10
4.042280
 20
4.915240
  0
VERTEX
  8
0
  6
CONTINUOUS
 10
4.050200
 20
4.887960
  0
VERTEX
  8
0
  6
CONTINUOUS
 10
4.052840
 20
4.858040
  0
VERTEX
  8
0
  6
CONTINUOUS
 10
4.176480
 20
4.858040
  0
VERTEX
  8
0
  6
CONTINUOUS
 10
4.176480
 20
4.733080
  0
VERTEX
  8
0
  6
CONTINUOUS
 10
5.910520
 20
4.733080
  0
VERTEX
  8
0
  6
CONTINUOUS
 10
5.920200
 20
4.591840
  0
VERTEX
  8
0
  6
CONTINUOUS
 10
5.951880
 20
4.591840
  0
VERTEX
  8
0
  6
CONTINUOUS
 10
5.961560
 20
4.630560
  0
VERTEX
  8
0
  6
CONTINUOUS
 10
5.974320
 20
4.662680
  0
VERTEX
  8
0
  6
CONTINUOUS
 10
5.989280
 20
4.688200
  0
VERTEX
  8
0
  6
CONTINUOUS
 10
6.006000
 20
4.707560
  0
VERTEX
  8
0
  6
CONTINUOUS
 10
6.024040
 20
4.721640
  0
VERTEX
  8
0
  6
CONTINUOUS
 10
6.042960
 20
4.730000
  0
VERTEX
  8
0
  6
CONTINUOUS
 10
6.081240
 20
4.733080
  0
VERTEX
  8
0
  6
CONTINUOUS
 10
6.116880
 20
4.719880
  0
VERTEX
  8
0
  6
CONTINUOUS
 10
6.146360
 20
4.694360
  0
VERTEX
  8
0
  6
CONTINUOUS
 10
6.165720
 20
4.659160
  0
VERTEX
  8
0
  6
CONTINUOUS
 10
6.171440
 20
4.617800
  0
VERTEX
  8
0
  6
CONTINUOUS
 10
7.307960
 20
4.617800
  0
VERTEX
  8
0
  6
CONTINUOUS
 10
7.307960
 20
4.218720
  0
VERTEX
  8
0
  6
CONTINUOUS
 10
2.428800
 20
4.218720
  0
VERTEX
  8
0
  6
CONTINUOUS
 10
2.428800
 20
5.281320
  0
VERTEX
  8
0
  6
CONTINUOUS
 10
2.430120
 20
5.281320
  0
SEQEND
  8
0
  0
TEXT
  8
0
 10
4.528480
 20
3.955600
 40
0.138107
  1
BA  1205
 41
1.000000
  7
SN0
 71
     0
 72
     5
 11
5.210986
 21
3.955600
  0
TEXT
  8
0
 10
4.345000
 20
3.764200
 40
0.138107
  1
1-1/8" x 4-7/8"
 41
1.000000
  7
SN0
 71
     0
 72
     5
 11
5.393531
 21
3.764200
  0
TEXT
  8
0
 10
2.872760
 20
6.666880
 40
0.138107
  1
BA  1205
 41
1.000000
  7
SN0
 71
     0
 72
     5
 11
3.555266
 21
6.666880
  0
TEXT
  8
0
 10
2.689280
 20
6.475040
 40
0.138107
  1
1-1/8" x 4-7/8"
 41
1.000000
  7
SN0
 71
     0
 72
     5
 11
3.737811
 21
6.475040
  0
POLYLINE
  8
0
  6
CONTINUOUS
 66
     1
 40
0.000000
 41
0.000000
  0
VERTEX
  8
0
  6
CONTINUOUS
 10
7.387160
 20
1.769240
  0
VERTEX
  8
0
  6
CONTINUOUS
 10
6.830560
 20
1.769240
  0
VERTEX
  8
0
  6
CONTINUOUS
 10
6.830560
 20
1.675960
  0
VERTEX
  8
0
  6
CONTINUOUS
 10
6.551160
 20
1.675960
  0
VERTEX
  8
0
  6
CONTINUOUS
 10
6.544120
 20
1.628440
  0
VERTEX
  8
0
  6
CONTINUOUS
 10
6.532680
 20
1.585760
  0
VERTEX
  8
0
  6
CONTINUOUS
 10
6.518160
 20
1.547040
  0
VERTEX
  8
0
  6
CONTINUOUS
 10
6.499680
 20
1.512280
  0
VERTEX
  8
0
  6
CONTINUOUS
 10
6.478120
 20
1.481480
  0
VERTEX
  8
0
  6
CONTINUOUS
 10
6.453040
 20
1.454640
  0
VERTEX
  8
0
  6
CONTINUOUS
 10
6.424880
 20
1.430880
  0
VERTEX
  8
0
  6
CONTINUOUS
 10
6.393640
 20
1.410640
  0
VERTEX
  8
0
  6
CONTINUOUS
 10
6.359320
 20
1.393480
  0
VERTEX
  8
0
  6
CONTINUOUS
 10
6.322360
 20
1.379400
  0
VERTEX
  8
0
  6
CONTINUOUS
 10
6.282760
 20
1.367960
  0
VERTEX
  8
0
  6
CONTINUOUS
 10
6.240520
 20
1.358720
  0
VERTEX
  8
0
  6
CONTINUOUS
 10
6.172760
 20
1.349480
  0
VERTEX
  8
0
  6
CONTINUOUS
 10
6.100600
 20
1.345080
  0
VERTEX
  8
0
  6
CONTINUOUS
 10
6.049560
 20
1.344200
  0
VERTEX
  8
0
  6
CONTINUOUS
 10
6.038120
 20
1.384240
  0
VERTEX
  8
0
  6
CONTINUOUS
 10
6.023160
 20
1.417240
  0
VERTEX
  8
0
  6
CONTINUOUS
 10
6.005120
 20
1.444520
  0
VERTEX
  8
0
  6
CONTINUOUS
 10
5.984440
 20
1.465200
  0
VERTEX
  8
0
  6
CONTINUOUS
 10
5.961560
 20
1.480600
  0
VERTEX
  8
0
  6
CONTINUOUS
 10
5.937800
 20
1.490280
  0
VERTEX
  8
0
  6
CONTINUOUS
 10
5.913160
 20
1.494680
  0
VERTEX
  8
0
  6
CONTINUOUS
 10
5.900840
 20
1.495120
  0
VERTEX
  8
0
  6
CONTINUOUS
 10
5.876200
 20
1.492040
  0
VERTEX
  8
0
  6
CONTINUOUS
 10
5.852880
 20
1.485000
  0
VERTEX
  8
0
  6
CONTINUOUS
 10
5.830880
 20
1.473120
  0
VERTEX
  8
0
  6
CONTINUOUS
 10
5.811080
 20
1.457720
  0
VERTEX
  8
0
  6
CONTINUOUS
 10
5.793920
 20
1.438360
  0
VERTEX
  8
0
  6
CONTINUOUS
 10
5.780280
 20
1.415920
  0
VERTEX
  8
0
  6
CONTINUOUS
 10
5.770160
 20
1.389960
  0
VERTEX
  8
0
  6
CONTINUOUS
 10
5.765320
 20
1.361360
  0
VERTEX
  8
0
  6
CONTINUOUS
 10
5.764440
 20
1.345960
  0
VERTEX
  8
0
  6
CONTINUOUS
 10
5.640800
 20
1.345960
  0
VERTEX
  8
0
  6
CONTINUOUS
 10
5.640800
 20
1.221440
  0
VERTEX
  8
0
  6
CONTINUOUS
 10
3.906760
 20
1.221440
  0
VERTEX
  8
0
  6
CONTINUOUS
 10
3.897080
 20
1.079760
  0
VERTEX
  8
0
  6
CONTINUOUS
 10
3.865400
 20
1.079760
  0
VERTEX
  8
0
  6
CONTINUOUS
 10
3.855280
 20
1.118480
  0
VERTEX
  8
0
  6
CONTINUOUS
 10
3.842520
 20
1.150600
  0
VERTEX
  8
0
  6
CONTINUOUS
 10
3.827560
 20
1.176120
  0
VERTEX
  8
0
  6
CONTINUOUS
 10
3.810840
 20
1.195480
  0
VERTEX
  8
0
  6
CONTINUOUS
 10
3.792800
 20
1.209560
  0
VERTEX
  8
0
  6
CONTINUOUS
 10
3.774320
 20
1.217920
  0
VERTEX
  8
0
  6
CONTINUOUS
 10
3.754960
 20
1.221880
  0
VERTEX
  8
0
  6
CONTINUOUS
 10
3.736040
 20
1.221000
  0
VERTEX
  8
0
  6
CONTINUOUS
 10
3.717560
 20
1.216160
  0
VERTEX
  8
0
  6
CONTINUOUS
 10
3.700400
 20
1.208240
  0
VERTEX
  8
0
  6
CONTINUOUS
 10
3.677520
 20
1.189760
  0
VERTEX
  8
0
  6
CONTINUOUS
 10
3.659480
 20
1.166000
  0
VERTEX
  8
0
  6
CONTINUOUS
 10
3.648480
 20
1.137400
  0
VERTEX
  8
0
  6
CONTINUOUS
 10
3.645840
 20
1.116720
  0
VERTEX
  8
0
  6
CONTINUOUS
 10
3.645840
 20
1.106160
  0
VERTEX
  8
0
  6
CONTINUOUS
 10
2.508880
 20
1.106160
  0
VERTEX
  8
0
  6
CONTINUOUS
 10
2.508880
 20
0.706640
  0
VERTEX
  8
0
  6
CONTINUOUS
 10
7.388480
 20
0.706640
  0
VERTEX
  8
0
  6
CONTINUOUS
 10
7.388480
 20
1.769240
  0
VERTEX
  8
0
  6
CONTINUOUS
 10
7.387160
 20
1.769240
  0
SEQEND
  8
0
  0
ENDSEC
  0
EOF
