  0
SECTION
  2
HEADER
  9
$ACADVER
  1
AC1006
  9
$EXTMIN
 10
1.619200
 20
0.411840
  9
$EXTMAX
 10
7.811760
 20
9.139240
  9
$LTSCALE
 40
0.044000
  9
$PDMODE
 70
    35
  9
$PDSIZE
 40
0.035200
  0
ENDSEC
  0
SECTION
  2
TABLES
  0
TABLE
  2
LTYPE
 70
     9
  0
LTYPE
  2
CONTINUOUS
 70
    64
  3
Solid line
 72
    65
 73
     0
 40
0.000000
  0
LTYPE
  2
DASHED
 70
    64
  3
__ __ __ __ __ __ __ __ __ __ __ __ __ __ __
 72
    65
 73
     2
 40
0.000330
 49
0.000220
 49
-0.000110
  0
LTYPE
  2
HIDDEN
 70
    64
  3
 _ _ _ _ _ _ _ _ _ _ _ _ _ _ _ _ _ _ _ _ _ _
 72
    65
 73
     2
 40
0.000165
 49
0.000110
 49
-0.000055
  0
LTYPE
  2
CENTER
 70
    64
  3
____ _ ____ _ ____ _ ____ _ ____ _ ____ _ ____
 72
    65
 73
     4
 40
0.000880
 49
0.000550
 49
-0.000110
 49
0.000110
 49
-0.000110
  0
LTYPE
  2
PHANTOM
 70
    64
  3
_____ _ _ _____ _ _ _____ _ _ _____ _ _ ____
 72
    65
 73
     6
 40
0.001100
 49
0.000550
 49
-0.000110
 49
0.000110
 49
-0.000110
 49
0.000110
 49
-0.000110
  0
LTYPE
  2
DOT
 70
    64
  3
...............................................
 72
    65
 73
     2
 40
0.000110
 49
0.000000
 49
-0.000110
  0
LTYPE
  2
DASHDOT
 70
    64
  3
__ . __ . __ . __ . __ . __ . __ . __ . __ . __
 72
    65
 73
     4
 40
0.000440
 49
0.000220
 49
-0.000110
 49
0.000000
 49
-0.000110
  0
LTYPE
  2
BORDER
 70
    64
  3
__ __ . __ __ . __ __ . __ __ . __ __ . __ __
 72
    65
 73
     6
 40
0.000770
 49
0.000220
 49
-0.000110
 49
0.000220
 49
-0.000110
 49
0.000000
 49
-0.000110
  0
LTYPE
  2
DIVIDE
 70
    64
  3
__ . . __ . . __ . . __ . . __ . . __ . . __
 72
    65
 73
     6
 40
0.000550
 49
0.000220
 49
-0.000110
 49
0.000000
 49
-0.000110
 49
0.000000
 49
-0.000110
  0
LTYPE
  2
DOTDOT
 70
    64
  3
 . .  . .  . .  . .  . .  . . 
 72
    65
 73
     5
 40
0.000242
 49
-0.000110
 49
0.000000
 49
-0.000110
 49
0.000000
 49
-0.000110
  0
ENDTAB
  0
TABLE
  2
STYLE
 70
     2
  0
STYLE
 70
     0
  2
SN0
 40
0.000000
 41
0.000440
 50
0.000000
 71
     0
 42
0.000000
  3
ROMAND
  0
STYLE
 70
    68
  2
SV0
 40
0.000000
 41
0.000440
 50
0.000000
 71
     0
 42
0.000000
  3
ROMAND
  0
ENDTAB
  0
TABLE
  2
LAYER
 70
     3
  0
LAYER
  2
FOREGROUND
 70
    64
 62
     7
  6
CONTINUOUS
  0
LAYER
  2
BACKGROUND
 70
    65
 62
    -7
  6
CONTINUOUS
  0
LAYER
  2
0
 70
    64
 62
     7
  6
CONTINUOUS
  0
ENDTAB
  0
ENDSEC
  0
SECTION
  2
ENTITIES
  0
POLYLINE
  8
FOREGROUND
  6
CONTINUOUS
 66
     1
 40
0.000000
 41
0.000000
  0
VERTEX
  8
FOREGROUND
  6
CONTINUOUS
 10
0.000000
 20
9.551080
  0
VERTEX
  8
FOREGROUND
  6
CONTINUOUS
 10
8.499920
 20
9.551080
  0
VERTEX
  8
FOREGROUND
  6
CONTINUOUS
 10
8.499920
 20
-1.448920
  0
VERTEX
  8
FOREGROUND
  6
CONTINUOUS
 10
0.000000
 20
-1.448920
  0
VERTEX
  8
FOREGROUND
  6
CONTINUOUS
 10
0.000000
 20
9.551080
  0
SEQEND
  8
0
  0
POLYLINE
  8
FOREGROUND
  6
CONTINUOUS
 66
     1
 40
0.000000
 41
0.000000
  0
VERTEX
  8
FOREGROUND
  6
CONTINUOUS
 10
0.000000
 20
9.551080
  0
VERTEX
  8
FOREGROUND
  6
CONTINUOUS
 10
8.499920
 20
9.551080
  0
VERTEX
  8
FOREGROUND
  6
CONTINUOUS
 10
8.499920
 20
-1.448920
  0
VERTEX
  8
FOREGROUND
  6
CONTINUOUS
 10
0.000000
 20
-1.448920
  0
VERTEX
  8
FOREGROUND
  6
CONTINUOUS
 10
0.000000
 20
9.551080
  0
SEQEND
  8
0
  0
POLYLINE
  8
0
  6
CONTINUOUS
 66
     1
 40
0.014080
 41
0.014080
  0
VERTEX
  8
0
  6
CONTINUOUS
 10
5.385160
 20
6.619800
  0
VERTEX
  8
0
  6
CONTINUOUS
 10
5.374092
 20
6.682085
  0
VERTEX
  8
0
  6
CONTINUOUS
 10
5.363336
 20
6.739600
  0
VERTEX
  8
0
  6
CONTINUOUS
 10
5.352389
 20
6.792587
  0
VERTEX
  8
0
  6
CONTINUOUS
 10
5.340743
 20
6.841284
  0
VERTEX
  8
0
  6
CONTINUOUS
 10
5.327893
 20
6.885933
  0
VERTEX
  8
0
  6
CONTINUOUS
 10
5.313334
 20
6.926774
  0
VERTEX
  8
0
  6
CONTINUOUS
 10
5.296559
 20
6.964046
  0
VERTEX
  8
0
  6
CONTINUOUS
 10
5.277063
 20
6.997989
  0
VERTEX
  8
0
  6
CONTINUOUS
 10
5.254340
 20
7.028845
  0
VERTEX
  8
0
  6
CONTINUOUS
 10
5.227884
 20
7.056853
  0
VERTEX
  8
0
  6
CONTINUOUS
 10
5.197190
 20
7.082253
  0
VERTEX
  8
0
  6
CONTINUOUS
 10
5.161751
 20
7.105286
  0
VERTEX
  8
0
  6
CONTINUOUS
 10
5.121063
 20
7.126191
  0
VERTEX
  8
0
  6
CONTINUOUS
 10
5.074618
 20
7.145210
  0
VERTEX
  8
0
  6
CONTINUOUS
 10
5.021913
 20
7.162581
  0
VERTEX
  8
0
  6
CONTINUOUS
 10
4.962440
 20
7.178545
  0
VERTEX
  8
0
  6
CONTINUOUS
 10
4.895694
 20
7.193343
  0
VERTEX
  8
0
  6
CONTINUOUS
 10
4.821169
 20
7.207215
  0
VERTEX
  8
0
  6
CONTINUOUS
 10
4.738360
 20
7.220400
  0
VERTEX
  8
0
  6
CONTINUOUS
 10
4.738360
 20
7.220400
  0
VERTEX
  8
0
  6
CONTINUOUS
 10
4.725477
 20
7.263815
  0
VERTEX
  8
0
  6
CONTINUOUS
 10
4.707922
 20
7.307815
  0
VERTEX
  8
0
  6
CONTINUOUS
 10
4.683393
 20
7.349752
  0
VERTEX
  8
0
  6
CONTINUOUS
 10
4.649590
 20
7.386979
  0
VERTEX
  8
0
  6
CONTINUOUS
 10
4.604211
 20
7.416848
  0
VERTEX
  8
0
  6
CONTINUOUS
 10
4.544955
 20
7.436711
  0
VERTEX
  8
0
  6
CONTINUOUS
 10
4.469520
 20
7.443920
  0
VERTEX
  8
0
  6
CONTINUOUS
 10
4.463474
 20
7.524398
  0
VERTEX
  8
0
  6
CONTINUOUS
 10
4.459915
 20
7.598033
  0
VERTEX
  8
0
  6
CONTINUOUS
 10
4.459069
 20
7.665244
  0
VERTEX
  8
0
  6
CONTINUOUS
 10
4.461159
 20
7.726449
  0
VERTEX
  8
0
  6
CONTINUOUS
 10
4.466407
 20
7.782068
  0
VERTEX
  8
0
  6
CONTINUOUS
 10
4.475039
 20
7.832521
  0
VERTEX
  8
0
  6
CONTINUOUS
 10
4.487278
 20
7.878226
  0
VERTEX
  8
0
  6
CONTINUOUS
 10
4.503347
 20
7.919604
  0
VERTEX
  8
0
  6
CONTINUOUS
 10
4.523471
 20
7.957073
  0
VERTEX
  8
0
  6
CONTINUOUS
 10
4.547873
 20
7.991052
  0
VERTEX
  8
0
  6
CONTINUOUS
 10
4.576776
 20
8.021961
  0
VERTEX
  8
0
  6
CONTINUOUS
 10
4.610404
 20
8.050219
  0
VERTEX
  8
0
  6
CONTINUOUS
 10
4.648982
 20
8.076245
  0
VERTEX
  8
0
  6
CONTINUOUS
 10
4.692733
 20
8.100459
  0
VERTEX
  8
0
  6
CONTINUOUS
 10
4.741880
 20
8.123280
  0
VERTEX
  8
0
  6
CONTINUOUS
 10
4.829360
 20
8.162746
  0
VERTEX
  8
0
  6
CONTINUOUS
 10
4.904057
 20
8.199984
  0
VERTEX
  8
0
  6
CONTINUOUS
 10
4.967497
 20
8.235221
  0
VERTEX
  8
0
  6
CONTINUOUS
 10
5.021206
 20
8.268684
  0
VERTEX
  8
0
  6
CONTINUOUS
 10
5.066710
 20
8.300600
  0
VERTEX
  8
0
  6
CONTINUOUS
 10
5.105535
 20
8.331196
  0
VERTEX
  8
0
  6
CONTINUOUS
 10
5.139206
 20
8.360699
  0
VERTEX
  8
0
  6
CONTINUOUS
 10
5.169250
 20
8.389336
  0
VERTEX
  8
0
  6
CONTINUOUS
 10
5.197193
 20
8.417334
  0
VERTEX
  8
0
  6
CONTINUOUS
 10
5.224560
 20
8.444920
  0
VERTEX
  8
0
  6
CONTINUOUS
 10
5.246468
 20
8.468777
  0
VERTEX
  8
0
  6
CONTINUOUS
 10
5.268564
 20
8.496319
  0
VERTEX
  8
0
  6
CONTINUOUS
 10
5.291010
 20
8.527095
  0
VERTEX
  8
0
  6
CONTINUOUS
 10
5.313963
 20
8.560658
  0
VERTEX
  8
0
  6
CONTINUOUS
 10
5.337583
 20
8.596559
  0
VERTEX
  8
0
  6
CONTINUOUS
 10
5.362029
 20
8.634350
  0
VERTEX
  8
0
  6
CONTINUOUS
 10
5.387461
 20
8.673582
  0
VERTEX
  8
0
  6
CONTINUOUS
 10
5.414037
 20
8.713806
  0
VERTEX
  8
0
  6
CONTINUOUS
 10
5.441918
 20
8.754575
  0
VERTEX
  8
0
  6
CONTINUOUS
 10
5.471262
 20
8.795440
  0
VERTEX
  8
0
  6
CONTINUOUS
 10
5.502228
 20
8.835952
  0
VERTEX
  8
0
  6
CONTINUOUS
 10
5.534977
 20
8.875662
  0
VERTEX
  8
0
  6
CONTINUOUS
 10
5.569666
 20
8.914123
  0
VERTEX
  8
0
  6
CONTINUOUS
 10
5.606456
 20
8.950885
  0
VERTEX
  8
0
  6
CONTINUOUS
 10
5.645506
 20
8.985501
  0
VERTEX
  8
0
  6
CONTINUOUS
 10
5.686974
 20
9.017521
  0
VERTEX
  8
0
  6
CONTINUOUS
 10
5.731021
 20
9.046497
  0
VERTEX
  8
0
  6
CONTINUOUS
 10
5.777805
 20
9.071981
  0
VERTEX
  8
0
  6
CONTINUOUS
 10
5.827485
 20
9.093525
  0
VERTEX
  8
0
  6
CONTINUOUS
 10
5.880222
 20
9.110679
  0
VERTEX
  8
0
  6
CONTINUOUS
 10
5.936174
 20
9.122995
  0
VERTEX
  8
0
  6
CONTINUOUS
 10
5.995500
 20
9.130025
  0
VERTEX
  8
0
  6
CONTINUOUS
 10
6.058360
 20
9.131320
  0
VERTEX
  8
0
  6
CONTINUOUS
 10
6.058360
 20
9.131320
  0
VERTEX
  8
0
  6
CONTINUOUS
 10
6.063819
 20
9.131320
  0
VERTEX
  8
0
  6
CONTINUOUS
 10
6.102034
 20
9.131320
  0
VERTEX
  8
0
  6
CONTINUOUS
 10
6.205760
 20
9.131320
  0
VERTEX
  8
0
  6
CONTINUOUS
 10
6.268568
 20
9.130025
  0
VERTEX
  8
0
  6
CONTINUOUS
 10
6.327851
 20
9.122995
  0
VERTEX
  8
0
  6
CONTINUOUS
 10
6.383768
 20
9.110679
  0
VERTEX
  8
0
  6
CONTINUOUS
 10
6.436478
 20
9.093525
  0
VERTEX
  8
0
  6
CONTINUOUS
 10
6.486140
 20
9.071981
  0
VERTEX
  8
0
  6
CONTINUOUS
 10
6.532911
 20
9.046497
  0
VERTEX
  8
0
  6
CONTINUOUS
 10
6.576952
 20
9.017521
  0
VERTEX
  8
0
  6
CONTINUOUS
 10
6.618419
 20
8.985501
  0
VERTEX
  8
0
  6
CONTINUOUS
 10
6.657472
 20
8.950885
  0
VERTEX
  8
0
  6
CONTINUOUS
 10
6.694270
 20
8.914123
  0
VERTEX
  8
0
  6
CONTINUOUS
 10
6.728971
 20
8.875662
  0
VERTEX
  8
0
  6
CONTINUOUS
 10
6.761734
 20
8.835952
  0
VERTEX
  8
0
  6
CONTINUOUS
 10
6.792717
 20
8.795440
  0
VERTEX
  8
0
  6
CONTINUOUS
 10
6.822079
 20
8.754575
  0
VERTEX
  8
0
  6
CONTINUOUS
 10
6.849978
 20
8.713806
  0
VERTEX
  8
0
  6
CONTINUOUS
 10
6.876574
 20
8.673582
  0
VERTEX
  8
0
  6
CONTINUOUS
 10
6.902025
 20
8.634350
  0
VERTEX
  8
0
  6
CONTINUOUS
 10
6.926488
 20
8.596559
  0
VERTEX
  8
0
  6
CONTINUOUS
 10
6.950124
 20
8.560658
  0
VERTEX
  8
0
  6
CONTINUOUS
 10
6.973091
 20
8.527095
  0
VERTEX
  8
0
  6
CONTINUOUS
 10
6.995546
 20
8.496319
  0
VERTEX
  8
0
  6
CONTINUOUS
 10
7.017650
 20
8.468777
  0
VERTEX
  8
0
  6
CONTINUOUS
 10
7.039560
 20
8.444920
  0
VERTEX
  8
0
  6
CONTINUOUS
 10
7.039560
 20
8.444920
  0
VERTEX
  8
0
  6
CONTINUOUS
 10
7.066808
 20
8.417334
  0
VERTEX
  8
0
  6
CONTINUOUS
 10
7.094655
 20
8.389336
  0
VERTEX
  8
0
  6
CONTINUOUS
 10
7.124625
 20
8.360699
  0
VERTEX
  8
0
  6
CONTINUOUS
 10
7.158240
 20
8.331196
  0
VERTEX
  8
0
  6
CONTINUOUS
 10
7.197025
 20
8.300600
  0
VERTEX
  8
0
  6
CONTINUOUS
 10
7.242502
 20
8.268684
  0
VERTEX
  8
0
  6
CONTINUOUS
 10
7.296195
 20
8.235221
  0
VERTEX
  8
0
  6
CONTINUOUS
 10
7.359627
 20
8.199984
  0
VERTEX
  8
0
  6
CONTINUOUS
 10
7.434321
 20
8.162746
  0
VERTEX
  8
0
  6
CONTINUOUS
 10
7.521800
 20
8.123280
  0
VERTEX
  8
0
  6
CONTINUOUS
 10
7.521800
 20
8.123280
  0
VERTEX
  8
0
  6
CONTINUOUS
 10
7.570953
 20
8.100459
  0
VERTEX
  8
0
  6
CONTINUOUS
 10
7.614718
 20
8.076245
  0
VERTEX
  8
0
  6
CONTINUOUS
 10
7.653318
 20
8.050219
  0
VERTEX
  8
0
  6
CONTINUOUS
 10
7.686973
 20
8.021961
  0
VERTEX
  8
0
  6
CONTINUOUS
 10
7.715905
 20
7.991052
  0
VERTEX
  8
0
  6
CONTINUOUS
 10
7.740336
 20
7.957073
  0
VERTEX
  8
0
  6
CONTINUOUS
 10
7.760486
 20
7.919604
  0
VERTEX
  8
0
  6
CONTINUOUS
 10
7.776577
 20
7.878226
  0
VERTEX
  8
0
  6
CONTINUOUS
 10
7.788831
 20
7.832521
  0
VERTEX
  8
0
  6
CONTINUOUS
 10
7.797468
 20
7.782068
  0
VERTEX
  8
0
  6
CONTINUOUS
 10
7.802711
 20
7.726449
  0
VERTEX
  8
0
  6
CONTINUOUS
 10
7.804780
 20
7.665244
  0
VERTEX
  8
0
  6
CONTINUOUS
 10
7.803897
 20
7.598033
  0
VERTEX
  8
0
  6
CONTINUOUS
 10
7.800283
 20
7.524398
  0
VERTEX
  8
0
  6
CONTINUOUS
 10
7.794160
 20
7.443920
  0
VERTEX
  8
0
  6
CONTINUOUS
 10
7.718725
 20
7.436711
  0
VERTEX
  8
0
  6
CONTINUOUS
 10
7.659469
 20
7.416848
  0
VERTEX
  8
0
  6
CONTINUOUS
 10
7.614090
 20
7.386979
  0
VERTEX
  8
0
  6
CONTINUOUS
 10
7.580287
 20
7.349752
  0
VERTEX
  8
0
  6
CONTINUOUS
 10
7.555758
 20
7.307815
  0
VERTEX
  8
0
  6
CONTINUOUS
 10
7.538203
 20
7.263815
  0
VERTEX
  8
0
  6
CONTINUOUS
 10
7.525320
 20
7.220400
  0
VERTEX
  8
0
  6
CONTINUOUS
 10
7.442511
 20
7.207215
  0
VERTEX
  8
0
  6
CONTINUOUS
 10
7.367986
 20
7.193343
  0
VERTEX
  8
0
  6
CONTINUOUS
 10
7.301240
 20
7.178545
  0
VERTEX
  8
0
  6
CONTINUOUS
 10
7.241767
 20
7.162581
  0
VERTEX
  8
0
  6
CONTINUOUS
 10
7.189062
 20
7.145210
  0
VERTEX
  8
0
  6
CONTINUOUS
 10
7.142617
 20
7.126191
  0
VERTEX
  8
0
  6
CONTINUOUS
 10
7.101929
 20
7.105286
  0
VERTEX
  8
0
  6
CONTINUOUS
 10
7.066490
 20
7.082253
  0
VERTEX
  8
0
  6
CONTINUOUS
 10
7.035796
 20
7.056853
  0
VERTEX
  8
0
  6
CONTINUOUS
 10
7.009340
 20
7.028845
  0
VERTEX
  8
0
  6
CONTINUOUS
 10
6.986617
 20
6.997989
  0
VERTEX
  8
0
  6
CONTINUOUS
 10
6.967121
 20
6.964046
  0
VERTEX
  8
0
  6
CONTINUOUS
 10
6.950346
 20
6.926774
  0
VERTEX
  8
0
  6
CONTINUOUS
 10
6.935787
 20
6.885933
  0
VERTEX
  8
0
  6
CONTINUOUS
 10
6.922937
 20
6.841284
  0
VERTEX
  8
0
  6
CONTINUOUS
 10
6.911291
 20
6.792587
  0
VERTEX
  8
0
  6
CONTINUOUS
 10
6.900344
 20
6.739600
  0
VERTEX
  8
0
  6
CONTINUOUS
 10
6.889588
 20
6.682085
  0
VERTEX
  8
0
  6
CONTINUOUS
 10
6.878520
 20
6.619800
  0
VERTEX
  8
0
  6
CONTINUOUS
 10
5.385160
 20
6.619800
  0
SEQEND
  8
0
  0
POLYLINE
  8
0
  6
CONTINUOUS
 66
     1
 40
0.000000
 41
0.000000
  0
VERTEX
  8
0
  6
CONTINUOUS
 10
3.195280
 20
0.411840
  0
VERTEX
  8
0
  6
CONTINUOUS
 10
3.184212
 20
0.474187
  0
VERTEX
  8
0
  6
CONTINUOUS
 10
3.173456
 20
0.531752
  0
VERTEX
  8
0
  6
CONTINUOUS
 10
3.162509
 20
0.584775
  0
VERTEX
  8
0
  6
CONTINUOUS
 10
3.150863
 20
0.633498
  0
VERTEX
  8
0
  6
CONTINUOUS
 10
3.138013
 20
0.678162
  0
VERTEX
  8
0
  6
CONTINUOUS
 10
3.123454
 20
0.719009
  0
VERTEX
  8
0
  6
CONTINUOUS
 10
3.106679
 20
0.756280
  0
VERTEX
  8
0
  6
CONTINUOUS
 10
3.087183
 20
0.790216
  0
VERTEX
  8
0
  6
CONTINUOUS
 10
3.064460
 20
0.821058
  0
VERTEX
  8
0
  6
CONTINUOUS
 10
3.038004
 20
0.849049
  0
VERTEX
  8
0
  6
CONTINUOUS
 10
3.007310
 20
0.874429
  0
VERTEX
  8
0
  6
CONTINUOUS
 10
2.971871
 20
0.897439
  0
VERTEX
  8
0
  6
CONTINUOUS
 10
2.931183
 20
0.918321
  0
VERTEX
  8
0
  6
CONTINUOUS
 10
2.884738
 20
0.937317
  0
VERTEX
  8
0
  6
CONTINUOUS
 10
2.832033
 20
0.954667
  0
VERTEX
  8
0
  6
CONTINUOUS
 10
2.772560
 20
0.970613
  0
VERTEX
  8
0
  6
CONTINUOUS
 10
2.705814
 20
0.985396
  0
VERTEX
  8
0
  6
CONTINUOUS
 10
2.631289
 20
0.999258
  0
VERTEX
  8
0
  6
CONTINUOUS
 10
2.548480
 20
1.012440
  0
VERTEX
  8
0
  6
CONTINUOUS
 10
2.548480
 20
1.012440
  0
VERTEX
  8
0
  6
CONTINUOUS
 10
2.535597
 20
1.055879
  0
VERTEX
  8
0
  6
CONTINUOUS
 10
2.518042
 20
1.099942
  0
VERTEX
  8
0
  6
CONTINUOUS
 10
2.493513
 20
1.141965
  0
VERTEX
  8
0
  6
CONTINUOUS
 10
2.459710
 20
1.179286
  0
VERTEX
  8
0
  6
CONTINUOUS
 10
2.414331
 20
1.209241
  0
VERTEX
  8
0
  6
CONTINUOUS
 10
2.355075
 20
1.229166
  0
VERTEX
  8
0
  6
CONTINUOUS
 10
2.279640
 20
1.236400
  0
VERTEX
  8
0
  6
CONTINUOUS
 10
2.273594
 20
1.316796
  0
VERTEX
  8
0
  6
CONTINUOUS
 10
2.270035
 20
1.390361
  0
VERTEX
  8
0
  6
CONTINUOUS
 10
2.269189
 20
1.457512
  0
VERTEX
  8
0
  6
CONTINUOUS
 10
2.271279
 20
1.518671
  0
VERTEX
  8
0
  6
CONTINUOUS
 10
2.276527
 20
1.574255
  0
VERTEX
  8
0
  6
CONTINUOUS
 10
2.285159
 20
1.624684
  0
VERTEX
  8
0
  6
CONTINUOUS
 10
2.297398
 20
1.670378
  0
VERTEX
  8
0
  6
CONTINUOUS
 10
2.313467
 20
1.711755
  0
VERTEX
  8
0
  6
CONTINUOUS
 10
2.333591
 20
1.749236
  0
VERTEX
  8
0
  6
CONTINUOUS
 10
2.357993
 20
1.783239
  0
VERTEX
  8
0
  6
CONTINUOUS
 10
2.386896
 20
1.814183
  0
VERTEX
  8
0
  6
CONTINUOUS
 10
2.420524
 20
1.842488
  0
VERTEX
  8
0
  6
CONTINUOUS
 10
2.459102
 20
1.868573
  0
VERTEX
  8
0
  6
CONTINUOUS
 10
2.502853
 20
1.892857
  0
VERTEX
  8
0
  6
CONTINUOUS
 10
2.552000
 20
1.915760
  0
VERTEX
  8
0
  6
CONTINUOUS
 10
2.639480
 20
1.955107
  0
VERTEX
  8
0
  6
CONTINUOUS
 10
2.714177
 20
1.992253
  0
VERTEX
  8
0
  6
CONTINUOUS
 10
2.777617
 20
2.027424
  0
VERTEX
  8
0
  6
CONTINUOUS
 10
2.831326
 20
2.060847
  0
VERTEX
  8
0
  6
CONTINUOUS
 10
2.876830
 20
2.092750
  0
VERTEX
  8
0
  6
CONTINUOUS
 10
2.915655
 20
2.123359
  0
VERTEX
  8
0
  6
CONTINUOUS
 10
2.949326
 20
2.152902
  0
VERTEX
  8
0
  6
CONTINUOUS
 10
2.979370
 20
2.181604
  0
VERTEX
  8
0
  6
CONTINUOUS
 10
3.007313
 20
2.209695
  0
VERTEX
  8
0
  6
CONTINUOUS
 10
3.034680
 20
2.237400
  0
VERTEX
  8
0
  6
CONTINUOUS
 10
3.034680
 20
2.237400
  0
VERTEX
  8
0
  6
CONTINUOUS
 10
3.056588
 20
2.261255
  0
VERTEX
  8
0
  6
CONTINUOUS
 10
3.078684
 20
2.288789
  0
VERTEX
  8
0
  6
CONTINUOUS
 10
3.101130
 20
2.319554
  0
VERTEX
  8
0
  6
CONTINUOUS
 10
3.124083
 20
2.353102
  0
VERTEX
  8
0
  6
CONTINUOUS
 10
3.147703
 20
2.388986
  0
VERTEX
  8
0
  6
CONTINUOUS
 10
3.172149
 20
2.426756
  0
VERTEX
  8
0
  6
CONTINUOUS
 10
3.197581
 20
2.465964
  0
VERTEX
  8
0
  6
CONTINUOUS
 10
3.224157
 20
2.506164
  0
VERTEX
  8
0
  6
CONTINUOUS
 10
3.252038
 20
2.546906
  0
VERTEX
  8
0
  6
CONTINUOUS
 10
3.281382
 20
2.587743
  0
VERTEX
  8
0
  6
CONTINUOUS
 10
3.312348
 20
2.628226
  0
VERTEX
  8
0
  6
CONTINUOUS
 10
3.345097
 20
2.667908
  0
VERTEX
  8
0
  6
CONTINUOUS
 10
3.379786
 20
2.706340
  0
VERTEX
  8
0
  6
CONTINUOUS
 10
3.416576
 20
2.743074
  0
VERTEX
  8
0
  6
CONTINUOUS
 10
3.455626
 20
2.777663
  0
VERTEX
  8
0
  6
CONTINUOUS
 10
3.497094
 20
2.809658
  0
VERTEX
  8
0
  6
CONTINUOUS
 10
3.541141
 20
2.838611
  0
VERTEX
  8
0
  6
CONTINUOUS
 10
3.587925
 20
2.864075
  0
VERTEX
  8
0
  6
CONTINUOUS
 10
3.637605
 20
2.885600
  0
VERTEX
  8
0
  6
CONTINUOUS
 10
3.690342
 20
2.902739
  0
VERTEX
  8
0
  6
CONTINUOUS
 10
3.746294
 20
2.915044
  0
VERTEX
  8
0
  6
CONTINUOUS
 10
3.805620
 20
2.922067
  0
VERTEX
  8
0
  6
CONTINUOUS
 10
3.868480
 20
2.923360
  0
VERTEX
  8
0
  6
CONTINUOUS
 10
3.873939
 20
2.923360
  0
VERTEX
  8
0
  6
CONTINUOUS
 10
3.912154
 20
2.923360
  0
VERTEX
  8
0
  6
CONTINUOUS
 10
4.015880
 20
2.923360
  0
VERTEX
  8
0
  6
CONTINUOUS
 10
4.078688
 20
2.922067
  0
VERTEX
  8
0
  6
CONTINUOUS
 10
4.137971
 20
2.915044
  0
VERTEX
  8
0
  6
CONTINUOUS
 10
4.193888
 20
2.902739
  0
VERTEX
  8
0
  6
CONTINUOUS
 10
4.246598
 20
2.885600
  0
VERTEX
  8
0
  6
CONTINUOUS
 10
4.296260
 20
2.864075
  0
VERTEX
  8
0
  6
CONTINUOUS
 10
4.343031
 20
2.838611
  0
VERTEX
  8
0
  6
CONTINUOUS
 10
4.387072
 20
2.809658
  0
VERTEX
  8
0
  6
CONTINUOUS
 10
4.428539
 20
2.777663
  0
VERTEX
  8
0
  6
CONTINUOUS
 10
4.467592
 20
2.743074
  0
VERTEX
  8
0
  6
CONTINUOUS
 10
4.504390
 20
2.706340
  0
VERTEX
  8
0
  6
CONTINUOUS
 10
4.539091
 20
2.667908
  0
VERTEX
  8
0
  6
CONTINUOUS
 10
4.571854
 20
2.628226
  0
VERTEX
  8
0
  6
CONTINUOUS
 10
4.602837
 20
2.587743
  0
VERTEX
  8
0
  6
CONTINUOUS
 10
4.632199
 20
2.546906
  0
VERTEX
  8
0
  6
CONTINUOUS
 10
4.660098
 20
2.506164
  0
VERTEX
  8
0
  6
CONTINUOUS
 10
4.686694
 20
2.465964
  0
VERTEX
  8
0
  6
CONTINUOUS
 10
4.712145
 20
2.426756
  0
VERTEX
  8
0
  6
CONTINUOUS
 10
4.736608
 20
2.388986
  0
VERTEX
  8
0
  6
CONTINUOUS
 10
4.760244
 20
2.353102
  0
VERTEX
  8
0
  6
CONTINUOUS
 10
4.783211
 20
2.319554
  0
VERTEX
  8
0
  6
CONTINUOUS
 10
4.805666
 20
2.288789
  0
VERTEX
  8
0
  6
CONTINUOUS
 10
4.827770
 20
2.261255
  0
VERTEX
  8
0
  6
CONTINUOUS
 10
4.849680
 20
2.237400
  0
VERTEX
  8
0
  6
CONTINUOUS
 10
4.876928
 20
2.209695
  0
VERTEX
  8
0
  6
CONTINUOUS
 10
4.904775
 20
2.181604
  0
VERTEX
  8
0
  6
CONTINUOUS
 10
4.934745
 20
2.152902
  0
VERTEX
  8
0
  6
CONTINUOUS
 10
4.968360
 20
2.123359
  0
VERTEX
  8
0
  6
CONTINUOUS
 10
5.007145
 20
2.092750
  0
VERTEX
  8
0
  6
CONTINUOUS
 10
5.052622
 20
2.060847
  0
VERTEX
  8
0
  6
CONTINUOUS
 10
5.106315
 20
2.027424
  0
VERTEX
  8
0
  6
CONTINUOUS
 10
5.169747
 20
1.992253
  0
VERTEX
  8
0
  6
CONTINUOUS
 10
5.244441
 20
1.955107
  0
VERTEX
  8
0
  6
CONTINUOUS
 10
5.331920
 20
1.915760
  0
VERTEX
  8
0
  6
CONTINUOUS
 10
5.381073
 20
1.892857
  0
VERTEX
  8
0
  6
CONTINUOUS
 10
5.424838
 20
1.868573
  0
VERTEX
  8
0
  6
CONTINUOUS
 10
5.463438
 20
1.842488
  0
VERTEX
  8
0
  6
CONTINUOUS
 10
5.497093
 20
1.814183
  0
VERTEX
  8
0
  6
CONTINUOUS
 10
5.526025
 20
1.783239
  0
VERTEX
  8
0
  6
CONTINUOUS
 10
5.550456
 20
1.749236
  0
VERTEX
  8
0
  6
CONTINUOUS
 10
5.570606
 20
1.711755
  0
VERTEX
  8
0
  6
CONTINUOUS
 10
5.586697
 20
1.670378
  0
VERTEX
  8
0
  6
CONTINUOUS
 10
5.598951
 20
1.624684
  0
VERTEX
  8
0
  6
CONTINUOUS
 10
5.607588
 20
1.574255
  0
VERTEX
  8
0
  6
CONTINUOUS
 10
5.612831
 20
1.518671
  0
VERTEX
  8
0
  6
CONTINUOUS
 10
5.614900
 20
1.457512
  0
VERTEX
  8
0
  6
CONTINUOUS
 10
5.614017
 20
1.390361
  0
VERTEX
  8
0
  6
CONTINUOUS
 10
5.610403
 20
1.316796
  0
VERTEX
  8
0
  6
CONTINUOUS
 10
5.604280
 20
1.236400
  0
VERTEX
  8
0
  6
CONTINUOUS
 10
5.528845
 20
1.229166
  0
VERTEX
  8
0
  6
CONTINUOUS
 10
5.469589
 20
1.209241
  0
VERTEX
  8
0
  6
CONTINUOUS
 10
5.424210
 20
1.179286
  0
VERTEX
  8
0
  6
CONTINUOUS
 10
5.390407
 20
1.141965
  0
VERTEX
  8
0
  6
CONTINUOUS
 10
5.365878
 20
1.099942
  0
VERTEX
  8
0
  6
CONTINUOUS
 10
5.348323
 20
1.055879
  0
VERTEX
  8
0
  6
CONTINUOUS
 10
5.335440
 20
1.012440
  0
VERTEX
  8
0
  6
CONTINUOUS
 10
5.252631
 20
0.999258
  0
VERTEX
  8
0
  6
CONTINUOUS
 10
5.178106
 20
0.985396
  0
VERTEX
  8
0
  6
CONTINUOUS
 10
5.111360
 20
0.970613
  0
VERTEX
  8
0
  6
CONTINUOUS
 10
5.051887
 20
0.954667
  0
VERTEX
  8
0
  6
CONTINUOUS
 10
4.999182
 20
0.937317
  0
VERTEX
  8
0
  6
CONTINUOUS
 10
4.952737
 20
0.918321
  0
VERTEX
  8
0
  6
CONTINUOUS
 10
4.912049
 20
0.897439
  0
VERTEX
  8
0
  6
CONTINUOUS
 10
4.876610
 20
0.874429
  0
VERTEX
  8
0
  6
CONTINUOUS
 10
4.845916
 20
0.849049
  0
VERTEX
  8
0
  6
CONTINUOUS
 10
4.819460
 20
0.821058
  0
VERTEX
  8
0
  6
CONTINUOUS
 10
4.796737
 20
0.790216
  0
VERTEX
  8
0
  6
CONTINUOUS
 10
4.777241
 20
0.756280
  0
VERTEX
  8
0
  6
CONTINUOUS
 10
4.760466
 20
0.719009
  0
VERTEX
  8
0
  6
CONTINUOUS
 10
4.745907
 20
0.678162
  0
VERTEX
  8
0
  6
CONTINUOUS
 10
4.733057
 20
0.633498
  0
VERTEX
  8
0
  6
CONTINUOUS
 10
4.721411
 20
0.584775
  0
VERTEX
  8
0
  6
CONTINUOUS
 10
4.710464
 20
0.531752
  0
VERTEX
  8
0
  6
CONTINUOUS
 10
4.699708
 20
0.474187
  0
VERTEX
  8
0
  6
CONTINUOUS
 10
4.688640
 20
0.411840
  0
VERTEX
  8
0
  6
CONTINUOUS
 10
3.195280
 20
0.411840
  0
SEQEND
  8
0
  0
SOLID
  8
0
 62
    15
 10
4.356880
 20
5.695360
 11
5.001040
 21
6.063640
 12
4.414520
 22
5.655320
 13
5.059120
 23
6.023600
  0
POLYLINE
  8
0
  6
CONTINUOUS
 66
     1
 40
0.000000
 41
0.000000
  0
VERTEX
  8
0
  6
CONTINUOUS
 10
4.356880
 20
5.695360
  0
VERTEX
  8
0
  6
CONTINUOUS
 10
5.001040
 20
6.063640
  0
VERTEX
  8
0
  6
CONTINUOUS
 10
5.059120
 20
6.023600
  0
VERTEX
  8
0
  6
CONTINUOUS
 10
4.414520
 20
5.655320
  0
VERTEX
  8
0
  6
CONTINUOUS
 10
4.356880
 20
5.695360
  0
SEQEND
  8
0
  0
SOLID
  8
0
 62
    15
 10
1.901240
 20
5.518040
 11
2.545840
 21
5.886760
 12
2.008600
 22
5.567320
 13
2.653200
 23
5.935600
  0
POLYLINE
  8
0
  6
CONTINUOUS
 66
     1
 40
0.000000
 41
0.000000
  0
VERTEX
  8
0
  6
CONTINUOUS
 10
1.901240
 20
5.518040
  0
VERTEX
  8
0
  6
CONTINUOUS
 10
2.545840
 20
5.886760
  0
VERTEX
  8
0
  6
CONTINUOUS
 10
2.653200
 20
5.935600
  0
VERTEX
  8
0
  6
CONTINUOUS
 10
2.008600
 20
5.567320
  0
VERTEX
  8
0
  6
CONTINUOUS
 10
1.901240
 20
5.518040
  0
SEQEND
  8
0
  0
SOLID
  8
0
 62
    15
 10
2.008600
 20
5.567320
 11
2.653200
 21
5.935600
 12
2.096600
 22
5.612640
 13
2.740760
 23
5.980920
  0
POLYLINE
  8
0
  6
CONTINUOUS
 66
     1
 40
0.000000
 41
0.000000
  0
VERTEX
  8
0
  6
CONTINUOUS
 10
2.008600
 20
5.567320
  0
VERTEX
  8
0
  6
CONTINUOUS
 10
2.653200
 20
5.935600
  0
VERTEX
  8
0
  6
CONTINUOUS
 10
2.740760
 20
5.980920
  0
VERTEX
  8
0
  6
CONTINUOUS
 10
2.096600
 20
5.612640
  0
VERTEX
  8
0
  6
CONTINUOUS
 10
2.008600
 20
5.567320
  0
SEQEND
  8
0
  0
SOLID
  8
0
 62
    15
 10
2.901800
 20
6.447760
 11
3.546400
 21
6.816040
 12
3.046560
 22
6.507160
 13
3.690720
 23
6.875440
  0
POLYLINE
  8
0
  6
CONTINUOUS
 66
     1
 40
0.000000
 41
0.000000
  0
VERTEX
  8
0
  6
CONTINUOUS
 10
2.901800
 20
6.447760
  0
VERTEX
  8
0
  6
CONTINUOUS
 10
3.546400
 20
6.816040
  0
VERTEX
  8
0
  6
CONTINUOUS
 10
3.690720
 20
6.875440
  0
VERTEX
  8
0
  6
CONTINUOUS
 10
3.046560
 20
6.507160
  0
VERTEX
  8
0
  6
CONTINUOUS
 10
2.901800
 20
6.447760
  0
SEQEND
  8
0
  0
SOLID
  8
0
 62
    15
 10
3.046560
 20
6.507160
 11
3.690720
 21
6.875440
 12
3.128400
 22
6.522120
 13
3.773000
 23
6.890400
  0
POLYLINE
  8
0
  6
CONTINUOUS
 66
     1
 40
0.000000
 41
0.000000
  0
VERTEX
  8
0
  6
CONTINUOUS
 10
3.046560
 20
6.507160
  0
VERTEX
  8
0
  6
CONTINUOUS
 10
3.690720
 20
6.875440
  0
VERTEX
  8
0
  6
CONTINUOUS
 10
3.773000
 20
6.890400
  0
VERTEX
  8
0
  6
CONTINUOUS
 10
3.128400
 20
6.522120
  0
VERTEX
  8
0
  6
CONTINUOUS
 10
3.046560
 20
6.507160
  0
SEQEND
  8
0
  0
SOLID
  8
0
 62
    15
 10
3.128400
 20
6.522120
 11
3.773000
 21
6.890400
 12
3.217720
 22
6.526080
 13
3.861880
 23
6.894360
  0
POLYLINE
  8
0
  6
CONTINUOUS
 66
     1
 40
0.000000
 41
0.000000
  0
VERTEX
  8
0
  6
CONTINUOUS
 10
3.128400
 20
6.522120
  0
VERTEX
  8
0
  6
CONTINUOUS
 10
3.773000
 20
6.890400
  0
VERTEX
  8
0
  6
CONTINUOUS
 10
3.861880
 20
6.894360
  0
VERTEX
  8
0
  6
CONTINUOUS
 10
3.217720
 20
6.526080
  0
VERTEX
  8
0
  6
CONTINUOUS
 10
3.128400
 20
6.522120
  0
SEQEND
  8
0
  0
SOLID
  8
0
 62
    15
 10
3.217720
 20
6.526080
 11
3.861880
 21
6.894360
 12
3.365120
 22
6.526080
 13
4.009280
 23
6.894360
  0
POLYLINE
  8
0
  6
CONTINUOUS
 66
     1
 40
0.000000
 41
0.000000
  0
VERTEX
  8
0
  6
CONTINUOUS
 10
3.217720
 20
6.526080
  0
VERTEX
  8
0
  6
CONTINUOUS
 10
3.861880
 20
6.894360
  0
VERTEX
  8
0
  6
CONTINUOUS
 10
4.009280
 20
6.894360
  0
VERTEX
  8
0
  6
CONTINUOUS
 10
3.365120
 20
6.526080
  0
VERTEX
  8
0
  6
CONTINUOUS
 10
3.217720
 20
6.526080
  0
SEQEND
  8
0
  0
SOLID
  8
0
 62
    15
 10
3.365120
 20
6.526080
 11
4.009280
 21
6.894360
 12
3.454440
 22
6.522120
 13
4.098600
 23
6.890400
  0
POLYLINE
  8
0
  6
CONTINUOUS
 66
     1
 40
0.000000
 41
0.000000
  0
VERTEX
  8
0
  6
CONTINUOUS
 10
3.365120
 20
6.526080
  0
VERTEX
  8
0
  6
CONTINUOUS
 10
4.009280
 20
6.894360
  0
VERTEX
  8
0
  6
CONTINUOUS
 10
4.098600
 20
6.890400
  0
VERTEX
  8
0
  6
CONTINUOUS
 10
3.454440
 20
6.522120
  0
VERTEX
  8
0
  6
CONTINUOUS
 10
3.365120
 20
6.526080
  0
SEQEND
  8
0
  0
SOLID
  8
0
 62
    15
 10
3.454440
 20
6.522120
 11
4.098600
 21
6.890400
 12
3.536280
 22
6.507160
 13
4.180880
 23
6.875440
  0
POLYLINE
  8
0
  6
CONTINUOUS
 66
     1
 40
0.000000
 41
0.000000
  0
VERTEX
  8
0
  6
CONTINUOUS
 10
3.454440
 20
6.522120
  0
VERTEX
  8
0
  6
CONTINUOUS
 10
4.098600
 20
6.890400
  0
VERTEX
  8
0
  6
CONTINUOUS
 10
4.180880
 20
6.875440
  0
VERTEX
  8
0
  6
CONTINUOUS
 10
3.536280
 20
6.507160
  0
VERTEX
  8
0
  6
CONTINUOUS
 10
3.454440
 20
6.522120
  0
SEQEND
  8
0
  0
SOLID
  8
0
 62
    15
 10
3.536280
 20
6.507160
 11
4.180880
 21
6.875440
 12
3.681040
 22
6.447760
 13
4.325200
 23
6.816040
  0
POLYLINE
  8
0
  6
CONTINUOUS
 66
     1
 40
0.000000
 41
0.000000
  0
VERTEX
  8
0
  6
CONTINUOUS
 10
3.536280
 20
6.507160
  0
VERTEX
  8
0
  6
CONTINUOUS
 10
4.180880
 20
6.875440
  0
VERTEX
  8
0
  6
CONTINUOUS
 10
4.325200
 20
6.816040
  0
VERTEX
  8
0
  6
CONTINUOUS
 10
3.681040
 20
6.447760
  0
VERTEX
  8
0
  6
CONTINUOUS
 10
3.536280
 20
6.507160
  0
SEQEND
  8
0
  0
SOLID
  8
0
 62
    15
 10
3.681040
 20
6.447760
 11
4.325200
 21
6.816040
 12
3.802480
 22
6.358880
 13
4.447080
 23
6.727160
  0
POLYLINE
  8
0
  6
CONTINUOUS
 66
     1
 40
0.000000
 41
0.000000
  0
VERTEX
  8
0
  6
CONTINUOUS
 10
3.681040
 20
6.447760
  0
VERTEX
  8
0
  6
CONTINUOUS
 10
4.325200
 20
6.816040
  0
VERTEX
  8
0
  6
CONTINUOUS
 10
4.447080
 20
6.727160
  0
VERTEX
  8
0
  6
CONTINUOUS
 10
3.802480
 20
6.358880
  0
VERTEX
  8
0
  6
CONTINUOUS
 10
3.681040
 20
6.447760
  0
SEQEND
  8
0
  0
SOLID
  8
0
 62
    15
 10
3.802480
 20
6.358880
 11
4.447080
 21
6.727160
 12
3.905000
 22
6.250640
 13
4.549600
 23
6.618920
  0
POLYLINE
  8
0
  6
CONTINUOUS
 66
     1
 40
0.000000
 41
0.000000
  0
VERTEX
  8
0
  6
CONTINUOUS
 10
3.802480
 20
6.358880
  0
VERTEX
  8
0
  6
CONTINUOUS
 10
4.447080
 20
6.727160
  0
VERTEX
  8
0
  6
CONTINUOUS
 10
4.549600
 20
6.618920
  0
VERTEX
  8
0
  6
CONTINUOUS
 10
3.905000
 20
6.250640
  0
VERTEX
  8
0
  6
CONTINUOUS
 10
3.802480
 20
6.358880
  0
SEQEND
  8
0
  0
SOLID
  8
0
 62
    15
 10
3.905000
 20
6.250640
 11
4.549600
 21
6.618920
 12
3.992120
 22
6.134040
 13
4.636280
 23
6.502320
  0
POLYLINE
  8
0
  6
CONTINUOUS
 66
     1
 40
0.000000
 41
0.000000
  0
VERTEX
  8
0
  6
CONTINUOUS
 10
3.905000
 20
6.250640
  0
VERTEX
  8
0
  6
CONTINUOUS
 10
4.549600
 20
6.618920
  0
VERTEX
  8
0
  6
CONTINUOUS
 10
4.636280
 20
6.502320
  0
VERTEX
  8
0
  6
CONTINUOUS
 10
3.992120
 20
6.134040
  0
VERTEX
  8
0
  6
CONTINUOUS
 10
3.905000
 20
6.250640
  0
SEQEND
  8
0
  0
SOLID
  8
0
 62
    15
 10
3.992120
 20
6.134040
 11
4.636280
 21
6.502320
 12
4.031280
 22
6.075960
 13
4.675440
 23
6.444240
  0
POLYLINE
  8
0
  6
CONTINUOUS
 66
     1
 40
0.000000
 41
0.000000
  0
VERTEX
  8
0
  6
CONTINUOUS
 10
3.992120
 20
6.134040
  0
VERTEX
  8
0
  6
CONTINUOUS
 10
4.636280
 20
6.502320
  0
VERTEX
  8
0
  6
CONTINUOUS
 10
4.675440
 20
6.444240
  0
VERTEX
  8
0
  6
CONTINUOUS
 10
4.031280
 20
6.075960
  0
VERTEX
  8
0
  6
CONTINUOUS
 10
3.992120
 20
6.134040
  0
SEQEND
  8
0
  0
SOLID
  8
0
 62
    15
 10
4.031280
 20
6.075960
 11
4.675440
 21
6.444240
 12
4.067800
 22
6.019640
 13
4.711960
 23
6.387920
  0
POLYLINE
  8
0
  6
CONTINUOUS
 66
     1
 40
0.000000
 41
0.000000
  0
VERTEX
  8
0
  6
CONTINUOUS
 10
4.031280
 20
6.075960
  0
VERTEX
  8
0
  6
CONTINUOUS
 10
4.675440
 20
6.444240
  0
VERTEX
  8
0
  6
CONTINUOUS
 10
4.711960
 20
6.387920
  0
VERTEX
  8
0
  6
CONTINUOUS
 10
4.067800
 20
6.019640
  0
VERTEX
  8
0
  6
CONTINUOUS
 10
4.031280
 20
6.075960
  0
SEQEND
  8
0
  0
SOLID
  8
0
 62
    15
 10
4.067800
 20
6.019640
 11
4.711960
 21
6.387920
 12
4.135560
 22
5.918000
 13
4.779720
 23
6.286280
  0
POLYLINE
  8
0
  6
CONTINUOUS
 66
     1
 40
0.000000
 41
0.000000
  0
VERTEX
  8
0
  6
CONTINUOUS
 10
4.067800
 20
6.019640
  0
VERTEX
  8
0
  6
CONTINUOUS
 10
4.711960
 20
6.387920
  0
VERTEX
  8
0
  6
CONTINUOUS
 10
4.779720
 20
6.286280
  0
VERTEX
  8
0
  6
CONTINUOUS
 10
4.135560
 20
5.918000
  0
VERTEX
  8
0
  6
CONTINUOUS
 10
4.067800
 20
6.019640
  0
SEQEND
  8
0
  0
SOLID
  8
0
 62
    15
 10
4.135560
 20
5.918000
 11
4.779720
 21
6.286280
 12
4.198920
 22
5.840120
 13
4.843080
 23
6.208400
  0
POLYLINE
  8
0
  6
CONTINUOUS
 66
     1
 40
0.000000
 41
0.000000
  0
VERTEX
  8
0
  6
CONTINUOUS
 10
4.135560
 20
5.918000
  0
VERTEX
  8
0
  6
CONTINUOUS
 10
4.779720
 20
6.286280
  0
VERTEX
  8
0
  6
CONTINUOUS
 10
4.843080
 20
6.208400
  0
VERTEX
  8
0
  6
CONTINUOUS
 10
4.198920
 20
5.840120
  0
VERTEX
  8
0
  6
CONTINUOUS
 10
4.135560
 20
5.918000
  0
SEQEND
  8
0
  0
SOLID
  8
0
 62
    15
 10
4.198920
 20
5.840120
 11
4.843080
 21
6.208400
 12
4.268880
 22
5.770160
 13
4.913040
 23
6.138440
  0
POLYLINE
  8
0
  6
CONTINUOUS
 66
     1
 40
0.000000
 41
0.000000
  0
VERTEX
  8
0
  6
CONTINUOUS
 10
4.198920
 20
5.840120
  0
VERTEX
  8
0
  6
CONTINUOUS
 10
4.843080
 20
6.208400
  0
VERTEX
  8
0
  6
CONTINUOUS
 10
4.913040
 20
6.138440
  0
VERTEX
  8
0
  6
CONTINUOUS
 10
4.268880
 20
5.770160
  0
VERTEX
  8
0
  6
CONTINUOUS
 10
4.198920
 20
5.840120
  0
SEQEND
  8
0
  0
SOLID
  8
0
 62
    15
 10
4.268880
 20
5.770160
 11
4.913040
 21
6.138440
 12
4.356880
 22
5.695360
 13
5.001040
 23
6.063640
  0
POLYLINE
  8
0
  6
CONTINUOUS
 66
     1
 40
0.000000
 41
0.000000
  0
VERTEX
  8
0
  6
CONTINUOUS
 10
4.268880
 20
5.770160
  0
VERTEX
  8
0
  6
CONTINUOUS
 10
4.913040
 20
6.138440
  0
VERTEX
  8
0
  6
CONTINUOUS
 10
5.001040
 20
6.063640
  0
VERTEX
  8
0
  6
CONTINUOUS
 10
4.356880
 20
5.695360
  0
VERTEX
  8
0
  6
CONTINUOUS
 10
4.268880
 20
5.770160
  0
SEQEND
  8
0
  0
SOLID
  8
0
 62
    15
 10
1.813680
 20
5.474480
 11
2.457840
 21
5.842760
 12
1.901240
 22
5.518040
 13
2.545840
 23
5.886760
  0
POLYLINE
  8
0
  6
CONTINUOUS
 66
     1
 40
0.000000
 41
0.000000
  0
VERTEX
  8
0
  6
CONTINUOUS
 10
1.813680
 20
5.474480
  0
VERTEX
  8
0
  6
CONTINUOUS
 10
2.457840
 20
5.842760
  0
VERTEX
  8
0
  6
CONTINUOUS
 10
2.545840
 20
5.886760
  0
VERTEX
  8
0
  6
CONTINUOUS
 10
1.901240
 20
5.518040
  0
VERTEX
  8
0
  6
CONTINUOUS
 10
1.813680
 20
5.474480
  0
SEQEND
  8
0
  0
SOLID
  8
0
 62
    15
 10
4.414520
 20
5.655320
 11
5.059120
 21
6.023600
 12
4.486240
 22
5.612640
 13
5.130400
 23
5.980920
  0
POLYLINE
  8
0
  6
CONTINUOUS
 66
     1
 40
0.000000
 41
0.000000
  0
VERTEX
  8
0
  6
CONTINUOUS
 10
4.414520
 20
5.655320
  0
VERTEX
  8
0
  6
CONTINUOUS
 10
5.059120
 20
6.023600
  0
VERTEX
  8
0
  6
CONTINUOUS
 10
5.130400
 20
5.980920
  0
VERTEX
  8
0
  6
CONTINUOUS
 10
4.486240
 20
5.612640
  0
VERTEX
  8
0
  6
CONTINUOUS
 10
4.414520
 20
5.655320
  0
SEQEND
  8
0
  0
SOLID
  8
0
 62
    15
 10
4.486240
 20
5.612640
 11
5.130400
 21
5.980920
 12
4.574240
 22
5.567320
 13
5.218400
 23
5.935600
  0
POLYLINE
  8
0
  6
CONTINUOUS
 66
     1
 40
0.000000
 41
0.000000
  0
VERTEX
  8
0
  6
CONTINUOUS
 10
4.486240
 20
5.612640
  0
VERTEX
  8
0
  6
CONTINUOUS
 10
5.130400
 20
5.980920
  0
VERTEX
  8
0
  6
CONTINUOUS
 10
5.218400
 20
5.935600
  0
VERTEX
  8
0
  6
CONTINUOUS
 10
4.574240
 20
5.567320
  0
VERTEX
  8
0
  6
CONTINUOUS
 10
4.486240
 20
5.612640
  0
SEQEND
  8
0
  0
SOLID
  8
0
 62
    15
 10
4.574240
 20
5.567320
 11
5.218400
 21
5.935600
 12
4.681600
 22
5.518040
 13
5.325760
 23
5.886760
  0
POLYLINE
  8
0
  6
CONTINUOUS
 66
     1
 40
0.000000
 41
0.000000
  0
VERTEX
  8
0
  6
CONTINUOUS
 10
4.574240
 20
5.567320
  0
VERTEX
  8
0
  6
CONTINUOUS
 10
5.218400
 20
5.935600
  0
VERTEX
  8
0
  6
CONTINUOUS
 10
5.325760
 20
5.886760
  0
VERTEX
  8
0
  6
CONTINUOUS
 10
4.681600
 20
5.518040
  0
VERTEX
  8
0
  6
CONTINUOUS
 10
4.574240
 20
5.567320
  0
SEQEND
  8
0
  0
SOLID
  8
0
 62
    15
 10
4.681600
 20
5.518040
 11
5.325760
 21
5.886760
 12
4.769160
 22
5.474480
 13
5.413320
 23
5.842760
  0
POLYLINE
  8
0
  6
CONTINUOUS
 66
     1
 40
0.000000
 41
0.000000
  0
VERTEX
  8
0
  6
CONTINUOUS
 10
4.681600
 20
5.518040
  0
VERTEX
  8
0
  6
CONTINUOUS
 10
5.325760
 20
5.886760
  0
VERTEX
  8
0
  6
CONTINUOUS
 10
5.413320
 20
5.842760
  0
VERTEX
  8
0
  6
CONTINUOUS
 10
4.769160
 20
5.474480
  0
VERTEX
  8
0
  6
CONTINUOUS
 10
4.681600
 20
5.518040
  0
SEQEND
  8
0
  0
SOLID
  8
0
 62
    15
 10
4.769160
 20
5.474480
 11
5.413320
 21
5.842760
 12
4.838680
 22
5.424320
 13
5.482840
 23
5.792600
  0
POLYLINE
  8
0
  6
CONTINUOUS
 66
     1
 40
0.000000
 41
0.000000
  0
VERTEX
  8
0
  6
CONTINUOUS
 10
4.769160
 20
5.474480
  0
VERTEX
  8
0
  6
CONTINUOUS
 10
5.413320
 20
5.842760
  0
VERTEX
  8
0
  6
CONTINUOUS
 10
5.482840
 20
5.792600
  0
VERTEX
  8
0
  6
CONTINUOUS
 10
4.838680
 20
5.424320
  0
VERTEX
  8
0
  6
CONTINUOUS
 10
4.769160
 20
5.474480
  0
SEQEND
  8
0
  0
SOLID
  8
0
 62
    15
 10
4.838680
 20
5.424320
 11
5.482840
 21
5.792600
 12
4.891040
 22
5.364920
 13
5.535640
 23
5.733200
  0
POLYLINE
  8
0
  6
CONTINUOUS
 66
     1
 40
0.000000
 41
0.000000
  0
VERTEX
  8
0
  6
CONTINUOUS
 10
4.838680
 20
5.424320
  0
VERTEX
  8
0
  6
CONTINUOUS
 10
5.482840
 20
5.792600
  0
VERTEX
  8
0
  6
CONTINUOUS
 10
5.535640
 20
5.733200
  0
VERTEX
  8
0
  6
CONTINUOUS
 10
4.891040
 20
5.364920
  0
VERTEX
  8
0
  6
CONTINUOUS
 10
4.838680
 20
5.424320
  0
SEQEND
  8
0
  0
SOLID
  8
0
 62
    15
 10
4.891040
 20
5.364920
 11
5.535640
 21
5.733200
 12
4.928440
 22
5.294080
 13
5.572600
 23
5.662360
  0
POLYLINE
  8
0
  6
CONTINUOUS
 66
     1
 40
0.000000
 41
0.000000
  0
VERTEX
  8
0
  6
CONTINUOUS
 10
4.891040
 20
5.364920
  0
VERTEX
  8
0
  6
CONTINUOUS
 10
5.535640
 20
5.733200
  0
VERTEX
  8
0
  6
CONTINUOUS
 10
5.572600
 20
5.662360
  0
VERTEX
  8
0
  6
CONTINUOUS
 10
4.928440
 20
5.294080
  0
VERTEX
  8
0
  6
CONTINUOUS
 10
4.891040
 20
5.364920
  0
SEQEND
  8
0
  0
SOLID
  8
0
 62
    15
 10
4.928440
 20
5.294080
 11
5.572600
 21
5.662360
 12
4.951760
 22
5.209160
 13
5.596360
 23
5.577440
  0
POLYLINE
  8
0
  6
CONTINUOUS
 66
     1
 40
0.000000
 41
0.000000
  0
VERTEX
  8
0
  6
CONTINUOUS
 10
4.928440
 20
5.294080
  0
VERTEX
  8
0
  6
CONTINUOUS
 10
5.572600
 20
5.662360
  0
VERTEX
  8
0
  6
CONTINUOUS
 10
5.596360
 20
5.577440
  0
VERTEX
  8
0
  6
CONTINUOUS
 10
4.951760
 20
5.209160
  0
VERTEX
  8
0
  6
CONTINUOUS
 10
4.928440
 20
5.294080
  0
SEQEND
  8
0
  0
SOLID
  8
0
 62
    15
 10
4.951760
 20
5.209160
 11
5.596360
 21
5.577440
 12
4.963200
 22
5.106640
 13
5.607360
 23
5.474920
  0
POLYLINE
  8
0
  6
CONTINUOUS
 66
     1
 40
0.000000
 41
0.000000
  0
VERTEX
  8
0
  6
CONTINUOUS
 10
4.951760
 20
5.209160
  0
VERTEX
  8
0
  6
CONTINUOUS
 10
5.596360
 20
5.577440
  0
VERTEX
  8
0
  6
CONTINUOUS
 10
5.607360
 20
5.474920
  0
VERTEX
  8
0
  6
CONTINUOUS
 10
4.963200
 20
5.106640
  0
VERTEX
  8
0
  6
CONTINUOUS
 10
4.951760
 20
5.209160
  0
SEQEND
  8
0
  0
SOLID
  8
0
 62
    15
 10
4.963200
 20
5.106640
 11
5.607360
 21
5.474920
 12
4.963200
 22
4.984320
 13
5.607360
 23
5.352600
  0
POLYLINE
  8
0
  6
CONTINUOUS
 66
     1
 40
0.000000
 41
0.000000
  0
VERTEX
  8
0
  6
CONTINUOUS
 10
4.963200
 20
5.106640
  0
VERTEX
  8
0
  6
CONTINUOUS
 10
5.607360
 20
5.474920
  0
VERTEX
  8
0
  6
CONTINUOUS
 10
5.607360
 20
5.352600
  0
VERTEX
  8
0
  6
CONTINUOUS
 10
4.963200
 20
4.984320
  0
VERTEX
  8
0
  6
CONTINUOUS
 10
4.963200
 20
5.106640
  0
SEQEND
  8
0
  0
SOLID
  8
0
 62
    15
 10
4.181760
 20
4.437840
 11
4.825920
 21
4.806120
 12
4.128960
 22
4.363480
 13
4.773120
 23
4.731760
  0
POLYLINE
  8
0
  6
CONTINUOUS
 66
     1
 40
0.000000
 41
0.000000
  0
VERTEX
  8
0
  6
CONTINUOUS
 10
4.181760
 20
4.437840
  0
VERTEX
  8
0
  6
CONTINUOUS
 10
4.825920
 20
4.806120
  0
VERTEX
  8
0
  6
CONTINUOUS
 10
4.773120
 20
4.731760
  0
VERTEX
  8
0
  6
CONTINUOUS
 10
4.128960
 20
4.363480
  0
VERTEX
  8
0
  6
CONTINUOUS
 10
4.181760
 20
4.437840
  0
SEQEND
  8
0
  0
SOLID
  8
0
 62
    15
 10
4.128960
 20
4.363480
 11
4.773120
 21
4.731760
 12
4.092000
 22
4.270200
 13
4.736160
 23
4.638480
  0
POLYLINE
  8
0
  6
CONTINUOUS
 66
     1
 40
0.000000
 41
0.000000
  0
VERTEX
  8
0
  6
CONTINUOUS
 10
4.128960
 20
4.363480
  0
VERTEX
  8
0
  6
CONTINUOUS
 10
4.773120
 20
4.731760
  0
VERTEX
  8
0
  6
CONTINUOUS
 10
4.736160
 20
4.638480
  0
VERTEX
  8
0
  6
CONTINUOUS
 10
4.092000
 20
4.270200
  0
VERTEX
  8
0
  6
CONTINUOUS
 10
4.128960
 20
4.363480
  0
SEQEND
  8
0
  0
SOLID
  8
0
 62
    15
 10
4.755520
 20
4.763880
 11
5.399680
 21
5.132160
 12
4.710200
 22
4.691720
 13
5.354360
 23
5.060000
  0
POLYLINE
  8
0
  6
CONTINUOUS
 66
     1
 40
0.000000
 41
0.000000
  0
VERTEX
  8
0
  6
CONTINUOUS
 10
4.755520
 20
4.763880
  0
VERTEX
  8
0
  6
CONTINUOUS
 10
5.399680
 20
5.132160
  0
VERTEX
  8
0
  6
CONTINUOUS
 10
5.354360
 20
5.060000
  0
VERTEX
  8
0
  6
CONTINUOUS
 10
4.710200
 20
4.691720
  0
VERTEX
  8
0
  6
CONTINUOUS
 10
4.755520
 20
4.763880
  0
SEQEND
  8
0
  0
SOLID
  8
0
 62
    15
 10
4.710200
 20
4.691720
 11
5.354360
 21
5.060000
 12
4.684680
 22
4.615160
 13
5.329280
 23
4.983440
  0
POLYLINE
  8
0
  6
CONTINUOUS
 66
     1
 40
0.000000
 41
0.000000
  0
VERTEX
  8
0
  6
CONTINUOUS
 10
4.710200
 20
4.691720
  0
VERTEX
  8
0
  6
CONTINUOUS
 10
5.354360
 20
5.060000
  0
VERTEX
  8
0
  6
CONTINUOUS
 10
5.329280
 20
4.983440
  0
VERTEX
  8
0
  6
CONTINUOUS
 10
4.684680
 20
4.615160
  0
VERTEX
  8
0
  6
CONTINUOUS
 10
4.710200
 20
4.691720
  0
SEQEND
  8
0
  0
SOLID
  8
0
 62
    15
 10
4.832520
 20
4.818000
 11
5.476680
 21
5.186280
 12
4.755520
 22
4.763880
 13
5.399680
 23
5.132160
  0
POLYLINE
  8
0
  6
CONTINUOUS
 66
     1
 40
0.000000
 41
0.000000
  0
VERTEX
  8
0
  6
CONTINUOUS
 10
4.832520
 20
4.818000
  0
VERTEX
  8
0
  6
CONTINUOUS
 10
5.476680
 20
5.186280
  0
VERTEX
  8
0
  6
CONTINUOUS
 10
5.399680
 20
5.132160
  0
VERTEX
  8
0
  6
CONTINUOUS
 10
4.755520
 20
4.763880
  0
VERTEX
  8
0
  6
CONTINUOUS
 10
4.832520
 20
4.818000
  0
SEQEND
  8
0
  0
SOLID
  8
0
 62
    15
 10
4.963200
 20
4.984320
 11
5.607360
 21
5.352600
 12
4.953960
 22
4.838680
 13
5.598120
 23
5.207400
  0
POLYLINE
  8
0
  6
CONTINUOUS
 66
     1
 40
0.000000
 41
0.000000
  0
VERTEX
  8
0
  6
CONTINUOUS
 10
4.963200
 20
4.984320
  0
VERTEX
  8
0
  6
CONTINUOUS
 10
5.607360
 20
5.352600
  0
VERTEX
  8
0
  6
CONTINUOUS
 10
5.598120
 20
5.207400
  0
VERTEX
  8
0
  6
CONTINUOUS
 10
4.953960
 20
4.838680
  0
VERTEX
  8
0
  6
CONTINUOUS
 10
4.963200
 20
4.984320
  0
SEQEND
  8
0
  0
SOLID
  8
0
 62
    15
 10
4.257000
 20
4.497240
 11
4.901160
 21
4.865520
 12
4.181760
 22
4.437840
 13
4.825920
 23
4.806120
  0
POLYLINE
  8
0
  6
CONTINUOUS
 66
     1
 40
0.000000
 41
0.000000
  0
VERTEX
  8
0
  6
CONTINUOUS
 10
4.257000
 20
4.497240
  0
VERTEX
  8
0
  6
CONTINUOUS
 10
4.901160
 20
4.865520
  0
VERTEX
  8
0
  6
CONTINUOUS
 10
4.825920
 20
4.806120
  0
VERTEX
  8
0
  6
CONTINUOUS
 10
4.181760
 20
4.437840
  0
VERTEX
  8
0
  6
CONTINUOUS
 10
4.257000
 20
4.497240
  0
SEQEND
  8
0
  0
SOLID
  8
0
 62
    15
 10
4.092000
 20
4.270200
 11
4.736160
 21
4.638480
 12
4.063840
 22
4.154920
 13
4.708440
 23
4.523200
  0
POLYLINE
  8
0
  6
CONTINUOUS
 66
     1
 40
0.000000
 41
0.000000
  0
VERTEX
  8
0
  6
CONTINUOUS
 10
4.092000
 20
4.270200
  0
VERTEX
  8
0
  6
CONTINUOUS
 10
4.736160
 20
4.638480
  0
VERTEX
  8
0
  6
CONTINUOUS
 10
4.708440
 20
4.523200
  0
VERTEX
  8
0
  6
CONTINUOUS
 10
4.063840
 20
4.154920
  0
VERTEX
  8
0
  6
CONTINUOUS
 10
4.092000
 20
4.270200
  0
SEQEND
  8
0
  0
SOLID
  8
0
 62
    15
 10
4.063840
 20
4.154920
 11
4.708440
 21
4.523200
 12
4.038320
 22
4.014560
 13
4.682480
 23
4.382840
  0
POLYLINE
  8
0
  6
CONTINUOUS
 66
     1
 40
0.000000
 41
0.000000
  0
VERTEX
  8
0
  6
CONTINUOUS
 10
4.063840
 20
4.154920
  0
VERTEX
  8
0
  6
CONTINUOUS
 10
4.708440
 20
4.523200
  0
VERTEX
  8
0
  6
CONTINUOUS
 10
4.682480
 20
4.382840
  0
VERTEX
  8
0
  6
CONTINUOUS
 10
4.038320
 20
4.014560
  0
VERTEX
  8
0
  6
CONTINUOUS
 10
4.063840
 20
4.154920
  0
SEQEND
  8
0
  0
POLYLINE
  8
0
  6
CONTINUOUS
 66
     1
 40
0.000000
 41
0.000000
  0
VERTEX
  8
0
  6
CONTINUOUS
 10
2.544960
 20
4.014560
  0
VERTEX
  8
0
  6
CONTINUOUS
 10
2.519000
 20
4.154920
  0
VERTEX
  8
0
  6
CONTINUOUS
 10
2.490840
 20
4.270200
  0
VERTEX
  8
0
  6
CONTINUOUS
 10
2.453880
 20
4.363480
  0
VERTEX
  8
0
  6
CONTINUOUS
 10
2.401080
 20
4.437840
  0
VERTEX
  8
0
  6
CONTINUOUS
 10
2.325840
 20
4.497240
  0
VERTEX
  8
0
  6
CONTINUOUS
 10
2.221560
 20
4.544320
  0
VERTEX
  8
0
  6
CONTINUOUS
 10
2.081200
 20
4.582600
  0
VERTEX
  8
0
  6
CONTINUOUS
 10
1.898160
 20
4.615160
  0
VERTEX
  8
0
  6
CONTINUOUS
 10
1.872640
 20
4.691720
  0
VERTEX
  8
0
  6
CONTINUOUS
 10
1.827760
 20
4.763880
  0
VERTEX
  8
0
  6
CONTINUOUS
 10
1.750760
 20
4.818000
  0
VERTEX
  8
0
  6
CONTINUOUS
 10
1.696200
 20
4.833400
  0
VERTEX
  8
0
  6
CONTINUOUS
 10
1.629320
 20
4.838680
  0
VERTEX
  8
0
  6
CONTINUOUS
 10
1.619640
 20
4.984320
  0
VERTEX
  8
0
  6
CONTINUOUS
 10
1.620080
 20
5.106640
  0
VERTEX
  8
0
  6
CONTINUOUS
 10
1.631080
 20
5.209160
  0
VERTEX
  8
0
  6
CONTINUOUS
 10
1.654400
 20
5.294080
  0
VERTEX
  8
0
  6
CONTINUOUS
 10
1.691800
 20
5.364920
  0
VERTEX
  8
0
  6
CONTINUOUS
 10
1.744160
 20
5.424320
  0
VERTEX
  8
0
  6
CONTINUOUS
 10
1.813680
 20
5.474480
  0
VERTEX
  8
0
  6
CONTINUOUS
 10
1.901240
 20
5.518040
  0
VERTEX
  8
0
  6
CONTINUOUS
 10
2.008600
 20
5.567320
  0
VERTEX
  8
0
  6
CONTINUOUS
 10
2.096600
 20
5.612640
  0
VERTEX
  8
0
  6
CONTINUOUS
 10
2.168320
 20
5.655320
  0
VERTEX
  8
0
  6
CONTINUOUS
 10
2.226400
 20
5.695360
  0
VERTEX
  8
0
  6
CONTINUOUS
 10
2.313960
 20
5.770160
  0
VERTEX
  8
0
  6
CONTINUOUS
 10
2.383920
 20
5.840120
  0
VERTEX
  8
0
  6
CONTINUOUS
 10
2.447720
 20
5.918000
  0
VERTEX
  8
0
  6
CONTINUOUS
 10
2.590720
 20
6.134040
  0
VERTEX
  8
0
  6
CONTINUOUS
 10
2.677840
 20
6.250640
  0
VERTEX
  8
0
  6
CONTINUOUS
 10
2.780360
 20
6.358880
  0
VERTEX
  8
0
  6
CONTINUOUS
 10
2.901800
 20
6.447760
  0
VERTEX
  8
0
  6
CONTINUOUS
 10
3.046560
 20
6.507160
  0
VERTEX
  8
0
  6
CONTINUOUS
 10
3.128400
 20
6.522120
  0
VERTEX
  8
0
  6
CONTINUOUS
 10
3.217720
 20
6.526080
  0
VERTEX
  8
0
  6
CONTINUOUS
 10
3.365120
 20
6.526080
  0
VERTEX
  8
0
  6
CONTINUOUS
 10
3.454440
 20
6.522120
  0
VERTEX
  8
0
  6
CONTINUOUS
 10
3.536280
 20
6.507160
  0
VERTEX
  8
0
  6
CONTINUOUS
 10
3.681040
 20
6.447760
  0
VERTEX
  8
0
  6
CONTINUOUS
 10
3.802480
 20
6.358880
  0
VERTEX
  8
0
  6
CONTINUOUS
 10
3.905000
 20
6.250640
  0
VERTEX
  8
0
  6
CONTINUOUS
 10
3.992120
 20
6.134040
  0
VERTEX
  8
0
  6
CONTINUOUS
 10
4.135560
 20
5.918000
  0
VERTEX
  8
0
  6
CONTINUOUS
 10
4.198920
 20
5.840120
  0
VERTEX
  8
0
  6
CONTINUOUS
 10
4.268880
 20
5.770160
  0
VERTEX
  8
0
  6
CONTINUOUS
 10
4.356880
 20
5.695360
  0
VERTEX
  8
0
  6
CONTINUOUS
 10
4.414520
 20
5.655320
  0
VERTEX
  8
0
  6
CONTINUOUS
 10
4.486240
 20
5.612640
  0
VERTEX
  8
0
  6
CONTINUOUS
 10
4.574240
 20
5.567320
  0
VERTEX
  8
0
  6
CONTINUOUS
 10
4.681600
 20
5.518040
  0
VERTEX
  8
0
  6
CONTINUOUS
 10
4.769160
 20
5.474480
  0
VERTEX
  8
0
  6
CONTINUOUS
 10
4.838680
 20
5.424320
  0
VERTEX
  8
0
  6
CONTINUOUS
 10
4.891040
 20
5.364920
  0
VERTEX
  8
0
  6
CONTINUOUS
 10
4.928440
 20
5.294080
  0
VERTEX
  8
0
  6
CONTINUOUS
 10
4.951760
 20
5.209160
  0
VERTEX
  8
0
  6
CONTINUOUS
 10
4.963200
 20
5.106640
  0
VERTEX
  8
0
  6
CONTINUOUS
 10
4.963200
 20
4.984320
  0
VERTEX
  8
0
  6
CONTINUOUS
 10
4.953960
 20
4.838680
  0
VERTEX
  8
0
  6
CONTINUOUS
 10
4.886640
 20
4.833400
  0
VERTEX
  8
0
  6
CONTINUOUS
 10
4.832520
 20
4.818000
  0
VERTEX
  8
0
  6
CONTINUOUS
 10
4.755520
 20
4.763880
  0
VERTEX
  8
0
  6
CONTINUOUS
 10
4.710200
 20
4.691720
  0
VERTEX
  8
0
  6
CONTINUOUS
 10
4.684680
 20
4.615160
  0
VERTEX
  8
0
  6
CONTINUOUS
 10
4.501640
 20
4.582600
  0
VERTEX
  8
0
  6
CONTINUOUS
 10
4.361280
 20
4.544320
  0
VERTEX
  8
0
  6
CONTINUOUS
 10
4.257000
 20
4.497240
  0
VERTEX
  8
0
  6
CONTINUOUS
 10
4.181760
 20
4.437840
  0
VERTEX
  8
0
  6
CONTINUOUS
 10
4.128960
 20
4.363480
  0
VERTEX
  8
0
  6
CONTINUOUS
 10
4.092000
 20
4.270200
  0
VERTEX
  8
0
  6
CONTINUOUS
 10
4.063840
 20
4.154920
  0
VERTEX
  8
0
  6
CONTINUOUS
 10
4.038320
 20
4.014560
  0
VERTEX
  8
0
  6
CONTINUOUS
 10
2.544960
 20
4.014560
  0
SEQEND
  8
0
  0
TEXT
  8
0
 10
3.271840
 20
3.765960
 40
0.138007
  1
BA  1204
 41
1.000000
  7
SN0
 71
     0
 72
     5
 11
3.953014
 21
3.765960
  0
TEXT
  8
0
 10
3.042600
 20
3.574120
 40
0.138007
  1
2-1/2" x 3-5/16"
 41
1.000000
  7
SN0
 71
     0
 72
     5
 11
4.180653
 21
3.574120
  0
TEXT
  8
0
 10
5.752560
 20
7.074760
 40
0.138007
  1
BA  1204
 41
1.000000
  7
SN0
 71
     0
 72
     5
 11
6.433734
 21
7.074760
  0
TEXT
  8
0
 10
5.522880
 20
6.882920
 40
0.138007
  1
2-1/2" x 3-5/16"
 41
1.000000
  7
SN0
 71
     0
 72
     5
 11
6.660933
 21
6.882920
  0
ENDSEC
  0
EOF
