  0
SECTION
  2
HEADER
  9
$ACADVER
  1
AC1006
  9
$EXTMIN
 10
0.048840
 20
2.195600
  9
$EXTMAX
 10
6.544120
 20
7.386720
  9
$LTSCALE
 40
0.044000
  9
$PDMODE
 70
    35
  9
$PDSIZE
 40
0.035200
  0
ENDSEC
  0
SECTION
  2
TABLES
  0
TABLE
  2
LTYPE
 70
     9
  0
LTYPE
  2
CONTINUOUS
 70
    64
  3
Solid line
 72
    65
 73
     0
 40
0.000000
  0
LTYPE
  2
DASHED
 70
    64
  3
__ __ __ __ __ __ __ __ __ __ __ __ __ __ __
 72
    65
 73
     2
 40
0.000330
 49
0.000220
 49
-0.000110
  0
LTYPE
  2
HIDDEN
 70
    64
  3
 _ _ _ _ _ _ _ _ _ _ _ _ _ _ _ _ _ _ _ _ _ _
 72
    65
 73
     2
 40
0.000165
 49
0.000110
 49
-0.000055
  0
LTYPE
  2
CENTER
 70
    64
  3
____ _ ____ _ ____ _ ____ _ ____ _ ____ _ ____
 72
    65
 73
     4
 40
0.000880
 49
0.000550
 49
-0.000110
 49
0.000110
 49
-0.000110
  0
LTYPE
  2
PHANTOM
 70
    64
  3
_____ _ _ _____ _ _ _____ _ _ _____ _ _ ____
 72
    65
 73
     6
 40
0.001100
 49
0.000550
 49
-0.000110
 49
0.000110
 49
-0.000110
 49
0.000110
 49
-0.000110
  0
LTYPE
  2
DOT
 70
    64
  3
...............................................
 72
    65
 73
     2
 40
0.000110
 49
0.000000
 49
-0.000110
  0
LTYPE
  2
DASHDOT
 70
    64
  3
__ . __ . __ . __ . __ . __ . __ . __ . __ . __
 72
    65
 73
     4
 40
0.000440
 49
0.000220
 49
-0.000110
 49
0.000000
 49
-0.000110
  0
LTYPE
  2
BORDER
 70
    64
  3
__ __ . __ __ . __ __ . __ __ . __ __ . __ __
 72
    65
 73
     6
 40
0.000770
 49
0.000220
 49
-0.000110
 49
0.000220
 49
-0.000110
 49
0.000000
 49
-0.000110
  0
LTYPE
  2
DIVIDE
 70
    64
  3
__ . . __ . . __ . . __ . . __ . . __ . . __
 72
    65
 73
     6
 40
0.000550
 49
0.000220
 49
-0.000110
 49
0.000000
 49
-0.000110
 49
0.000000
 49
-0.000110
  0
LTYPE
  2
DOTDOT
 70
    64
  3
 . .  . .  . .  . .  . .  . . 
 72
    65
 73
     5
 40
0.000242
 49
-0.000110
 49
0.000000
 49
-0.000110
 49
0.000000
 49
-0.000110
  0
ENDTAB
  0
TABLE
  2
STYLE
 70
     2
  0
STYLE
 70
     0
  2
SN0
 40
0.000000
 41
0.000440
 50
0.000000
 71
     0
 42
0.000000
  3
ROMAND
  0
STYLE
 70
    68
  2
SV0
 40
0.000000
 41
0.000440
 50
0.000000
 71
     0
 42
0.000000
  3
ROMAND
  0
ENDTAB
  0
TABLE
  2
LAYER
 70
     3
  0
LAYER
  2
FOREGROUND
 70
    64
 62
     7
  6
CONTINUOUS
  0
LAYER
  2
BACKGROUND
 70
    65
 62
    -7
  6
CONTINUOUS
  0
LAYER
  2
0
 70
    64
 62
     7
  6
CONTINUOUS
  0
ENDTAB
  0
ENDSEC
  0
SECTION
  2
ENTITIES
  0
POLYLINE
  8
FOREGROUND
  6
CONTINUOUS
 66
     1
 40
0.000000
 41
0.000000
  0
VERTEX
  8
FOREGROUND
  6
CONTINUOUS
 10
0.000000
 20
9.582320
  0
VERTEX
  8
FOREGROUND
  6
CONTINUOUS
 10
8.499920
 20
9.582320
  0
VERTEX
  8
FOREGROUND
  6
CONTINUOUS
 10
8.499920
 20
-1.417680
  0
VERTEX
  8
FOREGROUND
  6
CONTINUOUS
 10
0.000000
 20
-1.417680
  0
VERTEX
  8
FOREGROUND
  6
CONTINUOUS
 10
0.000000
 20
9.582320
  0
SEQEND
  8
0
  0
POLYLINE
  8
FOREGROUND
  6
CONTINUOUS
 66
     1
 40
0.000000
 41
0.000000
  0
VERTEX
  8
FOREGROUND
  6
CONTINUOUS
 10
0.000000
 20
9.582320
  0
VERTEX
  8
FOREGROUND
  6
CONTINUOUS
 10
8.499920
 20
9.582320
  0
VERTEX
  8
FOREGROUND
  6
CONTINUOUS
 10
8.499920
 20
-1.417680
  0
VERTEX
  8
FOREGROUND
  6
CONTINUOUS
 10
0.000000
 20
-1.417680
  0
VERTEX
  8
FOREGROUND
  6
CONTINUOUS
 10
0.000000
 20
9.582320
  0
SEQEND
  8
0
  0
LINE
  8
0
 62
     7
  6
CONTINUOUS
 10
0.049280
 20
5.634200
 11
4.756840
 21
4.372720
  0
POLYLINE
  8
0
  6
CONTINUOUS
 66
     1
 40
0.000000
 41
0.000000
  0
VERTEX
  8
0
  6
CONTINUOUS
 10
4.160640
 20
3.856600
  0
VERTEX
  8
0
  6
CONTINUOUS
 10
4.181320
 20
3.896200
  0
VERTEX
  8
0
  6
CONTINUOUS
 10
4.196720
 20
3.919080
  0
VERTEX
  8
0
  6
CONTINUOUS
 10
4.230160
 20
3.955160
  0
VERTEX
  8
0
  6
CONTINUOUS
 10
4.256120
 20
3.975400
  0
VERTEX
  8
0
  6
CONTINUOUS
 10
4.290000
 20
3.994320
  0
VERTEX
  8
0
  6
CONTINUOUS
 10
4.320360
 20
4.006640
  0
VERTEX
  8
0
  6
CONTINUOUS
 10
4.359080
 20
4.015000
  0
VERTEX
  8
0
  6
CONTINUOUS
 10
4.368320
 20
4.015880
  0
VERTEX
  8
0
  6
CONTINUOUS
 10
4.383720
 20
3.992560
  0
VERTEX
  8
0
  6
CONTINUOUS
 10
4.409240
 20
3.966600
  0
VERTEX
  8
0
  6
CONTINUOUS
 10
4.433880
 20
3.949880
  0
VERTEX
  8
0
  6
CONTINUOUS
 10
4.465560
 20
3.936680
  0
VERTEX
  8
0
  6
CONTINUOUS
 10
4.493720
 20
3.930520
  0
VERTEX
  8
0
  6
CONTINUOUS
 10
4.525840
 20
3.929200
  0
VERTEX
  8
0
  6
CONTINUOUS
 10
4.561480
 20
3.932720
  0
VERTEX
  8
0
  6
CONTINUOUS
 10
4.594040
 20
3.938880
  0
VERTEX
  8
0
  6
CONTINUOUS
 10
4.629680
 20
3.948560
  0
VERTEX
  8
0
  6
CONTINUOUS
 10
4.733960
 20
3.989920
  0
VERTEX
  8
0
  6
CONTINUOUS
 10
4.783240
 20
4.004000
  0
VERTEX
  8
0
  6
CONTINUOUS
 10
4.834720
 20
4.013680
  0
VERTEX
  8
0
  6
CONTINUOUS
 10
4.864640
 20
4.017200
  0
VERTEX
  8
0
  6
CONTINUOUS
 10
4.879160
 20
4.017640
  0
VERTEX
  8
0
  6
CONTINUOUS
 10
4.906000
 20
4.015000
  0
VERTEX
  8
0
  6
CONTINUOUS
 10
4.930200
 20
4.007960
  0
VERTEX
  8
0
  6
CONTINUOUS
 10
4.952200
 20
3.997400
  0
VERTEX
  8
0
  6
CONTINUOUS
 10
4.971560
 20
3.983760
  0
VERTEX
  8
0
  6
CONTINUOUS
 10
4.996640
 20
3.958680
  0
VERTEX
  8
0
  6
CONTINUOUS
 10
5.016880
 20
3.928760
  0
VERTEX
  8
0
  6
CONTINUOUS
 10
5.027880
 20
3.907200
  0
VERTEX
  8
0
  6
CONTINUOUS
 10
5.044600
 20
3.862320
  0
VERTEX
  8
0
  6
CONTINUOUS
 10
5.053840
 20
3.817880
  0
VERTEX
  8
0
  6
CONTINUOUS
 10
5.056480
 20
3.797200
  0
VERTEX
  8
0
  6
CONTINUOUS
 10
5.056920
 20
3.761120
  0
VERTEX
  8
0
  6
CONTINUOUS
 10
5.364040
 20
3.761120
  0
VERTEX
  8
0
  6
CONTINUOUS
 10
5.364040
 20
3.555640
  0
VERTEX
  8
0
  6
CONTINUOUS
 10
5.061320
 20
3.555640
  0
VERTEX
  8
0
  6
CONTINUOUS
 10
5.061320
 20
3.267000
  0
VERTEX
  8
0
  6
CONTINUOUS
 10
3.254680
 20
3.267000
  0
VERTEX
  8
0
  6
CONTINUOUS
 10
3.254680
 20
3.550360
  0
SEQEND
  8
0
  0
POLYLINE
  8
0
  6
CONTINUOUS
 66
     1
 40
0.000000
 41
0.000000
  0
VERTEX
  8
0
  6
CONTINUOUS
 10
4.156680
 20
3.851760
  0
VERTEX
  8
0
  6
CONTINUOUS
 10
4.136000
 20
3.891360
  0
VERTEX
  8
0
  6
CONTINUOUS
 10
4.112240
 20
3.923920
  0
VERTEX
  8
0
  6
CONTINUOUS
 10
4.086720
 20
3.950320
  0
VERTEX
  8
0
  6
CONTINUOUS
 10
4.060760
 20
3.970560
  0
VERTEX
  8
0
  6
CONTINUOUS
 10
4.026880
 20
3.989480
  0
VERTEX
  8
0
  6
CONTINUOUS
 10
3.996520
 20
4.001800
  0
VERTEX
  8
0
  6
CONTINUOUS
 10
3.957800
 20
4.010160
  0
VERTEX
  8
0
  6
CONTINUOUS
 10
3.948560
 20
4.011040
  0
VERTEX
  8
0
  6
CONTINUOUS
 10
3.933160
 20
3.987720
  0
VERTEX
  8
0
  6
CONTINUOUS
 10
3.907640
 20
3.961760
  0
VERTEX
  8
0
  6
CONTINUOUS
 10
3.883000
 20
3.945040
  0
VERTEX
  8
0
  6
CONTINUOUS
 10
3.851760
 20
3.931840
  0
VERTEX
  8
0
  6
CONTINUOUS
 10
3.823600
 20
3.925680
  0
VERTEX
  8
0
  6
CONTINUOUS
 10
3.791040
 20
3.924360
  0
VERTEX
  8
0
  6
CONTINUOUS
 10
3.755400
 20
3.927880
  0
VERTEX
  8
0
  6
CONTINUOUS
 10
3.722840
 20
3.934040
  0
VERTEX
  8
0
  6
CONTINUOUS
 10
3.687640
 20
3.943720
  0
VERTEX
  8
0
  6
CONTINUOUS
 10
3.582920
 20
3.985520
  0
VERTEX
  8
0
  6
CONTINUOUS
 10
3.533640
 20
3.999600
  0
VERTEX
  8
0
  6
CONTINUOUS
 10
3.482600
 20
4.009280
  0
VERTEX
  8
0
  6
CONTINUOUS
 10
3.452680
 20
4.012800
  0
VERTEX
  8
0
  6
CONTINUOUS
 10
3.438160
 20
4.013240
  0
VERTEX
  8
0
  6
CONTINUOUS
 10
3.411320
 20
4.010160
  0
VERTEX
  8
0
  6
CONTINUOUS
 10
3.387120
 20
4.003560
  0
VERTEX
  8
0
  6
CONTINUOUS
 10
3.365120
 20
3.993000
  0
VERTEX
  8
0
  6
CONTINUOUS
 10
3.336520
 20
3.971440
  0
VERTEX
  8
0
  6
CONTINUOUS
 10
3.313200
 20
3.944160
  0
VERTEX
  8
0
  6
CONTINUOUS
 10
3.300000
 20
3.923920
  0
VERTEX
  8
0
  6
CONTINUOUS
 10
3.289000
 20
3.902360
  0
VERTEX
  8
0
  6
CONTINUOUS
 10
3.279760
 20
3.880360
  0
VERTEX
  8
0
  6
CONTINUOUS
 10
3.267000
 20
3.835040
  0
VERTEX
  8
0
  6
CONTINUOUS
 10
3.260400
 20
3.792360
  0
VERTEX
  8
0
  6
CONTINUOUS
 10
3.259960
 20
3.756280
  0
VERTEX
  8
0
  6
CONTINUOUS
 10
2.953280
 20
3.756280
  0
VERTEX
  8
0
  6
CONTINUOUS
 10
2.953280
 20
3.550800
  0
VERTEX
  8
0
  6
CONTINUOUS
 10
3.255560
 20
3.550800
  0
SEQEND
  8
0
  0
POLYLINE
  8
0
  6
CONTINUOUS
 66
     1
 40
0.000000
 41
0.000000
  0
VERTEX
  8
0
  6
CONTINUOUS
 10
4.160640
 20
2.785200
  0
VERTEX
  8
0
  6
CONTINUOUS
 10
4.181320
 20
2.825240
  0
VERTEX
  8
0
  6
CONTINUOUS
 10
4.205080
 20
2.857800
  0
VERTEX
  8
0
  6
CONTINUOUS
 10
4.230160
 20
2.883760
  0
VERTEX
  8
0
  6
CONTINUOUS
 10
4.256120
 20
2.904000
  0
VERTEX
  8
0
  6
CONTINUOUS
 10
4.273280
 20
2.915000
  0
VERTEX
  8
0
  6
CONTINUOUS
 10
4.305840
 20
2.930400
  0
VERTEX
  8
0
  6
CONTINUOUS
 10
4.345440
 20
2.941840
  0
VERTEX
  8
0
  6
CONTINUOUS
 10
4.368320
 20
2.944920
  0
VERTEX
  8
0
  6
CONTINUOUS
 10
4.383720
 20
2.921600
  0
VERTEX
  8
0
  6
CONTINUOUS
 10
4.399120
 20
2.904440
  0
VERTEX
  8
0
  6
CONTINUOUS
 10
4.420680
 20
2.886840
  0
VERTEX
  8
0
  6
CONTINUOUS
 10
4.448840
 20
2.871880
  0
VERTEX
  8
0
  6
CONTINUOUS
 10
4.465560
 20
2.865720
  0
VERTEX
  8
0
  6
CONTINUOUS
 10
4.493720
 20
2.859560
  0
VERTEX
  8
0
  6
CONTINUOUS
 10
4.525840
 20
2.857800
  0
VERTEX
  8
0
  6
CONTINUOUS
 10
4.572920
 20
2.863520
  0
VERTEX
  8
0
  6
CONTINUOUS
 10
4.612520
 20
2.872320
  0
VERTEX
  8
0
  6
CONTINUOUS
 10
4.659600
 20
2.888600
  0
VERTEX
  8
0
  6
CONTINUOUS
 10
4.733960
 20
2.918960
  0
VERTEX
  8
0
  6
CONTINUOUS
 10
4.783240
 20
2.933040
  0
VERTEX
  8
0
  6
CONTINUOUS
 10
4.834720
 20
2.942720
  0
VERTEX
  8
0
  6
CONTINUOUS
 10
4.864640
 20
2.946240
  0
VERTEX
  8
0
  6
CONTINUOUS
 10
4.879160
 20
2.946680
  0
VERTEX
  8
0
  6
CONTINUOUS
 10
4.906000
 20
2.944040
  0
VERTEX
  8
0
  6
CONTINUOUS
 10
4.930200
 20
2.937000
  0
VERTEX
  8
0
  6
CONTINUOUS
 10
4.952200
 20
2.926440
  0
VERTEX
  8
0
  6
CONTINUOUS
 10
4.971560
 20
2.912800
  0
VERTEX
  8
0
  6
CONTINUOUS
 10
4.996640
 20
2.887720
  0
VERTEX
  8
0
  6
CONTINUOUS
 10
5.016880
 20
2.857800
  0
VERTEX
  8
0
  6
CONTINUOUS
 10
5.027880
 20
2.836240
  0
VERTEX
  8
0
  6
CONTINUOUS
 10
5.044600
 20
2.791360
  0
VERTEX
  8
0
  6
CONTINUOUS
 10
5.053840
 20
2.746920
  0
VERTEX
  8
0
  6
CONTINUOUS
 10
5.056480
 20
2.726240
  0
VERTEX
  8
0
  6
CONTINUOUS
 10
5.056920
 20
2.689720
  0
VERTEX
  8
0
  6
CONTINUOUS
 10
5.364040
 20
2.689720
  0
VERTEX
  8
0
  6
CONTINUOUS
 10
5.364040
 20
2.484680
  0
VERTEX
  8
0
  6
CONTINUOUS
 10
5.061320
 20
2.484680
  0
VERTEX
  8
0
  6
CONTINUOUS
 10
5.061320
 20
2.195600
  0
VERTEX
  8
0
  6
CONTINUOUS
 10
3.254680
 20
2.195600
  0
VERTEX
  8
0
  6
CONTINUOUS
 10
3.254680
 20
2.479400
  0
SEQEND
  8
0
  0
POLYLINE
  8
0
  6
CONTINUOUS
 66
     1
 40
0.000000
 41
0.000000
  0
VERTEX
  8
0
  6
CONTINUOUS
 10
4.156680
 20
2.780800
  0
VERTEX
  8
0
  6
CONTINUOUS
 10
4.136000
 20
2.820400
  0
VERTEX
  8
0
  6
CONTINUOUS
 10
4.112240
 20
2.852960
  0
VERTEX
  8
0
  6
CONTINUOUS
 10
4.086720
 20
2.879360
  0
VERTEX
  8
0
  6
CONTINUOUS
 10
4.060760
 20
2.899600
  0
VERTEX
  8
0
  6
CONTINUOUS
 10
4.026880
 20
2.918520
  0
VERTEX
  8
0
  6
CONTINUOUS
 10
3.996520
 20
2.930840
  0
VERTEX
  8
0
  6
CONTINUOUS
 10
3.957800
 20
2.939200
  0
VERTEX
  8
0
  6
CONTINUOUS
 10
3.948560
 20
2.940080
  0
VERTEX
  8
0
  6
CONTINUOUS
 10
3.933160
 20
2.916760
  0
VERTEX
  8
0
  6
CONTINUOUS
 10
3.917760
 20
2.899600
  0
VERTEX
  8
0
  6
CONTINUOUS
 10
3.896200
 20
2.882000
  0
VERTEX
  8
0
  6
CONTINUOUS
 10
3.868040
 20
2.867040
  0
VERTEX
  8
0
  6
CONTINUOUS
 10
3.851760
 20
2.860880
  0
VERTEX
  8
0
  6
CONTINUOUS
 10
3.823600
 20
2.854720
  0
VERTEX
  8
0
  6
CONTINUOUS
 10
3.791040
 20
2.852960
  0
VERTEX
  8
0
  6
CONTINUOUS
 10
3.743960
 20
2.858680
  0
VERTEX
  8
0
  6
CONTINUOUS
 10
3.704360
 20
2.867920
  0
VERTEX
  8
0
  6
CONTINUOUS
 10
3.671800
 20
2.878480
  0
VERTEX
  8
0
  6
CONTINUOUS
 10
3.582920
 20
2.914120
  0
VERTEX
  8
0
  6
CONTINUOUS
 10
3.533640
 20
2.928200
  0
VERTEX
  8
0
  6
CONTINUOUS
 10
3.482600
 20
2.937880
  0
VERTEX
  8
0
  6
CONTINUOUS
 10
3.452680
 20
2.941400
  0
VERTEX
  8
0
  6
CONTINUOUS
 10
3.438160
 20
2.941840
  0
VERTEX
  8
0
  6
CONTINUOUS
 10
3.411320
 20
2.939200
  0
VERTEX
  8
0
  6
CONTINUOUS
 10
3.387120
 20
2.932160
  0
VERTEX
  8
0
  6
CONTINUOUS
 10
3.365120
 20
2.921600
  0
VERTEX
  8
0
  6
CONTINUOUS
 10
3.345760
 20
2.907960
  0
VERTEX
  8
0
  6
CONTINUOUS
 10
3.320680
 20
2.882880
  0
VERTEX
  8
0
  6
CONTINUOUS
 10
3.300000
 20
2.852960
  0
VERTEX
  8
0
  6
CONTINUOUS
 10
3.289000
 20
2.831400
  0
VERTEX
  8
0
  6
CONTINUOUS
 10
3.279760
 20
2.808960
  0
VERTEX
  8
0
  6
CONTINUOUS
 10
3.267000
 20
2.764080
  0
VERTEX
  8
0
  6
CONTINUOUS
 10
3.260400
 20
2.721400
  0
VERTEX
  8
0
  6
CONTINUOUS
 10
3.259960
 20
2.685320
  0
VERTEX
  8
0
  6
CONTINUOUS
 10
2.953280
 20
2.685320
  0
VERTEX
  8
0
  6
CONTINUOUS
 10
2.953280
 20
2.479840
  0
VERTEX
  8
0
  6
CONTINUOUS
 10
3.255560
 20
2.479840
  0
SEQEND
  8
0
  0
SOLID
  8
0
 62
    15
 10
3.252920
 20
5.085960
 11
3.256440
 21
5.833520
 12
3.253800
 22
5.086400
 13
3.257760
 23
5.833960
  0
POLYLINE
  8
0
  6
CONTINUOUS
 66
     1
 40
0.000000
 41
0.000000
  0
VERTEX
  8
0
  6
CONTINUOUS
 10
3.252920
 20
5.085960
  0
VERTEX
  8
0
  6
CONTINUOUS
 10
3.256440
 20
5.833520
  0
VERTEX
  8
0
  6
CONTINUOUS
 10
3.257760
 20
5.833960
  0
VERTEX
  8
0
  6
CONTINUOUS
 10
3.253800
 20
5.086400
  0
VERTEX
  8
0
  6
CONTINUOUS
 10
3.252920
 20
5.085960
  0
SEQEND
  8
0
  0
SOLID
  8
0
 62
    15
 10
4.172080
 20
5.419480
 11
4.175600
 21
6.167040
 12
4.187040
 22
5.443240
 13
4.190560
 23
6.190800
  0
POLYLINE
  8
0
  6
CONTINUOUS
 66
     1
 40
0.000000
 41
0.000000
  0
VERTEX
  8
0
  6
CONTINUOUS
 10
4.172080
 20
5.419480
  0
VERTEX
  8
0
  6
CONTINUOUS
 10
4.175600
 20
6.167040
  0
VERTEX
  8
0
  6
CONTINUOUS
 10
4.190560
 20
6.190800
  0
VERTEX
  8
0
  6
CONTINUOUS
 10
4.187040
 20
5.443240
  0
VERTEX
  8
0
  6
CONTINUOUS
 10
4.172080
 20
5.419480
  0
SEQEND
  8
0
  0
SOLID
  8
0
 62
    15
 10
4.187040
 20
5.443240
 11
4.190560
 21
6.190800
 12
4.220040
 22
5.482400
 13
4.223560
 23
6.229960
  0
POLYLINE
  8
0
  6
CONTINUOUS
 66
     1
 40
0.000000
 41
0.000000
  0
VERTEX
  8
0
  6
CONTINUOUS
 10
4.187040
 20
5.443240
  0
VERTEX
  8
0
  6
CONTINUOUS
 10
4.190560
 20
6.190800
  0
VERTEX
  8
0
  6
CONTINUOUS
 10
4.223560
 20
6.229960
  0
VERTEX
  8
0
  6
CONTINUOUS
 10
4.220040
 20
5.482400
  0
VERTEX
  8
0
  6
CONTINUOUS
 10
4.187040
 20
5.443240
  0
SEQEND
  8
0
  0
SOLID
  8
0
 62
    15
 10
4.220040
 20
5.482400
 11
4.223560
 21
6.229960
 12
4.254360
 22
5.510560
 13
4.257880
 23
6.258120
  0
POLYLINE
  8
0
  6
CONTINUOUS
 66
     1
 40
0.000000
 41
0.000000
  0
VERTEX
  8
0
  6
CONTINUOUS
 10
4.220040
 20
5.482400
  0
VERTEX
  8
0
  6
CONTINUOUS
 10
4.223560
 20
6.229960
  0
VERTEX
  8
0
  6
CONTINUOUS
 10
4.257880
 20
6.258120
  0
VERTEX
  8
0
  6
CONTINUOUS
 10
4.254360
 20
5.510560
  0
VERTEX
  8
0
  6
CONTINUOUS
 10
4.220040
 20
5.482400
  0
SEQEND
  8
0
  0
SOLID
  8
0
 62
    15
 10
4.254360
 20
5.510560
 11
4.257880
 21
6.258120
 12
4.288240
 22
5.529920
 13
4.291760
 23
6.277480
  0
POLYLINE
  8
0
  6
CONTINUOUS
 66
     1
 40
0.000000
 41
0.000000
  0
VERTEX
  8
0
  6
CONTINUOUS
 10
4.254360
 20
5.510560
  0
VERTEX
  8
0
  6
CONTINUOUS
 10
4.257880
 20
6.258120
  0
VERTEX
  8
0
  6
CONTINUOUS
 10
4.291760
 20
6.277480
  0
VERTEX
  8
0
  6
CONTINUOUS
 10
4.288240
 20
5.529920
  0
VERTEX
  8
0
  6
CONTINUOUS
 10
4.254360
 20
5.510560
  0
SEQEND
  8
0
  0
SOLID
  8
0
 62
    15
 10
4.288240
 20
5.529920
 11
4.291760
 21
6.277480
 12
4.318600
 22
5.541800
 13
4.322560
 23
6.289360
  0
POLYLINE
  8
0
  6
CONTINUOUS
 66
     1
 40
0.000000
 41
0.000000
  0
VERTEX
  8
0
  6
CONTINUOUS
 10
4.288240
 20
5.529920
  0
VERTEX
  8
0
  6
CONTINUOUS
 10
4.291760
 20
6.277480
  0
VERTEX
  8
0
  6
CONTINUOUS
 10
4.322560
 20
6.289360
  0
VERTEX
  8
0
  6
CONTINUOUS
 10
4.318600
 20
5.541800
  0
VERTEX
  8
0
  6
CONTINUOUS
 10
4.288240
 20
5.529920
  0
SEQEND
  8
0
  0
SOLID
  8
0
 62
    15
 10
4.318600
 20
5.541800
 11
4.322560
 21
6.289360
 12
4.343680
 22
5.548400
 13
4.347200
 23
6.295960
  0
POLYLINE
  8
0
  6
CONTINUOUS
 66
     1
 40
0.000000
 41
0.000000
  0
VERTEX
  8
0
  6
CONTINUOUS
 10
4.318600
 20
5.541800
  0
VERTEX
  8
0
  6
CONTINUOUS
 10
4.322560
 20
6.289360
  0
VERTEX
  8
0
  6
CONTINUOUS
 10
4.347200
 20
6.295960
  0
VERTEX
  8
0
  6
CONTINUOUS
 10
4.343680
 20
5.548400
  0
VERTEX
  8
0
  6
CONTINUOUS
 10
4.318600
 20
5.541800
  0
SEQEND
  8
0
  0
SOLID
  8
0
 62
    15
 10
4.343680
 20
5.548400
 11
4.347200
 21
6.295960
 12
4.360400
 22
5.551040
 13
4.364360
 23
6.298600
  0
POLYLINE
  8
0
  6
CONTINUOUS
 66
     1
 40
0.000000
 41
0.000000
  0
VERTEX
  8
0
  6
CONTINUOUS
 10
4.343680
 20
5.548400
  0
VERTEX
  8
0
  6
CONTINUOUS
 10
4.347200
 20
6.295960
  0
VERTEX
  8
0
  6
CONTINUOUS
 10
4.364360
 20
6.298600
  0
VERTEX
  8
0
  6
CONTINUOUS
 10
4.360400
 20
5.551040
  0
VERTEX
  8
0
  6
CONTINUOUS
 10
4.343680
 20
5.548400
  0
SEQEND
  8
0
  0
SOLID
  8
0
 62
    15
 10
4.360400
 20
5.551040
 11
4.364360
 21
6.298600
 12
4.366560
 22
5.551480
 13
4.370520
 23
6.299040
  0
POLYLINE
  8
0
  6
CONTINUOUS
 66
     1
 40
0.000000
 41
0.000000
  0
VERTEX
  8
0
  6
CONTINUOUS
 10
4.360400
 20
5.551040
  0
VERTEX
  8
0
  6
CONTINUOUS
 10
4.364360
 20
6.298600
  0
VERTEX
  8
0
  6
CONTINUOUS
 10
4.370520
 20
6.299040
  0
VERTEX
  8
0
  6
CONTINUOUS
 10
4.366560
 20
5.551480
  0
VERTEX
  8
0
  6
CONTINUOUS
 10
4.360400
 20
5.551040
  0
SEQEND
  8
0
  0
SOLID
  8
0
 62
    15
 10
4.366560
 20
5.551480
 11
4.370520
 21
6.299040
 12
4.369200
 22
5.547080
 13
4.372720
 23
6.294640
  0
POLYLINE
  8
0
  6
CONTINUOUS
 66
     1
 40
0.000000
 41
0.000000
  0
VERTEX
  8
0
  6
CONTINUOUS
 10
4.366560
 20
5.551480
  0
VERTEX
  8
0
  6
CONTINUOUS
 10
4.370520
 20
6.299040
  0
VERTEX
  8
0
  6
CONTINUOUS
 10
4.372720
 20
6.294640
  0
VERTEX
  8
0
  6
CONTINUOUS
 10
4.369200
 20
5.547080
  0
VERTEX
  8
0
  6
CONTINUOUS
 10
4.366560
 20
5.551480
  0
SEQEND
  8
0
  0
SOLID
  8
0
 62
    15
 10
4.369200
 20
5.547080
 11
4.372720
 21
6.294640
 12
4.376240
 22
5.535640
 13
4.379760
 23
6.283200
  0
POLYLINE
  8
0
  6
CONTINUOUS
 66
     1
 40
0.000000
 41
0.000000
  0
VERTEX
  8
0
  6
CONTINUOUS
 10
4.369200
 20
5.547080
  0
VERTEX
  8
0
  6
CONTINUOUS
 10
4.372720
 20
6.294640
  0
VERTEX
  8
0
  6
CONTINUOUS
 10
4.379760
 20
6.283200
  0
VERTEX
  8
0
  6
CONTINUOUS
 10
4.376240
 20
5.535640
  0
VERTEX
  8
0
  6
CONTINUOUS
 10
4.369200
 20
5.547080
  0
SEQEND
  8
0
  0
SOLID
  8
0
 62
    15
 10
4.376240
 20
5.535640
 11
4.379760
 21
6.283200
 12
4.389000
 22
5.519800
 13
4.392520
 23
6.267360
  0
POLYLINE
  8
0
  6
CONTINUOUS
 66
     1
 40
0.000000
 41
0.000000
  0
VERTEX
  8
0
  6
CONTINUOUS
 10
4.376240
 20
5.535640
  0
VERTEX
  8
0
  6
CONTINUOUS
 10
4.379760
 20
6.283200
  0
VERTEX
  8
0
  6
CONTINUOUS
 10
4.392520
 20
6.267360
  0
VERTEX
  8
0
  6
CONTINUOUS
 10
4.389000
 20
5.519800
  0
VERTEX
  8
0
  6
CONTINUOUS
 10
4.376240
 20
5.535640
  0
SEQEND
  8
0
  0
SOLID
  8
0
 62
    15
 10
4.389000
 20
5.519800
 11
4.392520
 21
6.267360
 12
4.407480
 22
5.502200
 13
4.411000
 23
6.249760
  0
POLYLINE
  8
0
  6
CONTINUOUS
 66
     1
 40
0.000000
 41
0.000000
  0
VERTEX
  8
0
  6
CONTINUOUS
 10
4.389000
 20
5.519800
  0
VERTEX
  8
0
  6
CONTINUOUS
 10
4.392520
 20
6.267360
  0
VERTEX
  8
0
  6
CONTINUOUS
 10
4.411000
 20
6.249760
  0
VERTEX
  8
0
  6
CONTINUOUS
 10
4.407480
 20
5.502200
  0
VERTEX
  8
0
  6
CONTINUOUS
 10
4.389000
 20
5.519800
  0
SEQEND
  8
0
  0
SOLID
  8
0
 62
    15
 10
4.407480
 20
5.502200
 11
4.411000
 21
6.249760
 12
4.432120
 22
5.485480
 13
4.436080
 23
6.233040
  0
POLYLINE
  8
0
  6
CONTINUOUS
 66
     1
 40
0.000000
 41
0.000000
  0
VERTEX
  8
0
  6
CONTINUOUS
 10
4.407480
 20
5.502200
  0
VERTEX
  8
0
  6
CONTINUOUS
 10
4.411000
 20
6.249760
  0
VERTEX
  8
0
  6
CONTINUOUS
 10
4.436080
 20
6.233040
  0
VERTEX
  8
0
  6
CONTINUOUS
 10
4.432120
 20
5.485480
  0
VERTEX
  8
0
  6
CONTINUOUS
 10
4.407480
 20
5.502200
  0
SEQEND
  8
0
  0
SOLID
  8
0
 62
    15
 10
4.432120
 20
5.485480
 11
4.436080
 21
6.233040
 12
4.463800
 22
5.472280
 13
4.467320
 23
6.219840
  0
POLYLINE
  8
0
  6
CONTINUOUS
 66
     1
 40
0.000000
 41
0.000000
  0
VERTEX
  8
0
  6
CONTINUOUS
 10
4.432120
 20
5.485480
  0
VERTEX
  8
0
  6
CONTINUOUS
 10
4.436080
 20
6.233040
  0
VERTEX
  8
0
  6
CONTINUOUS
 10
4.467320
 20
6.219840
  0
VERTEX
  8
0
  6
CONTINUOUS
 10
4.463800
 20
5.472280
  0
VERTEX
  8
0
  6
CONTINUOUS
 10
4.432120
 20
5.485480
  0
SEQEND
  8
0
  0
SOLID
  8
0
 62
    15
 10
4.463800
 20
5.472280
 11
4.467320
 21
6.219840
 12
4.502080
 22
5.464800
 13
4.505600
 23
6.212800
  0
POLYLINE
  8
0
  6
CONTINUOUS
 66
     1
 40
0.000000
 41
0.000000
  0
VERTEX
  8
0
  6
CONTINUOUS
 10
4.463800
 20
5.472280
  0
VERTEX
  8
0
  6
CONTINUOUS
 10
4.467320
 20
6.219840
  0
VERTEX
  8
0
  6
CONTINUOUS
 10
4.505600
 20
6.212800
  0
VERTEX
  8
0
  6
CONTINUOUS
 10
4.502080
 20
5.464800
  0
VERTEX
  8
0
  6
CONTINUOUS
 10
4.463800
 20
5.472280
  0
SEQEND
  8
0
  0
SOLID
  8
0
 62
    15
 10
4.502080
 20
5.464800
 11
4.505600
 21
6.212800
 12
4.547840
 22
5.466560
 13
4.551360
 23
6.214120
  0
POLYLINE
  8
0
  6
CONTINUOUS
 66
     1
 40
0.000000
 41
0.000000
  0
VERTEX
  8
0
  6
CONTINUOUS
 10
4.502080
 20
5.464800
  0
VERTEX
  8
0
  6
CONTINUOUS
 10
4.505600
 20
6.212800
  0
VERTEX
  8
0
  6
CONTINUOUS
 10
4.551360
 20
6.214120
  0
VERTEX
  8
0
  6
CONTINUOUS
 10
4.547840
 20
5.466560
  0
VERTEX
  8
0
  6
CONTINUOUS
 10
4.502080
 20
5.464800
  0
SEQEND
  8
0
  0
SOLID
  8
0
 62
    15
 10
4.547840
 20
5.466560
 11
4.551360
 21
6.214120
 12
4.592280
 22
5.474480
 13
4.595800
 23
6.222040
  0
POLYLINE
  8
0
  6
CONTINUOUS
 66
     1
 40
0.000000
 41
0.000000
  0
VERTEX
  8
0
  6
CONTINUOUS
 10
4.547840
 20
5.466560
  0
VERTEX
  8
0
  6
CONTINUOUS
 10
4.551360
 20
6.214120
  0
VERTEX
  8
0
  6
CONTINUOUS
 10
4.595800
 20
6.222040
  0
VERTEX
  8
0
  6
CONTINUOUS
 10
4.592280
 20
5.474480
  0
VERTEX
  8
0
  6
CONTINUOUS
 10
4.547840
 20
5.466560
  0
SEQEND
  8
0
  0
SOLID
  8
0
 62
    15
 10
4.592280
 20
5.474480
 11
4.595800
 21
6.222040
 12
4.627480
 22
5.484160
 13
4.631440
 23
6.231720
  0
POLYLINE
  8
0
  6
CONTINUOUS
 66
     1
 40
0.000000
 41
0.000000
  0
VERTEX
  8
0
  6
CONTINUOUS
 10
4.592280
 20
5.474480
  0
VERTEX
  8
0
  6
CONTINUOUS
 10
4.595800
 20
6.222040
  0
VERTEX
  8
0
  6
CONTINUOUS
 10
4.631440
 20
6.231720
  0
VERTEX
  8
0
  6
CONTINUOUS
 10
4.627480
 20
5.484160
  0
VERTEX
  8
0
  6
CONTINUOUS
 10
4.592280
 20
5.474480
  0
SEQEND
  8
0
  0
SOLID
  8
0
 62
    15
 10
4.627480
 20
5.484160
 11
4.631440
 21
6.231720
 12
4.657840
 22
5.495160
 13
4.661360
 23
6.243160
  0
POLYLINE
  8
0
  6
CONTINUOUS
 66
     1
 40
0.000000
 41
0.000000
  0
VERTEX
  8
0
  6
CONTINUOUS
 10
4.627480
 20
5.484160
  0
VERTEX
  8
0
  6
CONTINUOUS
 10
4.631440
 20
6.231720
  0
VERTEX
  8
0
  6
CONTINUOUS
 10
4.661360
 20
6.243160
  0
VERTEX
  8
0
  6
CONTINUOUS
 10
4.657840
 20
5.495160
  0
VERTEX
  8
0
  6
CONTINUOUS
 10
4.627480
 20
5.484160
  0
SEQEND
  8
0
  0
SOLID
  8
0
 62
    15
 10
4.657840
 20
5.495160
 11
4.661360
 21
6.243160
 12
4.671920
 22
5.501320
 13
4.675440
 23
6.248880
  0
POLYLINE
  8
0
  6
CONTINUOUS
 66
     1
 40
0.000000
 41
0.000000
  0
VERTEX
  8
0
  6
CONTINUOUS
 10
4.657840
 20
5.495160
  0
VERTEX
  8
0
  6
CONTINUOUS
 10
4.661360
 20
6.243160
  0
VERTEX
  8
0
  6
CONTINUOUS
 10
4.675440
 20
6.248880
  0
VERTEX
  8
0
  6
CONTINUOUS
 10
4.671920
 20
5.501320
  0
VERTEX
  8
0
  6
CONTINUOUS
 10
4.657840
 20
5.495160
  0
SEQEND
  8
0
  0
SOLID
  8
0
 62
    15
 10
4.671920
 20
5.501320
 11
4.675440
 21
6.248880
 12
4.686000
 22
5.507040
 13
4.689520
 23
6.255040
  0
POLYLINE
  8
0
  6
CONTINUOUS
 66
     1
 40
0.000000
 41
0.000000
  0
VERTEX
  8
0
  6
CONTINUOUS
 10
4.671920
 20
5.501320
  0
VERTEX
  8
0
  6
CONTINUOUS
 10
4.675440
 20
6.248880
  0
VERTEX
  8
0
  6
CONTINUOUS
 10
4.689520
 20
6.255040
  0
VERTEX
  8
0
  6
CONTINUOUS
 10
4.686000
 20
5.507040
  0
VERTEX
  8
0
  6
CONTINUOUS
 10
4.671920
 20
5.501320
  0
SEQEND
  8
0
  0
SOLID
  8
0
 62
    15
 10
4.686000
 20
5.507040
 11
4.689520
 21
6.255040
 12
4.715920
 22
5.519360
 13
4.719440
 23
6.266920
  0
POLYLINE
  8
0
  6
CONTINUOUS
 66
     1
 40
0.000000
 41
0.000000
  0
VERTEX
  8
0
  6
CONTINUOUS
 10
4.686000
 20
5.507040
  0
VERTEX
  8
0
  6
CONTINUOUS
 10
4.689520
 20
6.255040
  0
VERTEX
  8
0
  6
CONTINUOUS
 10
4.719440
 20
6.266920
  0
VERTEX
  8
0
  6
CONTINUOUS
 10
4.715920
 20
5.519360
  0
VERTEX
  8
0
  6
CONTINUOUS
 10
4.686000
 20
5.507040
  0
SEQEND
  8
0
  0
SOLID
  8
0
 62
    15
 10
4.715920
 20
5.519360
 11
4.719440
 21
6.266920
 12
4.750240
 22
5.531240
 13
4.753760
 23
6.278800
  0
POLYLINE
  8
0
  6
CONTINUOUS
 66
     1
 40
0.000000
 41
0.000000
  0
VERTEX
  8
0
  6
CONTINUOUS
 10
4.715920
 20
5.519360
  0
VERTEX
  8
0
  6
CONTINUOUS
 10
4.719440
 20
6.266920
  0
VERTEX
  8
0
  6
CONTINUOUS
 10
4.753760
 20
6.278800
  0
VERTEX
  8
0
  6
CONTINUOUS
 10
4.750240
 20
5.531240
  0
VERTEX
  8
0
  6
CONTINUOUS
 10
4.715920
 20
5.519360
  0
SEQEND
  8
0
  0
SOLID
  8
0
 62
    15
 10
4.750240
 20
5.531240
 11
4.753760
 21
6.278800
 12
4.793360
 22
5.542240
 13
4.796880
 23
6.289800
  0
POLYLINE
  8
0
  6
CONTINUOUS
 66
     1
 40
0.000000
 41
0.000000
  0
VERTEX
  8
0
  6
CONTINUOUS
 10
4.750240
 20
5.531240
  0
VERTEX
  8
0
  6
CONTINUOUS
 10
4.753760
 20
6.278800
  0
VERTEX
  8
0
  6
CONTINUOUS
 10
4.796880
 20
6.289800
  0
VERTEX
  8
0
  6
CONTINUOUS
 10
4.793360
 20
5.542240
  0
VERTEX
  8
0
  6
CONTINUOUS
 10
4.750240
 20
5.531240
  0
SEQEND
  8
0
  0
SOLID
  8
0
 62
    15
 10
4.793360
 20
5.542240
 11
4.796880
 21
6.289800
 12
4.847920
 22
5.551480
 13
4.851440
 23
6.299040
  0
POLYLINE
  8
0
  6
CONTINUOUS
 66
     1
 40
0.000000
 41
0.000000
  0
VERTEX
  8
0
  6
CONTINUOUS
 10
4.793360
 20
5.542240
  0
VERTEX
  8
0
  6
CONTINUOUS
 10
4.796880
 20
6.289800
  0
VERTEX
  8
0
  6
CONTINUOUS
 10
4.851440
 20
6.299040
  0
VERTEX
  8
0
  6
CONTINUOUS
 10
4.847920
 20
5.551480
  0
VERTEX
  8
0
  6
CONTINUOUS
 10
4.793360
 20
5.542240
  0
SEQEND
  8
0
  0
SOLID
  8
0
 62
    15
 10
4.847920
 20
5.551480
 11
4.851440
 21
6.299040
 12
4.876960
 22
5.553240
 13
4.880920
 23
6.300800
  0
POLYLINE
  8
0
  6
CONTINUOUS
 66
     1
 40
0.000000
 41
0.000000
  0
VERTEX
  8
0
  6
CONTINUOUS
 10
4.847920
 20
5.551480
  0
VERTEX
  8
0
  6
CONTINUOUS
 10
4.851440
 20
6.299040
  0
VERTEX
  8
0
  6
CONTINUOUS
 10
4.880920
 20
6.300800
  0
VERTEX
  8
0
  6
CONTINUOUS
 10
4.876960
 20
5.553240
  0
VERTEX
  8
0
  6
CONTINUOUS
 10
4.847920
 20
5.551480
  0
SEQEND
  8
0
  0
SOLID
  8
0
 62
    15
 10
4.876960
 20
5.553240
 11
4.880920
 21
6.300800
 12
4.903800
 22
5.550600
 13
4.907760
 23
6.298160
  0
POLYLINE
  8
0
  6
CONTINUOUS
 66
     1
 40
0.000000
 41
0.000000
  0
VERTEX
  8
0
  6
CONTINUOUS
 10
4.876960
 20
5.553240
  0
VERTEX
  8
0
  6
CONTINUOUS
 10
4.880920
 20
6.300800
  0
VERTEX
  8
0
  6
CONTINUOUS
 10
4.907760
 20
6.298160
  0
VERTEX
  8
0
  6
CONTINUOUS
 10
4.903800
 20
5.550600
  0
VERTEX
  8
0
  6
CONTINUOUS
 10
4.876960
 20
5.553240
  0
SEQEND
  8
0
  0
SOLID
  8
0
 62
    15
 10
4.903800
 20
5.550600
 11
4.907760
 21
6.298160
 12
4.928440
 22
5.543560
 13
4.931960
 23
6.291120
  0
POLYLINE
  8
0
  6
CONTINUOUS
 66
     1
 40
0.000000
 41
0.000000
  0
VERTEX
  8
0
  6
CONTINUOUS
 10
4.903800
 20
5.550600
  0
VERTEX
  8
0
  6
CONTINUOUS
 10
4.907760
 20
6.298160
  0
VERTEX
  8
0
  6
CONTINUOUS
 10
4.931960
 20
6.291120
  0
VERTEX
  8
0
  6
CONTINUOUS
 10
4.928440
 20
5.543560
  0
VERTEX
  8
0
  6
CONTINUOUS
 10
4.903800
 20
5.550600
  0
SEQEND
  8
0
  0
SOLID
  8
0
 62
    15
 10
4.928440
 20
5.543560
 11
4.931960
 21
6.291120
 12
4.950000
 22
5.533000
 13
4.953960
 23
6.280560
  0
POLYLINE
  8
0
  6
CONTINUOUS
 66
     1
 40
0.000000
 41
0.000000
  0
VERTEX
  8
0
  6
CONTINUOUS
 10
4.928440
 20
5.543560
  0
VERTEX
  8
0
  6
CONTINUOUS
 10
4.931960
 20
6.291120
  0
VERTEX
  8
0
  6
CONTINUOUS
 10
4.953960
 20
6.280560
  0
VERTEX
  8
0
  6
CONTINUOUS
 10
4.950000
 20
5.533000
  0
VERTEX
  8
0
  6
CONTINUOUS
 10
4.928440
 20
5.543560
  0
SEQEND
  8
0
  0
SOLID
  8
0
 62
    15
 10
4.950000
 20
5.533000
 11
4.953960
 21
6.280560
 12
4.986960
 22
5.503080
 13
4.990480
 23
6.250640
  0
POLYLINE
  8
0
  6
CONTINUOUS
 66
     1
 40
0.000000
 41
0.000000
  0
VERTEX
  8
0
  6
CONTINUOUS
 10
4.950000
 20
5.533000
  0
VERTEX
  8
0
  6
CONTINUOUS
 10
4.953960
 20
6.280560
  0
VERTEX
  8
0
  6
CONTINUOUS
 10
4.990480
 20
6.250640
  0
VERTEX
  8
0
  6
CONTINUOUS
 10
4.986960
 20
5.503080
  0
VERTEX
  8
0
  6
CONTINUOUS
 10
4.950000
 20
5.533000
  0
SEQEND
  8
0
  0
SOLID
  8
0
 62
    15
 10
4.986960
 20
5.503080
 11
4.990480
 21
6.250640
 12
5.015120
 22
5.464360
 13
5.018640
 23
6.211920
  0
POLYLINE
  8
0
  6
CONTINUOUS
 66
     1
 40
0.000000
 41
0.000000
  0
VERTEX
  8
0
  6
CONTINUOUS
 10
4.986960
 20
5.503080
  0
VERTEX
  8
0
  6
CONTINUOUS
 10
4.990480
 20
6.250640
  0
VERTEX
  8
0
  6
CONTINUOUS
 10
5.018640
 20
6.211920
  0
VERTEX
  8
0
  6
CONTINUOUS
 10
5.015120
 20
5.464360
  0
VERTEX
  8
0
  6
CONTINUOUS
 10
4.986960
 20
5.503080
  0
SEQEND
  8
0
  0
SOLID
  8
0
 62
    15
 10
5.015120
 20
5.464360
 11
5.018640
 21
6.211920
 12
5.035360
 22
5.420360
 13
5.038880
 23
6.167920
  0
POLYLINE
  8
0
  6
CONTINUOUS
 66
     1
 40
0.000000
 41
0.000000
  0
VERTEX
  8
0
  6
CONTINUOUS
 10
5.015120
 20
5.464360
  0
VERTEX
  8
0
  6
CONTINUOUS
 10
5.018640
 20
6.211920
  0
VERTEX
  8
0
  6
CONTINUOUS
 10
5.038880
 20
6.167920
  0
VERTEX
  8
0
  6
CONTINUOUS
 10
5.035360
 20
5.420360
  0
VERTEX
  8
0
  6
CONTINUOUS
 10
5.015120
 20
5.464360
  0
SEQEND
  8
0
  0
SOLID
  8
0
 62
    15
 10
5.035360
 20
5.420360
 11
5.038880
 21
6.167920
 12
5.048120
 22
5.375480
 13
5.051640
 23
6.123040
  0
POLYLINE
  8
0
  6
CONTINUOUS
 66
     1
 40
0.000000
 41
0.000000
  0
VERTEX
  8
0
  6
CONTINUOUS
 10
5.035360
 20
5.420360
  0
VERTEX
  8
0
  6
CONTINUOUS
 10
5.038880
 20
6.167920
  0
VERTEX
  8
0
  6
CONTINUOUS
 10
5.051640
 20
6.123040
  0
VERTEX
  8
0
  6
CONTINUOUS
 10
5.048120
 20
5.375480
  0
VERTEX
  8
0
  6
CONTINUOUS
 10
5.035360
 20
5.420360
  0
SEQEND
  8
0
  0
SOLID
  8
0
 62
    15
 10
5.362280
 20
5.296280
 11
5.365800
 21
6.043840
 12
5.362280
 22
5.091240
 13
5.365800
 23
5.838800
  0
POLYLINE
  8
0
  6
CONTINUOUS
 66
     1
 40
0.000000
 41
0.000000
  0
VERTEX
  8
0
  6
CONTINUOUS
 10
5.362280
 20
5.296280
  0
VERTEX
  8
0
  6
CONTINUOUS
 10
5.365800
 20
6.043840
  0
VERTEX
  8
0
  6
CONTINUOUS
 10
5.365800
 20
5.838800
  0
VERTEX
  8
0
  6
CONTINUOUS
 10
5.362280
 20
5.091240
  0
VERTEX
  8
0
  6
CONTINUOUS
 10
5.362280
 20
5.296280
  0
SEQEND
  8
0
  0
SOLID
  8
0
 62
    15
 10
5.059560
 20
5.091240
 11
5.063080
 21
5.838800
 12
5.059560
 22
4.802160
 13
5.063080
 23
5.549720
  0
POLYLINE
  8
0
  6
CONTINUOUS
 66
     1
 40
0.000000
 41
0.000000
  0
VERTEX
  8
0
  6
CONTINUOUS
 10
5.059560
 20
5.091240
  0
VERTEX
  8
0
  6
CONTINUOUS
 10
5.063080
 20
5.838800
  0
VERTEX
  8
0
  6
CONTINUOUS
 10
5.063080
 20
5.549720
  0
VERTEX
  8
0
  6
CONTINUOUS
 10
5.059560
 20
4.802160
  0
VERTEX
  8
0
  6
CONTINUOUS
 10
5.059560
 20
5.091240
  0
SEQEND
  8
0
  0
SOLID
  8
0
 62
    15
 10
5.055160
 20
5.296280
 11
5.058680
 21
6.043840
 12
5.362280
 22
5.296280
 13
5.365800
 23
6.043840
  0
POLYLINE
  8
0
  6
CONTINUOUS
 66
     1
 40
0.000000
 41
0.000000
  0
VERTEX
  8
0
  6
CONTINUOUS
 10
5.055160
 20
5.296280
  0
VERTEX
  8
0
  6
CONTINUOUS
 10
5.058680
 20
6.043840
  0
VERTEX
  8
0
  6
CONTINUOUS
 10
5.365800
 20
6.043840
  0
VERTEX
  8
0
  6
CONTINUOUS
 10
5.362280
 20
5.296280
  0
VERTEX
  8
0
  6
CONTINUOUS
 10
5.055160
 20
5.296280
  0
SEQEND
  8
0
  0
SOLID
  8
0
 62
    15
 10
5.054720
 20
5.332800
 11
5.058240
 21
6.080360
 12
5.055160
 22
5.296280
 13
5.058680
 23
6.043840
  0
POLYLINE
  8
0
  6
CONTINUOUS
 66
     1
 40
0.000000
 41
0.000000
  0
VERTEX
  8
0
  6
CONTINUOUS
 10
5.054720
 20
5.332800
  0
VERTEX
  8
0
  6
CONTINUOUS
 10
5.058240
 20
6.080360
  0
VERTEX
  8
0
  6
CONTINUOUS
 10
5.058680
 20
6.043840
  0
VERTEX
  8
0
  6
CONTINUOUS
 10
5.055160
 20
5.296280
  0
VERTEX
  8
0
  6
CONTINUOUS
 10
5.054720
 20
5.332800
  0
SEQEND
  8
0
  0
SOLID
  8
0
 62
    15
 10
5.048120
 20
5.375480
 11
5.051640
 21
6.123040
 12
5.054720
 22
5.332800
 13
5.058240
 23
6.080360
  0
POLYLINE
  8
0
  6
CONTINUOUS
 66
     1
 40
0.000000
 41
0.000000
  0
VERTEX
  8
0
  6
CONTINUOUS
 10
5.048120
 20
5.375480
  0
VERTEX
  8
0
  6
CONTINUOUS
 10
5.051640
 20
6.123040
  0
VERTEX
  8
0
  6
CONTINUOUS
 10
5.058240
 20
6.080360
  0
VERTEX
  8
0
  6
CONTINUOUS
 10
5.054720
 20
5.332800
  0
VERTEX
  8
0
  6
CONTINUOUS
 10
5.048120
 20
5.375480
  0
SEQEND
  8
0
  0
SOLID
  8
0
 62
    15
 10
4.158440
 20
5.391760
 11
4.162400
 21
6.139320
 12
4.172080
 22
5.419480
 13
4.175600
 23
6.167040
  0
POLYLINE
  8
0
  6
CONTINUOUS
 66
     1
 40
0.000000
 41
0.000000
  0
VERTEX
  8
0
  6
CONTINUOUS
 10
4.158440
 20
5.391760
  0
VERTEX
  8
0
  6
CONTINUOUS
 10
4.162400
 20
6.139320
  0
VERTEX
  8
0
  6
CONTINUOUS
 10
4.175600
 20
6.167040
  0
VERTEX
  8
0
  6
CONTINUOUS
 10
4.172080
 20
5.419480
  0
VERTEX
  8
0
  6
CONTINUOUS
 10
4.158440
 20
5.391760
  0
SEQEND
  8
0
  0
SOLID
  8
0
 62
    15
 10
2.951080
 20
5.291440
 11
2.955040
 21
6.039440
 12
3.258200
 22
5.291440
 13
3.262160
 23
6.039440
  0
POLYLINE
  8
0
  6
CONTINUOUS
 66
     1
 40
0.000000
 41
0.000000
  0
VERTEX
  8
0
  6
CONTINUOUS
 10
2.951080
 20
5.291440
  0
VERTEX
  8
0
  6
CONTINUOUS
 10
2.955040
 20
6.039440
  0
VERTEX
  8
0
  6
CONTINUOUS
 10
3.262160
 20
6.039440
  0
VERTEX
  8
0
  6
CONTINUOUS
 10
3.258200
 20
5.291440
  0
VERTEX
  8
0
  6
CONTINUOUS
 10
2.951080
 20
5.291440
  0
SEQEND
  8
0
  0
SOLID
  8
0
 62
    15
 10
3.258200
 20
5.291440
 11
3.262160
 21
6.039440
 12
3.258640
 22
5.327960
 13
3.262600
 23
6.075520
  0
POLYLINE
  8
0
  6
CONTINUOUS
 66
     1
 40
0.000000
 41
0.000000
  0
VERTEX
  8
0
  6
CONTINUOUS
 10
3.258200
 20
5.291440
  0
VERTEX
  8
0
  6
CONTINUOUS
 10
3.262160
 20
6.039440
  0
VERTEX
  8
0
  6
CONTINUOUS
 10
3.262600
 20
6.075520
  0
VERTEX
  8
0
  6
CONTINUOUS
 10
3.258640
 20
5.327960
  0
VERTEX
  8
0
  6
CONTINUOUS
 10
3.258200
 20
5.291440
  0
SEQEND
  8
0
  0
SOLID
  8
0
 62
    15
 10
3.258640
 20
5.327960
 11
3.262600
 21
6.075520
 12
3.265240
 22
5.370640
 13
3.268760
 23
6.118200
  0
POLYLINE
  8
0
  6
CONTINUOUS
 66
     1
 40
0.000000
 41
0.000000
  0
VERTEX
  8
0
  6
CONTINUOUS
 10
3.258640
 20
5.327960
  0
VERTEX
  8
0
  6
CONTINUOUS
 10
3.262600
 20
6.075520
  0
VERTEX
  8
0
  6
CONTINUOUS
 10
3.268760
 20
6.118200
  0
VERTEX
  8
0
  6
CONTINUOUS
 10
3.265240
 20
5.370640
  0
VERTEX
  8
0
  6
CONTINUOUS
 10
3.258640
 20
5.327960
  0
SEQEND
  8
0
  0
SOLID
  8
0
 62
    15
 10
3.265240
 20
5.370640
 11
3.268760
 21
6.118200
 12
3.278000
 22
5.415520
 13
3.281520
 23
6.163080
  0
POLYLINE
  8
0
  6
CONTINUOUS
 66
     1
 40
0.000000
 41
0.000000
  0
VERTEX
  8
0
  6
CONTINUOUS
 10
3.265240
 20
5.370640
  0
VERTEX
  8
0
  6
CONTINUOUS
 10
3.268760
 20
6.118200
  0
VERTEX
  8
0
  6
CONTINUOUS
 10
3.281520
 20
6.163080
  0
VERTEX
  8
0
  6
CONTINUOUS
 10
3.278000
 20
5.415520
  0
VERTEX
  8
0
  6
CONTINUOUS
 10
3.265240
 20
5.370640
  0
SEQEND
  8
0
  0
SOLID
  8
0
 62
    15
 10
3.278000
 20
5.415520
 11
3.281520
 21
6.163080
 12
3.298240
 22
5.459520
 13
3.301760
 23
6.207080
  0
POLYLINE
  8
0
  6
CONTINUOUS
 66
     1
 40
0.000000
 41
0.000000
  0
VERTEX
  8
0
  6
CONTINUOUS
 10
3.278000
 20
5.415520
  0
VERTEX
  8
0
  6
CONTINUOUS
 10
3.281520
 20
6.163080
  0
VERTEX
  8
0
  6
CONTINUOUS
 10
3.301760
 20
6.207080
  0
VERTEX
  8
0
  6
CONTINUOUS
 10
3.298240
 20
5.459520
  0
VERTEX
  8
0
  6
CONTINUOUS
 10
3.278000
 20
5.415520
  0
SEQEND
  8
0
  0
SOLID
  8
0
 62
    15
 10
3.298240
 20
5.459520
 11
3.301760
 21
6.207080
 12
3.326400
 22
5.498240
 13
3.329920
 23
6.245800
  0
POLYLINE
  8
0
  6
CONTINUOUS
 66
     1
 40
0.000000
 41
0.000000
  0
VERTEX
  8
0
  6
CONTINUOUS
 10
3.298240
 20
5.459520
  0
VERTEX
  8
0
  6
CONTINUOUS
 10
3.301760
 20
6.207080
  0
VERTEX
  8
0
  6
CONTINUOUS
 10
3.329920
 20
6.245800
  0
VERTEX
  8
0
  6
CONTINUOUS
 10
3.326400
 20
5.498240
  0
VERTEX
  8
0
  6
CONTINUOUS
 10
3.298240
 20
5.459520
  0
SEQEND
  8
0
  0
SOLID
  8
0
 62
    15
 10
3.326400
 20
5.498240
 11
3.329920
 21
6.245800
 12
3.363360
 22
5.528160
 13
3.366880
 23
6.275720
  0
POLYLINE
  8
0
  6
CONTINUOUS
 66
     1
 40
0.000000
 41
0.000000
  0
VERTEX
  8
0
  6
CONTINUOUS
 10
3.326400
 20
5.498240
  0
VERTEX
  8
0
  6
CONTINUOUS
 10
3.329920
 20
6.245800
  0
VERTEX
  8
0
  6
CONTINUOUS
 10
3.366880
 20
6.275720
  0
VERTEX
  8
0
  6
CONTINUOUS
 10
3.363360
 20
5.528160
  0
VERTEX
  8
0
  6
CONTINUOUS
 10
3.326400
 20
5.498240
  0
SEQEND
  8
0
  0
SOLID
  8
0
 62
    15
 10
3.363360
 20
5.528160
 11
3.366880
 21
6.275720
 12
3.384920
 22
5.538720
 13
3.388880
 23
6.286280
  0
POLYLINE
  8
0
  6
CONTINUOUS
 66
     1
 40
0.000000
 41
0.000000
  0
VERTEX
  8
0
  6
CONTINUOUS
 10
3.363360
 20
5.528160
  0
VERTEX
  8
0
  6
CONTINUOUS
 10
3.366880
 20
6.275720
  0
VERTEX
  8
0
  6
CONTINUOUS
 10
3.388880
 20
6.286280
  0
VERTEX
  8
0
  6
CONTINUOUS
 10
3.384920
 20
5.538720
  0
VERTEX
  8
0
  6
CONTINUOUS
 10
3.363360
 20
5.528160
  0
SEQEND
  8
0
  0
SOLID
  8
0
 62
    15
 10
3.384920
 20
5.538720
 11
3.388880
 21
6.286280
 12
3.409560
 22
5.545760
 13
3.413080
 23
6.293320
  0
POLYLINE
  8
0
  6
CONTINUOUS
 66
     1
 40
0.000000
 41
0.000000
  0
VERTEX
  8
0
  6
CONTINUOUS
 10
3.384920
 20
5.538720
  0
VERTEX
  8
0
  6
CONTINUOUS
 10
3.388880
 20
6.286280
  0
VERTEX
  8
0
  6
CONTINUOUS
 10
3.413080
 20
6.293320
  0
VERTEX
  8
0
  6
CONTINUOUS
 10
3.409560
 20
5.545760
  0
VERTEX
  8
0
  6
CONTINUOUS
 10
3.384920
 20
5.538720
  0
SEQEND
  8
0
  0
SOLID
  8
0
 62
    15
 10
3.409560
 20
5.545760
 11
3.413080
 21
6.293320
 12
3.436400
 22
5.548400
 13
3.439920
 23
6.295960
  0
POLYLINE
  8
0
  6
CONTINUOUS
 66
     1
 40
0.000000
 41
0.000000
  0
VERTEX
  8
0
  6
CONTINUOUS
 10
3.409560
 20
5.545760
  0
VERTEX
  8
0
  6
CONTINUOUS
 10
3.413080
 20
6.293320
  0
VERTEX
  8
0
  6
CONTINUOUS
 10
3.439920
 20
6.295960
  0
VERTEX
  8
0
  6
CONTINUOUS
 10
3.436400
 20
5.548400
  0
VERTEX
  8
0
  6
CONTINUOUS
 10
3.409560
 20
5.545760
  0
SEQEND
  8
0
  0
SOLID
  8
0
 62
    15
 10
3.436400
 20
5.548400
 11
3.439920
 21
6.295960
 12
3.465880
 22
5.546640
 13
3.469400
 23
6.294200
  0
POLYLINE
  8
0
  6
CONTINUOUS
 66
     1
 40
0.000000
 41
0.000000
  0
VERTEX
  8
0
  6
CONTINUOUS
 10
3.436400
 20
5.548400
  0
VERTEX
  8
0
  6
CONTINUOUS
 10
3.439920
 20
6.295960
  0
VERTEX
  8
0
  6
CONTINUOUS
 10
3.469400
 20
6.294200
  0
VERTEX
  8
0
  6
CONTINUOUS
 10
3.465880
 20
5.546640
  0
VERTEX
  8
0
  6
CONTINUOUS
 10
3.436400
 20
5.548400
  0
SEQEND
  8
0
  0
SOLID
  8
0
 62
    15
 10
3.465880
 20
5.546640
 11
3.469400
 21
6.294200
 12
3.520440
 22
5.537400
 13
3.523960
 23
6.284960
  0
POLYLINE
  8
0
  6
CONTINUOUS
 66
     1
 40
0.000000
 41
0.000000
  0
VERTEX
  8
0
  6
CONTINUOUS
 10
3.465880
 20
5.546640
  0
VERTEX
  8
0
  6
CONTINUOUS
 10
3.469400
 20
6.294200
  0
VERTEX
  8
0
  6
CONTINUOUS
 10
3.523960
 20
6.284960
  0
VERTEX
  8
0
  6
CONTINUOUS
 10
3.520440
 20
5.537400
  0
VERTEX
  8
0
  6
CONTINUOUS
 10
3.465880
 20
5.546640
  0
SEQEND
  8
0
  0
SOLID
  8
0
 62
    15
 10
3.520440
 20
5.537400
 11
3.523960
 21
6.284960
 12
3.563120
 22
5.526400
 13
3.566640
 23
6.273960
  0
POLYLINE
  8
0
  6
CONTINUOUS
 66
     1
 40
0.000000
 41
0.000000
  0
VERTEX
  8
0
  6
CONTINUOUS
 10
3.520440
 20
5.537400
  0
VERTEX
  8
0
  6
CONTINUOUS
 10
3.523960
 20
6.284960
  0
VERTEX
  8
0
  6
CONTINUOUS
 10
3.566640
 20
6.273960
  0
VERTEX
  8
0
  6
CONTINUOUS
 10
3.563120
 20
5.526400
  0
VERTEX
  8
0
  6
CONTINUOUS
 10
3.520440
 20
5.537400
  0
SEQEND
  8
0
  0
SOLID
  8
0
 62
    15
 10
3.563120
 20
5.526400
 11
3.566640
 21
6.273960
 12
3.597440
 22
5.514520
 13
3.601400
 23
6.262520
  0
POLYLINE
  8
0
  6
CONTINUOUS
 66
     1
 40
0.000000
 41
0.000000
  0
VERTEX
  8
0
  6
CONTINUOUS
 10
3.563120
 20
5.526400
  0
VERTEX
  8
0
  6
CONTINUOUS
 10
3.566640
 20
6.273960
  0
VERTEX
  8
0
  6
CONTINUOUS
 10
3.601400
 20
6.262520
  0
VERTEX
  8
0
  6
CONTINUOUS
 10
3.597440
 20
5.514520
  0
VERTEX
  8
0
  6
CONTINUOUS
 10
3.563120
 20
5.526400
  0
SEQEND
  8
0
  0
SOLID
  8
0
 62
    15
 10
3.597440
 20
5.514520
 11
3.601400
 21
6.262520
 12
3.627360
 22
5.502640
 13
3.630880
 23
6.250200
  0
POLYLINE
  8
0
  6
CONTINUOUS
 66
     1
 40
0.000000
 41
0.000000
  0
VERTEX
  8
0
  6
CONTINUOUS
 10
3.597440
 20
5.514520
  0
VERTEX
  8
0
  6
CONTINUOUS
 10
3.601400
 20
6.262520
  0
VERTEX
  8
0
  6
CONTINUOUS
 10
3.630880
 20
6.250200
  0
VERTEX
  8
0
  6
CONTINUOUS
 10
3.627360
 20
5.502640
  0
VERTEX
  8
0
  6
CONTINUOUS
 10
3.597440
 20
5.514520
  0
SEQEND
  8
0
  0
SOLID
  8
0
 62
    15
 10
3.627360
 20
5.502640
 11
3.630880
 21
6.250200
 12
3.641440
 22
5.496480
 13
3.644960
 23
6.244040
  0
POLYLINE
  8
0
  6
CONTINUOUS
 66
     1
 40
0.000000
 41
0.000000
  0
VERTEX
  8
0
  6
CONTINUOUS
 10
3.627360
 20
5.502640
  0
VERTEX
  8
0
  6
CONTINUOUS
 10
3.630880
 20
6.250200
  0
VERTEX
  8
0
  6
CONTINUOUS
 10
3.644960
 20
6.244040
  0
VERTEX
  8
0
  6
CONTINUOUS
 10
3.641440
 20
5.496480
  0
VERTEX
  8
0
  6
CONTINUOUS
 10
3.627360
 20
5.502640
  0
SEQEND
  8
0
  0
SOLID
  8
0
 62
    15
 10
3.641440
 20
5.496480
 11
3.644960
 21
6.244040
 12
3.655520
 22
5.490760
 13
3.659040
 23
6.238320
  0
POLYLINE
  8
0
  6
CONTINUOUS
 66
     1
 40
0.000000
 41
0.000000
  0
VERTEX
  8
0
  6
CONTINUOUS
 10
3.641440
 20
5.496480
  0
VERTEX
  8
0
  6
CONTINUOUS
 10
3.644960
 20
6.244040
  0
VERTEX
  8
0
  6
CONTINUOUS
 10
3.659040
 20
6.238320
  0
VERTEX
  8
0
  6
CONTINUOUS
 10
3.655520
 20
5.490760
  0
VERTEX
  8
0
  6
CONTINUOUS
 10
3.641440
 20
5.496480
  0
SEQEND
  8
0
  0
SOLID
  8
0
 62
    15
 10
3.655520
 20
5.490760
 11
3.659040
 21
6.238320
 12
3.685880
 22
5.479320
 13
3.689400
 23
6.226880
  0
POLYLINE
  8
0
  6
CONTINUOUS
 66
     1
 40
0.000000
 41
0.000000
  0
VERTEX
  8
0
  6
CONTINUOUS
 10
3.655520
 20
5.490760
  0
VERTEX
  8
0
  6
CONTINUOUS
 10
3.659040
 20
6.238320
  0
VERTEX
  8
0
  6
CONTINUOUS
 10
3.689400
 20
6.226880
  0
VERTEX
  8
0
  6
CONTINUOUS
 10
3.685880
 20
5.479320
  0
VERTEX
  8
0
  6
CONTINUOUS
 10
3.655520
 20
5.490760
  0
SEQEND
  8
0
  0
SOLID
  8
0
 62
    15
 10
3.685880
 20
5.479320
 11
3.689400
 21
6.226880
 12
3.721080
 22
5.469640
 13
3.725040
 23
6.217200
  0
POLYLINE
  8
0
  6
CONTINUOUS
 66
     1
 40
0.000000
 41
0.000000
  0
VERTEX
  8
0
  6
CONTINUOUS
 10
3.685880
 20
5.479320
  0
VERTEX
  8
0
  6
CONTINUOUS
 10
3.689400
 20
6.226880
  0
VERTEX
  8
0
  6
CONTINUOUS
 10
3.725040
 20
6.217200
  0
VERTEX
  8
0
  6
CONTINUOUS
 10
3.721080
 20
5.469640
  0
VERTEX
  8
0
  6
CONTINUOUS
 10
3.685880
 20
5.479320
  0
SEQEND
  8
0
  0
SOLID
  8
0
 62
    15
 10
3.721080
 20
5.469640
 11
3.725040
 21
6.217200
 12
3.765520
 22
5.461720
 13
3.769040
 23
6.209280
  0
POLYLINE
  8
0
  6
CONTINUOUS
 66
     1
 40
0.000000
 41
0.000000
  0
VERTEX
  8
0
  6
CONTINUOUS
 10
3.721080
 20
5.469640
  0
VERTEX
  8
0
  6
CONTINUOUS
 10
3.725040
 20
6.217200
  0
VERTEX
  8
0
  6
CONTINUOUS
 10
3.769040
 20
6.209280
  0
VERTEX
  8
0
  6
CONTINUOUS
 10
3.765520
 20
5.461720
  0
VERTEX
  8
0
  6
CONTINUOUS
 10
3.721080
 20
5.469640
  0
SEQEND
  8
0
  0
SOLID
  8
0
 62
    15
 10
3.765520
 20
5.461720
 11
3.769040
 21
6.209280
 12
3.811280
 22
5.460400
 13
3.814800
 23
6.207960
  0
POLYLINE
  8
0
  6
CONTINUOUS
 66
     1
 40
0.000000
 41
0.000000
  0
VERTEX
  8
0
  6
CONTINUOUS
 10
3.765520
 20
5.461720
  0
VERTEX
  8
0
  6
CONTINUOUS
 10
3.769040
 20
6.209280
  0
VERTEX
  8
0
  6
CONTINUOUS
 10
3.814800
 20
6.207960
  0
VERTEX
  8
0
  6
CONTINUOUS
 10
3.811280
 20
5.460400
  0
VERTEX
  8
0
  6
CONTINUOUS
 10
3.765520
 20
5.461720
  0
SEQEND
  8
0
  0
SOLID
  8
0
 62
    15
 10
3.811280
 20
5.460400
 11
3.814800
 21
6.207960
 12
3.850000
 22
5.467440
 13
3.853520
 23
6.215000
  0
POLYLINE
  8
0
  6
CONTINUOUS
 66
     1
 40
0.000000
 41
0.000000
  0
VERTEX
  8
0
  6
CONTINUOUS
 10
3.811280
 20
5.460400
  0
VERTEX
  8
0
  6
CONTINUOUS
 10
3.814800
 20
6.207960
  0
VERTEX
  8
0
  6
CONTINUOUS
 10
3.853520
 20
6.215000
  0
VERTEX
  8
0
  6
CONTINUOUS
 10
3.850000
 20
5.467440
  0
VERTEX
  8
0
  6
CONTINUOUS
 10
3.811280
 20
5.460400
  0
SEQEND
  8
0
  0
SOLID
  8
0
 62
    15
 10
3.850000
 20
5.467440
 11
3.853520
 21
6.215000
 12
3.881240
 22
5.480640
 13
3.884760
 23
6.228200
  0
POLYLINE
  8
0
  6
CONTINUOUS
 66
     1
 40
0.000000
 41
0.000000
  0
VERTEX
  8
0
  6
CONTINUOUS
 10
3.850000
 20
5.467440
  0
VERTEX
  8
0
  6
CONTINUOUS
 10
3.853520
 20
6.215000
  0
VERTEX
  8
0
  6
CONTINUOUS
 10
3.884760
 20
6.228200
  0
VERTEX
  8
0
  6
CONTINUOUS
 10
3.881240
 20
5.480640
  0
VERTEX
  8
0
  6
CONTINUOUS
 10
3.850000
 20
5.467440
  0
SEQEND
  8
0
  0
SOLID
  8
0
 62
    15
 10
3.881240
 20
5.480640
 11
3.884760
 21
6.228200
 12
3.905880
 22
5.497360
 13
3.909400
 23
6.244920
  0
POLYLINE
  8
0
  6
CONTINUOUS
 66
     1
 40
0.000000
 41
0.000000
  0
VERTEX
  8
0
  6
CONTINUOUS
 10
3.881240
 20
5.480640
  0
VERTEX
  8
0
  6
CONTINUOUS
 10
3.884760
 20
6.228200
  0
VERTEX
  8
0
  6
CONTINUOUS
 10
3.909400
 20
6.244920
  0
VERTEX
  8
0
  6
CONTINUOUS
 10
3.905880
 20
5.497360
  0
VERTEX
  8
0
  6
CONTINUOUS
 10
3.881240
 20
5.480640
  0
SEQEND
  8
0
  0
SOLID
  8
0
 62
    15
 10
3.905880
 20
5.497360
 11
3.909400
 21
6.244920
 12
3.924360
 22
5.514960
 13
3.927880
 23
6.262520
  0
POLYLINE
  8
0
  6
CONTINUOUS
 66
     1
 40
0.000000
 41
0.000000
  0
VERTEX
  8
0
  6
CONTINUOUS
 10
3.905880
 20
5.497360
  0
VERTEX
  8
0
  6
CONTINUOUS
 10
3.909400
 20
6.244920
  0
VERTEX
  8
0
  6
CONTINUOUS
 10
3.927880
 20
6.262520
  0
VERTEX
  8
0
  6
CONTINUOUS
 10
3.924360
 20
5.514960
  0
VERTEX
  8
0
  6
CONTINUOUS
 10
3.905880
 20
5.497360
  0
SEQEND
  8
0
  0
SOLID
  8
0
 62
    15
 10
3.924360
 20
5.514960
 11
3.927880
 21
6.262520
 12
3.937120
 22
5.530800
 13
3.940640
 23
6.278360
  0
POLYLINE
  8
0
  6
CONTINUOUS
 66
     1
 40
0.000000
 41
0.000000
  0
VERTEX
  8
0
  6
CONTINUOUS
 10
3.924360
 20
5.514960
  0
VERTEX
  8
0
  6
CONTINUOUS
 10
3.927880
 20
6.262520
  0
VERTEX
  8
0
  6
CONTINUOUS
 10
3.940640
 20
6.278360
  0
VERTEX
  8
0
  6
CONTINUOUS
 10
3.937120
 20
5.530800
  0
VERTEX
  8
0
  6
CONTINUOUS
 10
3.924360
 20
5.514960
  0
SEQEND
  8
0
  0
SOLID
  8
0
 62
    15
 10
3.937120
 20
5.530800
 11
3.940640
 21
6.278360
 12
3.944160
 22
5.542240
 13
3.948120
 23
6.289800
  0
POLYLINE
  8
0
  6
CONTINUOUS
 66
     1
 40
0.000000
 41
0.000000
  0
VERTEX
  8
0
  6
CONTINUOUS
 10
3.937120
 20
5.530800
  0
VERTEX
  8
0
  6
CONTINUOUS
 10
3.940640
 20
6.278360
  0
VERTEX
  8
0
  6
CONTINUOUS
 10
3.948120
 20
6.289800
  0
VERTEX
  8
0
  6
CONTINUOUS
 10
3.944160
 20
5.542240
  0
VERTEX
  8
0
  6
CONTINUOUS
 10
3.937120
 20
5.530800
  0
SEQEND
  8
0
  0
SOLID
  8
0
 62
    15
 10
3.944160
 20
5.542240
 11
3.948120
 21
6.289800
 12
3.946800
 22
5.546640
 13
3.950320
 23
6.294200
  0
POLYLINE
  8
0
  6
CONTINUOUS
 66
     1
 40
0.000000
 41
0.000000
  0
VERTEX
  8
0
  6
CONTINUOUS
 10
3.944160
 20
5.542240
  0
VERTEX
  8
0
  6
CONTINUOUS
 10
3.948120
 20
6.289800
  0
VERTEX
  8
0
  6
CONTINUOUS
 10
3.950320
 20
6.294200
  0
VERTEX
  8
0
  6
CONTINUOUS
 10
3.946800
 20
5.546640
  0
VERTEX
  8
0
  6
CONTINUOUS
 10
3.944160
 20
5.542240
  0
SEQEND
  8
0
  0
SOLID
  8
0
 62
    15
 10
3.946800
 20
5.546640
 11
3.950320
 21
6.294200
 12
3.952960
 22
5.546200
 13
3.956480
 23
6.293760
  0
POLYLINE
  8
0
  6
CONTINUOUS
 66
     1
 40
0.000000
 41
0.000000
  0
VERTEX
  8
0
  6
CONTINUOUS
 10
3.946800
 20
5.546640
  0
VERTEX
  8
0
  6
CONTINUOUS
 10
3.950320
 20
6.294200
  0
VERTEX
  8
0
  6
CONTINUOUS
 10
3.956480
 20
6.293760
  0
VERTEX
  8
0
  6
CONTINUOUS
 10
3.952960
 20
5.546200
  0
VERTEX
  8
0
  6
CONTINUOUS
 10
3.946800
 20
5.546640
  0
SEQEND
  8
0
  0
SOLID
  8
0
 62
    15
 10
3.952960
 20
5.546200
 11
3.956480
 21
6.293760
 12
3.969680
 22
5.543560
 13
3.973200
 23
6.291120
  0
POLYLINE
  8
0
  6
CONTINUOUS
 66
     1
 40
0.000000
 41
0.000000
  0
VERTEX
  8
0
  6
CONTINUOUS
 10
3.952960
 20
5.546200
  0
VERTEX
  8
0
  6
CONTINUOUS
 10
3.956480
 20
6.293760
  0
VERTEX
  8
0
  6
CONTINUOUS
 10
3.973200
 20
6.291120
  0
VERTEX
  8
0
  6
CONTINUOUS
 10
3.969680
 20
5.543560
  0
VERTEX
  8
0
  6
CONTINUOUS
 10
3.952960
 20
5.546200
  0
SEQEND
  8
0
  0
SOLID
  8
0
 62
    15
 10
3.969680
 20
5.543560
 11
3.973200
 21
6.291120
 12
3.994760
 22
5.536960
 13
3.998280
 23
6.284520
  0
POLYLINE
  8
0
  6
CONTINUOUS
 66
     1
 40
0.000000
 41
0.000000
  0
VERTEX
  8
0
  6
CONTINUOUS
 10
3.969680
 20
5.543560
  0
VERTEX
  8
0
  6
CONTINUOUS
 10
3.973200
 20
6.291120
  0
VERTEX
  8
0
  6
CONTINUOUS
 10
3.998280
 20
6.284520
  0
VERTEX
  8
0
  6
CONTINUOUS
 10
3.994760
 20
5.536960
  0
VERTEX
  8
0
  6
CONTINUOUS
 10
3.969680
 20
5.543560
  0
SEQEND
  8
0
  0
SOLID
  8
0
 62
    15
 10
3.994760
 20
5.536960
 11
3.998280
 21
6.284520
 12
4.025120
 22
5.525080
 13
4.028640
 23
6.272640
  0
POLYLINE
  8
0
  6
CONTINUOUS
 66
     1
 40
0.000000
 41
0.000000
  0
VERTEX
  8
0
  6
CONTINUOUS
 10
3.994760
 20
5.536960
  0
VERTEX
  8
0
  6
CONTINUOUS
 10
3.998280
 20
6.284520
  0
VERTEX
  8
0
  6
CONTINUOUS
 10
4.028640
 20
6.272640
  0
VERTEX
  8
0
  6
CONTINUOUS
 10
4.025120
 20
5.525080
  0
VERTEX
  8
0
  6
CONTINUOUS
 10
3.994760
 20
5.536960
  0
SEQEND
  8
0
  0
SOLID
  8
0
 62
    15
 10
4.025120
 20
5.525080
 11
4.028640
 21
6.272640
 12
4.059000
 22
5.505720
 13
4.062520
 23
6.253720
  0
POLYLINE
  8
0
  6
CONTINUOUS
 66
     1
 40
0.000000
 41
0.000000
  0
VERTEX
  8
0
  6
CONTINUOUS
 10
4.025120
 20
5.525080
  0
VERTEX
  8
0
  6
CONTINUOUS
 10
4.028640
 20
6.272640
  0
VERTEX
  8
0
  6
CONTINUOUS
 10
4.062520
 20
6.253720
  0
VERTEX
  8
0
  6
CONTINUOUS
 10
4.059000
 20
5.505720
  0
VERTEX
  8
0
  6
CONTINUOUS
 10
4.025120
 20
5.525080
  0
SEQEND
  8
0
  0
SOLID
  8
0
 62
    15
 10
4.059000
 20
5.505720
 11
4.062520
 21
6.253720
 12
4.093320
 22
5.477560
 13
4.097280
 23
6.225120
  0
POLYLINE
  8
0
  6
CONTINUOUS
 66
     1
 40
0.000000
 41
0.000000
  0
VERTEX
  8
0
  6
CONTINUOUS
 10
4.059000
 20
5.505720
  0
VERTEX
  8
0
  6
CONTINUOUS
 10
4.062520
 20
6.253720
  0
VERTEX
  8
0
  6
CONTINUOUS
 10
4.097280
 20
6.225120
  0
VERTEX
  8
0
  6
CONTINUOUS
 10
4.093320
 20
5.477560
  0
VERTEX
  8
0
  6
CONTINUOUS
 10
4.059000
 20
5.505720
  0
SEQEND
  8
0
  0
SOLID
  8
0
 62
    15
 10
4.093320
 20
5.477560
 11
4.097280
 21
6.225120
 12
4.126320
 22
5.438400
 13
4.129840
 23
6.186400
  0
POLYLINE
  8
0
  6
CONTINUOUS
 66
     1
 40
0.000000
 41
0.000000
  0
VERTEX
  8
0
  6
CONTINUOUS
 10
4.093320
 20
5.477560
  0
VERTEX
  8
0
  6
CONTINUOUS
 10
4.097280
 20
6.225120
  0
VERTEX
  8
0
  6
CONTINUOUS
 10
4.129840
 20
6.186400
  0
VERTEX
  8
0
  6
CONTINUOUS
 10
4.126320
 20
5.438400
  0
VERTEX
  8
0
  6
CONTINUOUS
 10
4.093320
 20
5.477560
  0
SEQEND
  8
0
  0
SOLID
  8
0
 62
    15
 10
4.126320
 20
5.438400
 11
4.129840
 21
6.186400
 12
4.141280
 22
5.414640
 13
4.144800
 23
6.162200
  0
POLYLINE
  8
0
  6
CONTINUOUS
 66
     1
 40
0.000000
 41
0.000000
  0
VERTEX
  8
0
  6
CONTINUOUS
 10
4.126320
 20
5.438400
  0
VERTEX
  8
0
  6
CONTINUOUS
 10
4.129840
 20
6.186400
  0
VERTEX
  8
0
  6
CONTINUOUS
 10
4.144800
 20
6.162200
  0
VERTEX
  8
0
  6
CONTINUOUS
 10
4.141280
 20
5.414640
  0
VERTEX
  8
0
  6
CONTINUOUS
 10
4.126320
 20
5.438400
  0
SEQEND
  8
0
  0
SOLID
  8
0
 62
    15
 10
4.141280
 20
5.414640
 11
4.144800
 21
6.162200
 12
4.154920
 22
5.386920
 13
4.158440
 23
6.134920
  0
POLYLINE
  8
0
  6
CONTINUOUS
 66
     1
 40
0.000000
 41
0.000000
  0
VERTEX
  8
0
  6
CONTINUOUS
 10
4.141280
 20
5.414640
  0
VERTEX
  8
0
  6
CONTINUOUS
 10
4.144800
 20
6.162200
  0
VERTEX
  8
0
  6
CONTINUOUS
 10
4.158440
 20
6.134920
  0
VERTEX
  8
0
  6
CONTINUOUS
 10
4.154920
 20
5.386920
  0
VERTEX
  8
0
  6
CONTINUOUS
 10
4.141280
 20
5.414640
  0
SEQEND
  8
0
  0
SOLID
  8
0
 62
    15
 10
4.154920
 20
5.386920
 11
4.158440
 21
6.134920
 12
4.158440
 22
5.391760
 13
4.162400
 23
6.139320
  0
POLYLINE
  8
0
  6
CONTINUOUS
 66
     1
 40
0.000000
 41
0.000000
  0
VERTEX
  8
0
  6
CONTINUOUS
 10
4.154920
 20
5.386920
  0
VERTEX
  8
0
  6
CONTINUOUS
 10
4.158440
 20
6.134920
  0
VERTEX
  8
0
  6
CONTINUOUS
 10
4.162400
 20
6.139320
  0
VERTEX
  8
0
  6
CONTINUOUS
 10
4.158440
 20
5.391760
  0
VERTEX
  8
0
  6
CONTINUOUS
 10
4.154920
 20
5.386920
  0
SEQEND
  8
0
  0
POLYLINE
  8
0
  6
CONTINUOUS
 66
     1
 40
0.000000
 41
0.000000
  0
VERTEX
  8
0
  6
CONTINUOUS
 10
4.158440
 20
5.391760
  0
VERTEX
  8
0
  6
CONTINUOUS
 10
4.172080
 20
5.419480
  0
VERTEX
  8
0
  6
CONTINUOUS
 10
4.187040
 20
5.443240
  0
VERTEX
  8
0
  6
CONTINUOUS
 10
4.220040
 20
5.482400
  0
VERTEX
  8
0
  6
CONTINUOUS
 10
4.254360
 20
5.510560
  0
VERTEX
  8
0
  6
CONTINUOUS
 10
4.288240
 20
5.529920
  0
VERTEX
  8
0
  6
CONTINUOUS
 10
4.318600
 20
5.541800
  0
VERTEX
  8
0
  6
CONTINUOUS
 10
4.343680
 20
5.548400
  0
VERTEX
  8
0
  6
CONTINUOUS
 10
4.366560
 20
5.551480
  0
VERTEX
  8
0
  6
CONTINUOUS
 10
4.376240
 20
5.535640
  0
VERTEX
  8
0
  6
CONTINUOUS
 10
4.389000
 20
5.519800
  0
VERTEX
  8
0
  6
CONTINUOUS
 10
4.407480
 20
5.502200
  0
VERTEX
  8
0
  6
CONTINUOUS
 10
4.432120
 20
5.485480
  0
VERTEX
  8
0
  6
CONTINUOUS
 10
4.463800
 20
5.472280
  0
VERTEX
  8
0
  6
CONTINUOUS
 10
4.502080
 20
5.464800
  0
VERTEX
  8
0
  6
CONTINUOUS
 10
4.547840
 20
5.466560
  0
VERTEX
  8
0
  6
CONTINUOUS
 10
4.592280
 20
5.474480
  0
VERTEX
  8
0
  6
CONTINUOUS
 10
4.627480
 20
5.484160
  0
VERTEX
  8
0
  6
CONTINUOUS
 10
4.686000
 20
5.507040
  0
VERTEX
  8
0
  6
CONTINUOUS
 10
4.715920
 20
5.519360
  0
VERTEX
  8
0
  6
CONTINUOUS
 10
4.750240
 20
5.531240
  0
VERTEX
  8
0
  6
CONTINUOUS
 10
4.793360
 20
5.542240
  0
VERTEX
  8
0
  6
CONTINUOUS
 10
4.847920
 20
5.551480
  0
VERTEX
  8
0
  6
CONTINUOUS
 10
4.876960
 20
5.553240
  0
VERTEX
  8
0
  6
CONTINUOUS
 10
4.903800
 20
5.550600
  0
VERTEX
  8
0
  6
CONTINUOUS
 10
4.928440
 20
5.543560
  0
VERTEX
  8
0
  6
CONTINUOUS
 10
4.950000
 20
5.533000
  0
VERTEX
  8
0
  6
CONTINUOUS
 10
4.986960
 20
5.503080
  0
VERTEX
  8
0
  6
CONTINUOUS
 10
5.015120
 20
5.464360
  0
VERTEX
  8
0
  6
CONTINUOUS
 10
5.035360
 20
5.420360
  0
VERTEX
  8
0
  6
CONTINUOUS
 10
5.048120
 20
5.375480
  0
VERTEX
  8
0
  6
CONTINUOUS
 10
5.054720
 20
5.332800
  0
VERTEX
  8
0
  6
CONTINUOUS
 10
5.055160
 20
5.296280
  0
VERTEX
  8
0
  6
CONTINUOUS
 10
5.362280
 20
5.296280
  0
VERTEX
  8
0
  6
CONTINUOUS
 10
5.362280
 20
5.091240
  0
VERTEX
  8
0
  6
CONTINUOUS
 10
5.059560
 20
5.091240
  0
VERTEX
  8
0
  6
CONTINUOUS
 10
5.059560
 20
4.802160
  0
VERTEX
  8
0
  6
CONTINUOUS
 10
3.252920
 20
4.802160
  0
VERTEX
  8
0
  6
CONTINUOUS
 10
3.252920
 20
5.085960
  0
VERTEX
  8
0
  6
CONTINUOUS
 10
3.253800
 20
5.086400
  0
VERTEX
  8
0
  6
CONTINUOUS
 10
2.951080
 20
5.086400
  0
VERTEX
  8
0
  6
CONTINUOUS
 10
2.951080
 20
5.291440
  0
VERTEX
  8
0
  6
CONTINUOUS
 10
3.258200
 20
5.291440
  0
VERTEX
  8
0
  6
CONTINUOUS
 10
3.258640
 20
5.327960
  0
VERTEX
  8
0
  6
CONTINUOUS
 10
3.265240
 20
5.370640
  0
VERTEX
  8
0
  6
CONTINUOUS
 10
3.278000
 20
5.415520
  0
VERTEX
  8
0
  6
CONTINUOUS
 10
3.298240
 20
5.459520
  0
VERTEX
  8
0
  6
CONTINUOUS
 10
3.326400
 20
5.498240
  0
VERTEX
  8
0
  6
CONTINUOUS
 10
3.363360
 20
5.528160
  0
VERTEX
  8
0
  6
CONTINUOUS
 10
3.384920
 20
5.538720
  0
VERTEX
  8
0
  6
CONTINUOUS
 10
3.409560
 20
5.545760
  0
VERTEX
  8
0
  6
CONTINUOUS
 10
3.436400
 20
5.548400
  0
VERTEX
  8
0
  6
CONTINUOUS
 10
3.465880
 20
5.546640
  0
VERTEX
  8
0
  6
CONTINUOUS
 10
3.520440
 20
5.537400
  0
VERTEX
  8
0
  6
CONTINUOUS
 10
3.563120
 20
5.526400
  0
VERTEX
  8
0
  6
CONTINUOUS
 10
3.627360
 20
5.502640
  0
VERTEX
  8
0
  6
CONTINUOUS
 10
3.685880
 20
5.479320
  0
VERTEX
  8
0
  6
CONTINUOUS
 10
3.721080
 20
5.469640
  0
VERTEX
  8
0
  6
CONTINUOUS
 10
3.765520
 20
5.461720
  0
VERTEX
  8
0
  6
CONTINUOUS
 10
3.811280
 20
5.460400
  0
VERTEX
  8
0
  6
CONTINUOUS
 10
3.850000
 20
5.467440
  0
VERTEX
  8
0
  6
CONTINUOUS
 10
3.881240
 20
5.480640
  0
VERTEX
  8
0
  6
CONTINUOUS
 10
3.905880
 20
5.497360
  0
VERTEX
  8
0
  6
CONTINUOUS
 10
3.924360
 20
5.514960
  0
VERTEX
  8
0
  6
CONTINUOUS
 10
3.937120
 20
5.530800
  0
VERTEX
  8
0
  6
CONTINUOUS
 10
3.946800
 20
5.546640
  0
VERTEX
  8
0
  6
CONTINUOUS
 10
3.969680
 20
5.543560
  0
VERTEX
  8
0
  6
CONTINUOUS
 10
3.994760
 20
5.536960
  0
VERTEX
  8
0
  6
CONTINUOUS
 10
4.025120
 20
5.525080
  0
VERTEX
  8
0
  6
CONTINUOUS
 10
4.059000
 20
5.505720
  0
VERTEX
  8
0
  6
CONTINUOUS
 10
4.093320
 20
5.477560
  0
VERTEX
  8
0
  6
CONTINUOUS
 10
4.126320
 20
5.438400
  0
VERTEX
  8
0
  6
CONTINUOUS
 10
4.141280
 20
5.414640
  0
VERTEX
  8
0
  6
CONTINUOUS
 10
4.154920
 20
5.386920
  0
VERTEX
  8
0
  6
CONTINUOUS
 10
4.158440
 20
5.391760
  0
SEQEND
  8
0
  0
TEXT
  8
0
 10
3.816120
 20
4.580400
 40
0.138138
  1
BA  1203
 41
1.000000
  7
SN0
 71
     0
 72
     5
 11
4.498449
 21
4.580400
  0
TEXT
  8
0
 10
3.660360
 20
4.389000
 40
0.138138
  1
3/4" x 2-7/16"
 41
1.000000
  7
SN0
 71
     0
 72
     5
 11
4.652839
 21
4.389000
  0
POLYLINE
  8
0
  6
CONTINUOUS
 66
     1
 40
0.014080
 41
0.014080
  0
VERTEX
  8
0
  6
CONTINUOUS
 10
4.160640
 20
7.217760
  0
VERTEX
  8
0
  6
CONTINUOUS
 10
4.181320
 20
7.257360
  0
VERTEX
  8
0
  6
CONTINUOUS
 10
4.196720
 20
7.280240
  0
VERTEX
  8
0
  6
CONTINUOUS
 10
4.230160
 20
7.316320
  0
VERTEX
  8
0
  6
CONTINUOUS
 10
4.256120
 20
7.336560
  0
VERTEX
  8
0
  6
CONTINUOUS
 10
4.290000
 20
7.355480
  0
VERTEX
  8
0
  6
CONTINUOUS
 10
4.320360
 20
7.367800
  0
VERTEX
  8
0
  6
CONTINUOUS
 10
4.359080
 20
7.376160
  0
VERTEX
  8
0
  6
CONTINUOUS
 10
4.368320
 20
7.377040
  0
VERTEX
  8
0
  6
CONTINUOUS
 10
4.383720
 20
7.353720
  0
VERTEX
  8
0
  6
CONTINUOUS
 10
4.399120
 20
7.336560
  0
VERTEX
  8
0
  6
CONTINUOUS
 10
4.420680
 20
7.318960
  0
VERTEX
  8
0
  6
CONTINUOUS
 10
4.448840
 20
7.304000
  0
VERTEX
  8
0
  6
CONTINUOUS
 10
4.465560
 20
7.297840
  0
VERTEX
  8
0
  6
CONTINUOUS
 10
4.493720
 20
7.291680
  0
VERTEX
  8
0
  6
CONTINUOUS
 10
4.525840
 20
7.289920
  0
VERTEX
  8
0
  6
CONTINUOUS
 10
4.572920
 20
7.295640
  0
VERTEX
  8
0
  6
CONTINUOUS
 10
4.612520
 20
7.304880
  0
VERTEX
  8
0
  6
CONTINUOUS
 10
4.645080
 20
7.315440
  0
VERTEX
  8
0
  6
CONTINUOUS
 10
4.733960
 20
7.351080
  0
VERTEX
  8
0
  6
CONTINUOUS
 10
4.783240
 20
7.365160
  0
VERTEX
  8
0
  6
CONTINUOUS
 10
4.834720
 20
7.374840
  0
VERTEX
  8
0
  6
CONTINUOUS
 10
4.864640
 20
7.378360
  0
VERTEX
  8
0
  6
CONTINUOUS
 10
4.879160
 20
7.378800
  0
VERTEX
  8
0
  6
CONTINUOUS
 10
4.906000
 20
7.376160
  0
VERTEX
  8
0
  6
CONTINUOUS
 10
4.930200
 20
7.369120
  0
VERTEX
  8
0
  6
CONTINUOUS
 10
4.952200
 20
7.358560
  0
VERTEX
  8
0
  6
CONTINUOUS
 10
4.971560
 20
7.344920
  0
VERTEX
  8
0
  6
CONTINUOUS
 10
4.996640
 20
7.319840
  0
VERTEX
  8
0
  6
CONTINUOUS
 10
5.016880
 20
7.289920
  0
VERTEX
  8
0
  6
CONTINUOUS
 10
5.027880
 20
7.268360
  0
VERTEX
  8
0
  6
CONTINUOUS
 10
5.044600
 20
7.223480
  0
VERTEX
  8
0
  6
CONTINUOUS
 10
5.053840
 20
7.179040
  0
VERTEX
  8
0
  6
CONTINUOUS
 10
5.056480
 20
7.158360
  0
VERTEX
  8
0
  6
CONTINUOUS
 10
5.056920
 20
7.122280
  0
VERTEX
  8
0
  6
CONTINUOUS
 10
5.364040
 20
7.122280
  0
VERTEX
  8
0
  6
CONTINUOUS
 10
5.364040
 20
6.916800
  0
VERTEX
  8
0
  6
CONTINUOUS
 10
5.061320
 20
6.916800
  0
VERTEX
  8
0
  6
CONTINUOUS
 10
5.061320
 20
6.627720
  0
VERTEX
  8
0
  6
CONTINUOUS
 10
3.254680
 20
6.627720
  0
VERTEX
  8
0
  6
CONTINUOUS
 10
3.254680
 20
6.911520
  0
SEQEND
  8
0
  0
POLYLINE
  8
0
  6
CONTINUOUS
 66
     1
 40
0.014080
 41
0.014080
  0
VERTEX
  8
0
  6
CONTINUOUS
 10
4.156680
 20
7.212920
  0
VERTEX
  8
0
  6
CONTINUOUS
 10
4.136000
 20
7.252520
  0
VERTEX
  8
0
  6
CONTINUOUS
 10
4.112240
 20
7.285080
  0
VERTEX
  8
0
  6
CONTINUOUS
 10
4.086720
 20
7.311480
  0
VERTEX
  8
0
  6
CONTINUOUS
 10
4.060760
 20
7.331720
  0
VERTEX
  8
0
  6
CONTINUOUS
 10
4.026880
 20
7.350640
  0
VERTEX
  8
0
  6
CONTINUOUS
 10
3.996520
 20
7.362960
  0
VERTEX
  8
0
  6
CONTINUOUS
 10
3.957800
 20
7.371320
  0
VERTEX
  8
0
  6
CONTINUOUS
 10
3.948560
 20
7.372200
  0
VERTEX
  8
0
  6
CONTINUOUS
 10
3.933160
 20
7.348880
  0
VERTEX
  8
0
  6
CONTINUOUS
 10
3.907640
 20
7.322920
  0
VERTEX
  8
0
  6
CONTINUOUS
 10
3.883000
 20
7.306200
  0
VERTEX
  8
0
  6
CONTINUOUS
 10
3.851760
 20
7.293000
  0
VERTEX
  8
0
  6
CONTINUOUS
 10
3.823600
 20
7.286840
  0
VERTEX
  8
0
  6
CONTINUOUS
 10
3.791040
 20
7.285520
  0
VERTEX
  8
0
  6
CONTINUOUS
 10
3.755400
 20
7.289040
  0
VERTEX
  8
0
  6
CONTINUOUS
 10
3.722840
 20
7.295200
  0
VERTEX
  8
0
  6
CONTINUOUS
 10
3.687640
 20
7.304880
  0
VERTEX
  8
0
  6
CONTINUOUS
 10
3.582920
 20
7.346240
  0
VERTEX
  8
0
  6
CONTINUOUS
 10
3.544640
 20
7.357680
  0
VERTEX
  8
0
  6
CONTINUOUS
 10
3.496680
 20
7.367800
  0
VERTEX
  8
0
  6
CONTINUOUS
 10
3.452680
 20
7.373520
  0
VERTEX
  8
0
  6
CONTINUOUS
 10
3.438160
 20
7.373960
  0
VERTEX
  8
0
  6
CONTINUOUS
 10
3.411320
 20
7.371320
  0
VERTEX
  8
0
  6
CONTINUOUS
 10
3.387120
 20
7.364280
  0
VERTEX
  8
0
  6
CONTINUOUS
 10
3.365120
 20
7.353720
  0
VERTEX
  8
0
  6
CONTINUOUS
 10
3.345760
 20
7.340080
  0
VERTEX
  8
0
  6
CONTINUOUS
 10
3.320680
 20
7.315000
  0
VERTEX
  8
0
  6
CONTINUOUS
 10
3.300000
 20
7.285080
  0
VERTEX
  8
0
  6
CONTINUOUS
 10
3.289000
 20
7.263520
  0
VERTEX
  8
0
  6
CONTINUOUS
 10
3.279760
 20
7.241080
  0
VERTEX
  8
0
  6
CONTINUOUS
 10
3.267000
 20
7.196200
  0
VERTEX
  8
0
  6
CONTINUOUS
 10
3.260400
 20
7.153520
  0
VERTEX
  8
0
  6
CONTINUOUS
 10
3.259960
 20
7.117440
  0
VERTEX
  8
0
  6
CONTINUOUS
 10
2.953280
 20
7.117440
  0
VERTEX
  8
0
  6
CONTINUOUS
 10
2.953280
 20
6.911960
  0
VERTEX
  8
0
  6
CONTINUOUS
 10
3.255560
 20
6.911960
  0
SEQEND
  8
0
  0
TEXT
  8
0
 10
3.820520
 20
6.919440
 40
0.138138
  1
BA  1203
 41
1.000000
  7
SN0
 71
     0
 72
     5
 11
4.502849
 21
6.919440
  0
TEXT
  8
0
 10
3.664760
 20
6.727600
 40
0.138138
  1
3/4" x 2-7/16"
 41
1.000000
  7
SN0
 71
     0
 72
     5
 11
4.657239
 21
6.727600
  0
TEXT
  8
0
 10
5.205640
 20
6.684040
 40
0.138138
  1
Side Knives # 222
 41
1.000000
  7
SN0
 71
     0
 72
     5
 11
6.541719
 21
6.684040
  0
ENDSEC
  0
EOF
