  0
SECTION
  2
HEADER
  9
$ACADVER
  1
AC1006
  9
$EXTMIN
 10
3.047000
 20
1.051600
  9
$EXTMAX
 10
5.216640
 20
4.042720
  9
$LTSCALE
 40
0.044000
  9
$PDMODE
 70
    35
  9
$PDSIZE
 40
0.035200
  0
ENDSEC
  0
SECTION
  2
TABLES
  0
TABLE
  2
LTYPE
 70
     9
  0
LTYPE
  2
CONTINUOUS
 70
    64
  3
Solid line
 72
    65
 73
     0
 40
0.000000
  0
LTYPE
  2
DASHED
 70
    64
  3
__ __ __ __ __ __ __ __ __ __ __ __ __ __ __
 72
    65
 73
     2
 40
0.000330
 49
0.000220
 49
-0.000110
  0
LTYPE
  2
HIDDEN
 70
    64
  3
 _ _ _ _ _ _ _ _ _ _ _ _ _ _ _ _ _ _ _ _ _ _
 72
    65
 73
     2
 40
0.000165
 49
0.000110
 49
-0.000055
  0
LTYPE
  2
CENTER
 70
    64
  3
____ _ ____ _ ____ _ ____ _ ____ _ ____ _ ____
 72
    65
 73
     4
 40
0.000880
 49
0.000550
 49
-0.000110
 49
0.000110
 49
-0.000110
  0
LTYPE
  2
PHANTOM
 70
    64
  3
_____ _ _ _____ _ _ _____ _ _ _____ _ _ ____
 72
    65
 73
     6
 40
0.001100
 49
0.000550
 49
-0.000110
 49
0.000110
 49
-0.000110
 49
0.000110
 49
-0.000110
  0
LTYPE
  2
DOT
 70
    64
  3
...............................................
 72
    65
 73
     2
 40
0.000110
 49
0.000000
 49
-0.000110
  0
LTYPE
  2
DASHDOT
 70
    64
  3
__ . __ . __ . __ . __ . __ . __ . __ . __ . __
 72
    65
 73
     4
 40
0.000440
 49
0.000220
 49
-0.000110
 49
0.000000
 49
-0.000110
  0
LTYPE
  2
BORDER
 70
    64
  3
__ __ . __ __ . __ __ . __ __ . __ __ . __ __
 72
    65
 73
     6
 40
0.000770
 49
0.000220
 49
-0.000110
 49
0.000220
 49
-0.000110
 49
0.000000
 49
-0.000110
  0
LTYPE
  2
DIVIDE
 70
    64
  3
__ . . __ . . __ . . __ . . __ . . __ . . __
 72
    65
 73
     6
 40
0.000550
 49
0.000220
 49
-0.000110
 49
0.000000
 49
-0.000110
 49
0.000000
 49
-0.000110
  0
LTYPE
  2
DOTDOT
 70
    64
  3
 . .  . .  . .  . .  . .  . . 
 72
    65
 73
     5
 40
0.000242
 49
-0.000110
 49
0.000000
 49
-0.000110
 49
0.000000
 49
-0.000110
  0
ENDTAB
  0
TABLE
  2
STYLE
 70
     2
  0
STYLE
 70
     0
  2
SN0
 40
0.000000
 41
0.000440
 50
0.000000
 71
     0
 42
0.000000
  3
ROMAND
  0
STYLE
 70
    68
  2
SV0
 40
0.000000
 41
0.000440
 50
0.000000
 71
     0
 42
0.000000
  3
ROMAND
  0
ENDTAB
  0
TABLE
  2
LAYER
 70
     3
  0
LAYER
  2
FOREGROUND
 70
    64
 62
     7
  6
CONTINUOUS
  0
LAYER
  2
BACKGROUND
 70
    65
 62
    -7
  6
CONTINUOUS
  0
LAYER
  2
0
 70
    64
 62
     7
  6
CONTINUOUS
  0
ENDTAB
  0
ENDSEC
  0
SECTION
  2
ENTITIES
  0
POLYLINE
  8
FOREGROUND
  6
CONTINUOUS
 66
     1
 40
0.000000
 41
0.000000
  0
VERTEX
  8
FOREGROUND
  6
CONTINUOUS
 10
0.000000
 20
5.094320
  0
VERTEX
  8
FOREGROUND
  6
CONTINUOUS
 10
8.499920
 20
5.094320
  0
VERTEX
  8
FOREGROUND
  6
CONTINUOUS
 10
8.499920
 20
-5.905680
  0
VERTEX
  8
FOREGROUND
  6
CONTINUOUS
 10
0.000000
 20
-5.905680
  0
VERTEX
  8
FOREGROUND
  6
CONTINUOUS
 10
0.000000
 20
5.094320
  0
SEQEND
  8
0
  0
POLYLINE
  8
FOREGROUND
  6
CONTINUOUS
 66
     1
 40
0.000000
 41
0.000000
  0
VERTEX
  8
FOREGROUND
  6
CONTINUOUS
 10
0.000000
 20
5.094320
  0
VERTEX
  8
FOREGROUND
  6
CONTINUOUS
 10
8.499920
 20
5.094320
  0
VERTEX
  8
FOREGROUND
  6
CONTINUOUS
 10
8.499920
 20
-5.905680
  0
VERTEX
  8
FOREGROUND
  6
CONTINUOUS
 10
0.000000
 20
-5.905680
  0
VERTEX
  8
FOREGROUND
  6
CONTINUOUS
 10
0.000000
 20
5.094320
  0
SEQEND
  8
0
  0
POLYLINE
  8
0
  6
CONTINUOUS
 66
     1
 40
0.000000
 41
0.000000
  0
VERTEX
  8
0
  6
CONTINUOUS
 10
3.459280
 20
4.041840
  0
VERTEX
  8
0
  6
CONTINUOUS
 10
4.016320
 20
4.041840
  0
VERTEX
  8
0
  6
CONTINUOUS
 10
4.016320
 20
3.795440
  0
VERTEX
  8
0
  6
CONTINUOUS
 10
4.093760
 20
3.793240
  0
VERTEX
  8
0
  6
CONTINUOUS
 10
4.159760
 20
3.787960
  0
VERTEX
  8
0
  6
CONTINUOUS
 10
4.215200
 20
3.778720
  0
VERTEX
  8
0
  6
CONTINUOUS
 10
4.261400
 20
3.767280
  0
VERTEX
  8
0
  6
CONTINUOUS
 10
4.299680
 20
3.753200
  0
VERTEX
  8
0
  6
CONTINUOUS
 10
4.331360
 20
3.737360
  0
VERTEX
  8
0
  6
CONTINUOUS
 10
4.365680
 20
3.714040
  0
VERTEX
  8
0
  6
CONTINUOUS
 10
4.406160
 20
3.677520
  0
VERTEX
  8
0
  6
CONTINUOUS
 10
4.464680
 20
3.619440
  0
VERTEX
  8
0
  6
CONTINUOUS
 10
4.500760
 20
3.591720
  0
VERTEX
  8
0
  6
CONTINUOUS
 10
4.529360
 20
3.576760
  0
VERTEX
  8
0
  6
CONTINUOUS
 10
4.563680
 20
3.564880
  0
VERTEX
  8
0
  6
CONTINUOUS
 10
4.605480
 20
3.556080
  0
VERTEX
  8
0
  6
CONTINUOUS
 10
4.657400
 20
3.550800
  0
VERTEX
  8
0
  6
CONTINUOUS
 10
4.720760
 20
3.549040
  0
VERTEX
  8
0
  6
CONTINUOUS
 10
4.720760
 20
3.268320
  0
VERTEX
  8
0
  6
CONTINUOUS
 10
3.212880
 20
3.268320
  0
VERTEX
  8
0
  6
CONTINUOUS
 10
3.212880
 20
4.040960
  0
VERTEX
  8
0
  6
CONTINUOUS
 10
3.459280
 20
4.040960
  0
VERTEX
  8
0
  6
CONTINUOUS
 10
3.459280
 20
4.041840
  0
SEQEND
  8
0
  0
SOLID
  8
0
 62
    15
 10
4.215200
 20
1.971200
 11
4.876080
 21
2.348280
 12
4.241160
 22
1.946560
 13
4.901600
 23
2.323200
  0
POLYLINE
  8
0
  6
CONTINUOUS
 66
     1
 40
0.000000
 41
0.000000
  0
VERTEX
  8
0
  6
CONTINUOUS
 10
4.215200
 20
1.971200
  0
VERTEX
  8
0
  6
CONTINUOUS
 10
4.876080
 20
2.348280
  0
VERTEX
  8
0
  6
CONTINUOUS
 10
4.901600
 20
2.323200
  0
VERTEX
  8
0
  6
CONTINUOUS
 10
4.241160
 20
1.946560
  0
VERTEX
  8
0
  6
CONTINUOUS
 10
4.215200
 20
1.971200
  0
SEQEND
  8
0
  0
SOLID
  8
0
 62
    15
 10
3.850880
 20
2.310880
 11
4.511760
 21
2.687960
 12
3.850880
 22
2.064920
 13
4.511760
 23
2.441560
  0
POLYLINE
  8
0
  6
CONTINUOUS
 66
     1
 40
0.000000
 41
0.000000
  0
VERTEX
  8
0
  6
CONTINUOUS
 10
3.850880
 20
2.310880
  0
VERTEX
  8
0
  6
CONTINUOUS
 10
4.511760
 20
2.687960
  0
VERTEX
  8
0
  6
CONTINUOUS
 10
4.511760
 20
2.441560
  0
VERTEX
  8
0
  6
CONTINUOUS
 10
3.850880
 20
2.064920
  0
VERTEX
  8
0
  6
CONTINUOUS
 10
3.850880
 20
2.310880
  0
SEQEND
  8
0
  0
SOLID
  8
0
 62
    15
 10
3.850880
 20
2.064920
 11
4.511760
 21
2.441560
 12
3.904120
 22
2.063600
 13
4.565000
 23
2.440680
  0
POLYLINE
  8
0
  6
CONTINUOUS
 66
     1
 40
0.000000
 41
0.000000
  0
VERTEX
  8
0
  6
CONTINUOUS
 10
3.850880
 20
2.064920
  0
VERTEX
  8
0
  6
CONTINUOUS
 10
4.511760
 20
2.441560
  0
VERTEX
  8
0
  6
CONTINUOUS
 10
4.565000
 20
2.440680
  0
VERTEX
  8
0
  6
CONTINUOUS
 10
3.904120
 20
2.063600
  0
VERTEX
  8
0
  6
CONTINUOUS
 10
3.850880
 20
2.064920
  0
SEQEND
  8
0
  0
SOLID
  8
0
 62
    15
 10
3.904120
 20
2.063600
 11
4.565000
 21
2.440680
 12
3.951640
 22
2.060960
 13
4.612520
 23
2.438040
  0
POLYLINE
  8
0
  6
CONTINUOUS
 66
     1
 40
0.000000
 41
0.000000
  0
VERTEX
  8
0
  6
CONTINUOUS
 10
3.904120
 20
2.063600
  0
VERTEX
  8
0
  6
CONTINUOUS
 10
4.565000
 20
2.440680
  0
VERTEX
  8
0
  6
CONTINUOUS
 10
4.612520
 20
2.438040
  0
VERTEX
  8
0
  6
CONTINUOUS
 10
3.951640
 20
2.060960
  0
VERTEX
  8
0
  6
CONTINUOUS
 10
3.904120
 20
2.063600
  0
SEQEND
  8
0
  0
SOLID
  8
0
 62
    15
 10
3.951640
 20
2.060960
 11
4.612520
 21
2.438040
 12
3.994320
 22
2.057000
 13
4.655200
 23
2.434080
  0
POLYLINE
  8
0
  6
CONTINUOUS
 66
     1
 40
0.000000
 41
0.000000
  0
VERTEX
  8
0
  6
CONTINUOUS
 10
3.951640
 20
2.060960
  0
VERTEX
  8
0
  6
CONTINUOUS
 10
4.612520
 20
2.438040
  0
VERTEX
  8
0
  6
CONTINUOUS
 10
4.655200
 20
2.434080
  0
VERTEX
  8
0
  6
CONTINUOUS
 10
3.994320
 20
2.057000
  0
VERTEX
  8
0
  6
CONTINUOUS
 10
3.951640
 20
2.060960
  0
SEQEND
  8
0
  0
SOLID
  8
0
 62
    15
 10
3.994320
 20
2.057000
 11
4.655200
 21
2.434080
 12
4.032600
 22
2.051280
 13
4.693040
 23
2.428360
  0
POLYLINE
  8
0
  6
CONTINUOUS
 66
     1
 40
0.000000
 41
0.000000
  0
VERTEX
  8
0
  6
CONTINUOUS
 10
3.994320
 20
2.057000
  0
VERTEX
  8
0
  6
CONTINUOUS
 10
4.655200
 20
2.434080
  0
VERTEX
  8
0
  6
CONTINUOUS
 10
4.693040
 20
2.428360
  0
VERTEX
  8
0
  6
CONTINUOUS
 10
4.032600
 20
2.051280
  0
VERTEX
  8
0
  6
CONTINUOUS
 10
3.994320
 20
2.057000
  0
SEQEND
  8
0
  0
SOLID
  8
0
 62
    15
 10
4.032600
 20
2.051280
 11
4.693040
 21
2.428360
 12
4.066040
 22
2.044240
 13
4.726920
 23
2.421320
  0
POLYLINE
  8
0
  6
CONTINUOUS
 66
     1
 40
0.000000
 41
0.000000
  0
VERTEX
  8
0
  6
CONTINUOUS
 10
4.032600
 20
2.051280
  0
VERTEX
  8
0
  6
CONTINUOUS
 10
4.693040
 20
2.428360
  0
VERTEX
  8
0
  6
CONTINUOUS
 10
4.726920
 20
2.421320
  0
VERTEX
  8
0
  6
CONTINUOUS
 10
4.066040
 20
2.044240
  0
VERTEX
  8
0
  6
CONTINUOUS
 10
4.032600
 20
2.051280
  0
SEQEND
  8
0
  0
SOLID
  8
0
 62
    15
 10
4.066040
 20
2.044240
 11
4.726920
 21
2.421320
 12
4.095960
 22
2.036320
 13
4.756840
 23
2.413400
  0
POLYLINE
  8
0
  6
CONTINUOUS
 66
     1
 40
0.000000
 41
0.000000
  0
VERTEX
  8
0
  6
CONTINUOUS
 10
4.066040
 20
2.044240
  0
VERTEX
  8
0
  6
CONTINUOUS
 10
4.726920
 20
2.421320
  0
VERTEX
  8
0
  6
CONTINUOUS
 10
4.756840
 20
2.413400
  0
VERTEX
  8
0
  6
CONTINUOUS
 10
4.095960
 20
2.036320
  0
VERTEX
  8
0
  6
CONTINUOUS
 10
4.066040
 20
2.044240
  0
SEQEND
  8
0
  0
SOLID
  8
0
 62
    15
 10
4.095960
 20
2.036320
 11
4.756840
 21
2.413400
 12
4.145680
 22
2.017400
 13
4.806560
 23
2.394040
  0
POLYLINE
  8
0
  6
CONTINUOUS
 66
     1
 40
0.000000
 41
0.000000
  0
VERTEX
  8
0
  6
CONTINUOUS
 10
4.095960
 20
2.036320
  0
VERTEX
  8
0
  6
CONTINUOUS
 10
4.756840
 20
2.413400
  0
VERTEX
  8
0
  6
CONTINUOUS
 10
4.806560
 20
2.394040
  0
VERTEX
  8
0
  6
CONTINUOUS
 10
4.145680
 20
2.017400
  0
VERTEX
  8
0
  6
CONTINUOUS
 10
4.095960
 20
2.036320
  0
SEQEND
  8
0
  0
SOLID
  8
0
 62
    15
 10
4.145680
 20
2.017400
 11
4.806560
 21
2.394040
 12
4.184400
 22
1.994960
 13
4.845280
 23
2.372040
  0
POLYLINE
  8
0
  6
CONTINUOUS
 66
     1
 40
0.000000
 41
0.000000
  0
VERTEX
  8
0
  6
CONTINUOUS
 10
4.145680
 20
2.017400
  0
VERTEX
  8
0
  6
CONTINUOUS
 10
4.806560
 20
2.394040
  0
VERTEX
  8
0
  6
CONTINUOUS
 10
4.845280
 20
2.372040
  0
VERTEX
  8
0
  6
CONTINUOUS
 10
4.184400
 20
1.994960
  0
VERTEX
  8
0
  6
CONTINUOUS
 10
4.145680
 20
2.017400
  0
SEQEND
  8
0
  0
SOLID
  8
0
 62
    15
 10
4.184400
 20
1.994960
 11
4.845280
 21
2.372040
 12
4.215200
 22
1.971200
 13
4.876080
 23
2.348280
  0
POLYLINE
  8
0
  6
CONTINUOUS
 66
     1
 40
0.000000
 41
0.000000
  0
VERTEX
  8
0
  6
CONTINUOUS
 10
4.184400
 20
1.994960
  0
VERTEX
  8
0
  6
CONTINUOUS
 10
4.845280
 20
2.372040
  0
VERTEX
  8
0
  6
CONTINUOUS
 10
4.876080
 20
2.348280
  0
VERTEX
  8
0
  6
CONTINUOUS
 10
4.215200
 20
1.971200
  0
VERTEX
  8
0
  6
CONTINUOUS
 10
4.184400
 20
1.994960
  0
SEQEND
  8
0
  0
SOLID
  8
0
 62
    15
 10
3.047880
 20
2.310000
 11
3.708760
 21
2.687080
 12
3.294280
 22
2.310000
 13
3.954720
 23
2.687080
  0
POLYLINE
  8
0
  6
CONTINUOUS
 66
     1
 40
0.000000
 41
0.000000
  0
VERTEX
  8
0
  6
CONTINUOUS
 10
3.047880
 20
2.310000
  0
VERTEX
  8
0
  6
CONTINUOUS
 10
3.708760
 20
2.687080
  0
VERTEX
  8
0
  6
CONTINUOUS
 10
3.954720
 20
2.687080
  0
VERTEX
  8
0
  6
CONTINUOUS
 10
3.294280
 20
2.310000
  0
VERTEX
  8
0
  6
CONTINUOUS
 10
3.047880
 20
2.310000
  0
SEQEND
  8
0
  0
SOLID
  8
0
 62
    15
 10
4.241160
 20
1.946560
 11
4.901600
 21
2.323200
 12
4.258760
 22
1.928080
 13
4.919640
 23
2.304720
  0
POLYLINE
  8
0
  6
CONTINUOUS
 66
     1
 40
0.000000
 41
0.000000
  0
VERTEX
  8
0
  6
CONTINUOUS
 10
4.241160
 20
1.946560
  0
VERTEX
  8
0
  6
CONTINUOUS
 10
4.901600
 20
2.323200
  0
VERTEX
  8
0
  6
CONTINUOUS
 10
4.919640
 20
2.304720
  0
VERTEX
  8
0
  6
CONTINUOUS
 10
4.258760
 20
1.928080
  0
VERTEX
  8
0
  6
CONTINUOUS
 10
4.241160
 20
1.946560
  0
SEQEND
  8
0
  0
SOLID
  8
0
 62
    15
 10
4.258760
 20
1.928080
 11
4.919640
 21
2.304720
 12
4.264920
 22
1.921920
 13
4.925800
 23
2.299000
  0
POLYLINE
  8
0
  6
CONTINUOUS
 66
     1
 40
0.000000
 41
0.000000
  0
VERTEX
  8
0
  6
CONTINUOUS
 10
4.258760
 20
1.928080
  0
VERTEX
  8
0
  6
CONTINUOUS
 10
4.919640
 20
2.304720
  0
VERTEX
  8
0
  6
CONTINUOUS
 10
4.925800
 20
2.299000
  0
VERTEX
  8
0
  6
CONTINUOUS
 10
4.264920
 20
1.921920
  0
VERTEX
  8
0
  6
CONTINUOUS
 10
4.258760
 20
1.928080
  0
SEQEND
  8
0
  0
SOLID
  8
0
 62
    15
 10
4.264920
 20
1.921920
 11
4.925800
 21
2.299000
 12
4.311120
 22
1.878800
 13
4.971560
 23
2.255440
  0
POLYLINE
  8
0
  6
CONTINUOUS
 66
     1
 40
0.000000
 41
0.000000
  0
VERTEX
  8
0
  6
CONTINUOUS
 10
4.264920
 20
1.921920
  0
VERTEX
  8
0
  6
CONTINUOUS
 10
4.925800
 20
2.299000
  0
VERTEX
  8
0
  6
CONTINUOUS
 10
4.971560
 20
2.255440
  0
VERTEX
  8
0
  6
CONTINUOUS
 10
4.311120
 20
1.878800
  0
VERTEX
  8
0
  6
CONTINUOUS
 10
4.264920
 20
1.921920
  0
SEQEND
  8
0
  0
SOLID
  8
0
 62
    15
 10
4.311120
 20
1.878800
 11
4.971560
 21
2.255440
 12
4.335760
 22
1.860760
 13
4.996200
 23
2.237840
  0
POLYLINE
  8
0
  6
CONTINUOUS
 66
     1
 40
0.000000
 41
0.000000
  0
VERTEX
  8
0
  6
CONTINUOUS
 10
4.311120
 20
1.878800
  0
VERTEX
  8
0
  6
CONTINUOUS
 10
4.971560
 20
2.255440
  0
VERTEX
  8
0
  6
CONTINUOUS
 10
4.996200
 20
2.237840
  0
VERTEX
  8
0
  6
CONTINUOUS
 10
4.335760
 20
1.860760
  0
VERTEX
  8
0
  6
CONTINUOUS
 10
4.311120
 20
1.878800
  0
SEQEND
  8
0
  0
SOLID
  8
0
 62
    15
 10
4.335760
 20
1.860760
 11
4.996200
 21
2.237840
 12
4.363920
 22
1.846240
 13
5.024800
 23
2.222880
  0
POLYLINE
  8
0
  6
CONTINUOUS
 66
     1
 40
0.000000
 41
0.000000
  0
VERTEX
  8
0
  6
CONTINUOUS
 10
4.335760
 20
1.860760
  0
VERTEX
  8
0
  6
CONTINUOUS
 10
4.996200
 20
2.237840
  0
VERTEX
  8
0
  6
CONTINUOUS
 10
5.024800
 20
2.222880
  0
VERTEX
  8
0
  6
CONTINUOUS
 10
4.363920
 20
1.846240
  0
VERTEX
  8
0
  6
CONTINUOUS
 10
4.335760
 20
1.860760
  0
SEQEND
  8
0
  0
SOLID
  8
0
 62
    15
 10
4.363920
 20
1.846240
 11
5.024800
 21
2.222880
 12
4.398240
 22
1.834360
 13
5.059120
 23
2.211000
  0
POLYLINE
  8
0
  6
CONTINUOUS
 66
     1
 40
0.000000
 41
0.000000
  0
VERTEX
  8
0
  6
CONTINUOUS
 10
4.363920
 20
1.846240
  0
VERTEX
  8
0
  6
CONTINUOUS
 10
5.024800
 20
2.222880
  0
VERTEX
  8
0
  6
CONTINUOUS
 10
5.059120
 20
2.211000
  0
VERTEX
  8
0
  6
CONTINUOUS
 10
4.398240
 20
1.834360
  0
VERTEX
  8
0
  6
CONTINUOUS
 10
4.363920
 20
1.846240
  0
SEQEND
  8
0
  0
SOLID
  8
0
 62
    15
 10
4.398240
 20
1.834360
 11
5.059120
 21
2.211000
 12
4.440480
 22
1.825560
 13
5.100920
 23
2.202640
  0
POLYLINE
  8
0
  6
CONTINUOUS
 66
     1
 40
0.000000
 41
0.000000
  0
VERTEX
  8
0
  6
CONTINUOUS
 10
4.398240
 20
1.834360
  0
VERTEX
  8
0
  6
CONTINUOUS
 10
5.059120
 20
2.211000
  0
VERTEX
  8
0
  6
CONTINUOUS
 10
5.100920
 20
2.202640
  0
VERTEX
  8
0
  6
CONTINUOUS
 10
4.440480
 20
1.825560
  0
VERTEX
  8
0
  6
CONTINUOUS
 10
4.398240
 20
1.834360
  0
SEQEND
  8
0
  0
SOLID
  8
0
 62
    15
 10
4.440480
 20
1.825560
 11
5.100920
 21
2.202640
 12
4.491960
 22
1.820280
 13
5.152840
 23
2.197360
  0
POLYLINE
  8
0
  6
CONTINUOUS
 66
     1
 40
0.000000
 41
0.000000
  0
VERTEX
  8
0
  6
CONTINUOUS
 10
4.440480
 20
1.825560
  0
VERTEX
  8
0
  6
CONTINUOUS
 10
5.100920
 20
2.202640
  0
VERTEX
  8
0
  6
CONTINUOUS
 10
5.152840
 20
2.197360
  0
VERTEX
  8
0
  6
CONTINUOUS
 10
4.491960
 20
1.820280
  0
VERTEX
  8
0
  6
CONTINUOUS
 10
4.440480
 20
1.825560
  0
SEQEND
  8
0
  0
SOLID
  8
0
 62
    15
 10
4.491960
 20
1.820280
 11
5.152840
 21
2.197360
 12
4.555760
 22
1.818520
 13
5.216200
 23
2.195160
  0
POLYLINE
  8
0
  6
CONTINUOUS
 66
     1
 40
0.000000
 41
0.000000
  0
VERTEX
  8
0
  6
CONTINUOUS
 10
4.491960
 20
1.820280
  0
VERTEX
  8
0
  6
CONTINUOUS
 10
5.152840
 20
2.197360
  0
VERTEX
  8
0
  6
CONTINUOUS
 10
5.216200
 20
2.195160
  0
VERTEX
  8
0
  6
CONTINUOUS
 10
4.555760
 20
1.818520
  0
VERTEX
  8
0
  6
CONTINUOUS
 10
4.491960
 20
1.820280
  0
SEQEND
  8
0
  0
SOLID
  8
0
 62
    15
 10
4.555760
 20
1.818520
 11
5.216200
 21
2.195160
 12
4.555760
 22
1.537360
 13
5.216200
 23
1.914440
  0
POLYLINE
  8
0
  6
CONTINUOUS
 66
     1
 40
0.000000
 41
0.000000
  0
VERTEX
  8
0
  6
CONTINUOUS
 10
4.555760
 20
1.818520
  0
VERTEX
  8
0
  6
CONTINUOUS
 10
5.216200
 20
2.195160
  0
VERTEX
  8
0
  6
CONTINUOUS
 10
5.216200
 20
1.914440
  0
VERTEX
  8
0
  6
CONTINUOUS
 10
4.555760
 20
1.537360
  0
VERTEX
  8
0
  6
CONTINUOUS
 10
4.555760
 20
1.818520
  0
SEQEND
  8
0
  0
SOLID
  8
0
 62
    15
 10
3.294280
 20
2.310880
 11
3.954720
 21
2.687960
 12
3.850880
 22
2.310880
 13
4.511760
 23
2.687960
  0
POLYLINE
  8
0
  6
CONTINUOUS
 66
     1
 40
0.000000
 41
0.000000
  0
VERTEX
  8
0
  6
CONTINUOUS
 10
3.294280
 20
2.310880
  0
VERTEX
  8
0
  6
CONTINUOUS
 10
3.954720
 20
2.687960
  0
VERTEX
  8
0
  6
CONTINUOUS
 10
4.511760
 20
2.687960
  0
VERTEX
  8
0
  6
CONTINUOUS
 10
3.850880
 20
2.310880
  0
VERTEX
  8
0
  6
CONTINUOUS
 10
3.294280
 20
2.310880
  0
SEQEND
  8
0
  0
POLYLINE
  8
0
  6
CONTINUOUS
 66
     1
 40
0.000000
 41
0.000000
  0
VERTEX
  8
0
  6
CONTINUOUS
 10
3.294280
 20
2.310880
  0
VERTEX
  8
0
  6
CONTINUOUS
 10
3.850880
 20
2.310880
  0
VERTEX
  8
0
  6
CONTINUOUS
 10
3.850880
 20
2.064920
  0
VERTEX
  8
0
  6
CONTINUOUS
 10
3.904120
 20
2.063600
  0
VERTEX
  8
0
  6
CONTINUOUS
 10
3.951640
 20
2.060960
  0
VERTEX
  8
0
  6
CONTINUOUS
 10
3.994320
 20
2.057000
  0
VERTEX
  8
0
  6
CONTINUOUS
 10
4.032600
 20
2.051280
  0
VERTEX
  8
0
  6
CONTINUOUS
 10
4.066040
 20
2.044240
  0
VERTEX
  8
0
  6
CONTINUOUS
 10
4.095960
 20
2.036320
  0
VERTEX
  8
0
  6
CONTINUOUS
 10
4.145680
 20
2.017400
  0
VERTEX
  8
0
  6
CONTINUOUS
 10
4.184400
 20
1.994960
  0
VERTEX
  8
0
  6
CONTINUOUS
 10
4.215200
 20
1.971200
  0
VERTEX
  8
0
  6
CONTINUOUS
 10
4.241160
 20
1.946560
  0
VERTEX
  8
0
  6
CONTINUOUS
 10
4.258760
 20
1.928080
  0
VERTEX
  8
0
  6
CONTINUOUS
 10
4.264920
 20
1.921920
  0
VERTEX
  8
0
  6
CONTINUOUS
 10
4.311120
 20
1.878800
  0
VERTEX
  8
0
  6
CONTINUOUS
 10
4.335760
 20
1.860760
  0
VERTEX
  8
0
  6
CONTINUOUS
 10
4.363920
 20
1.846240
  0
VERTEX
  8
0
  6
CONTINUOUS
 10
4.398240
 20
1.834360
  0
VERTEX
  8
0
  6
CONTINUOUS
 10
4.440480
 20
1.825560
  0
VERTEX
  8
0
  6
CONTINUOUS
 10
4.491960
 20
1.820280
  0
VERTEX
  8
0
  6
CONTINUOUS
 10
4.555760
 20
1.818520
  0
VERTEX
  8
0
  6
CONTINUOUS
 10
4.555760
 20
1.537360
  0
VERTEX
  8
0
  6
CONTINUOUS
 10
3.047880
 20
1.537360
  0
VERTEX
  8
0
  6
CONTINUOUS
 10
3.047880
 20
2.310000
  0
VERTEX
  8
0
  6
CONTINUOUS
 10
3.294280
 20
2.310000
  0
VERTEX
  8
0
  6
CONTINUOUS
 10
3.294280
 20
2.310880
  0
SEQEND
  8
0
  0
TEXT
  8
0
 10
3.790160
 20
1.294480
 40
0.138195
  1
BA  1202
 41
1.000000
  7
SN0
 71
     0
 72
     5
 11
4.472734
 21
1.294480
  0
TEXT
  8
0
 10
3.680600
 20
1.102640
 40
0.138195
  1
3/4" x 1-1/2"
 41
1.000000
  7
SN0
 71
     0
 72
     5
 11
4.581675
 21
1.102640
  0
TEXT
  8
0
 10
3.502840
 20
3.550800
 40
0.138195
  1
BA  1202
 41
1.000000
  7
SN0
 71
     0
 72
     5
 11
4.185414
 21
3.550800
  0
TEXT
  8
0
 10
3.393280
 20
3.359400
 40
0.138195
  1
3/4" x 1-1/2"
 41
1.000000
  7
SN0
 71
     0
 72
     5
 11
4.294355
 21
3.359400
  0
ENDSEC
  0
EOF
