  0
SECTION
  2
HEADER
  9
$ACADVER
  1
AC1006
  9
$EXTMIN
 10
3.454440
 20
0.748880
  9
$EXTMAX
 10
7.884360
 20
4.732200
  9
$LTSCALE
 40
0.044000
  9
$PDMODE
 70
    35
  9
$PDSIZE
 40
0.035200
  0
ENDSEC
  0
SECTION
  2
TABLES
  0
TABLE
  2
LTYPE
 70
     9
  0
LTYPE
  2
CONTINUOUS
 70
    64
  3
Solid line
 72
    65
 73
     0
 40
0.000000
  0
LTYPE
  2
DASHED
 70
    64
  3
__ __ __ __ __ __ __ __ __ __ __ __ __ __ __
 72
    65
 73
     2
 40
0.000330
 49
0.000220
 49
-0.000110
  0
LTYPE
  2
HIDDEN
 70
    64
  3
 _ _ _ _ _ _ _ _ _ _ _ _ _ _ _ _ _ _ _ _ _ _
 72
    65
 73
     2
 40
0.000165
 49
0.000110
 49
-0.000055
  0
LTYPE
  2
CENTER
 70
    64
  3
____ _ ____ _ ____ _ ____ _ ____ _ ____ _ ____
 72
    65
 73
     4
 40
0.000880
 49
0.000550
 49
-0.000110
 49
0.000110
 49
-0.000110
  0
LTYPE
  2
PHANTOM
 70
    64
  3
_____ _ _ _____ _ _ _____ _ _ _____ _ _ ____
 72
    65
 73
     6
 40
0.001100
 49
0.000550
 49
-0.000110
 49
0.000110
 49
-0.000110
 49
0.000110
 49
-0.000110
  0
LTYPE
  2
DOT
 70
    64
  3
...............................................
 72
    65
 73
     2
 40
0.000110
 49
0.000000
 49
-0.000110
  0
LTYPE
  2
DASHDOT
 70
    64
  3
__ . __ . __ . __ . __ . __ . __ . __ . __ . __
 72
    65
 73
     4
 40
0.000440
 49
0.000220
 49
-0.000110
 49
0.000000
 49
-0.000110
  0
LTYPE
  2
BORDER
 70
    64
  3
__ __ . __ __ . __ __ . __ __ . __ __ . __ __
 72
    65
 73
     6
 40
0.000770
 49
0.000220
 49
-0.000110
 49
0.000220
 49
-0.000110
 49
0.000000
 49
-0.000110
  0
LTYPE
  2
DIVIDE
 70
    64
  3
__ . . __ . . __ . . __ . . __ . . __ . . __
 72
    65
 73
     6
 40
0.000550
 49
0.000220
 49
-0.000110
 49
0.000000
 49
-0.000110
 49
0.000000
 49
-0.000110
  0
LTYPE
  2
DOTDOT
 70
    64
  3
 . .  . .  . .  . .  . .  . . 
 72
    65
 73
     5
 40
0.000242
 49
-0.000110
 49
0.000000
 49
-0.000110
 49
0.000000
 49
-0.000110
  0
ENDTAB
  0
TABLE
  2
STYLE
 70
     2
  0
STYLE
 70
     0
  2
SN0
 40
0.000000
 41
0.000440
 50
0.000000
 71
     0
 42
0.000000
  3
ROMAND
  0
STYLE
 70
    68
  2
SV0
 40
0.000000
 41
0.000440
 50
0.000000
 71
     0
 42
0.000000
  3
ROMAND
  0
ENDTAB
  0
TABLE
  2
LAYER
 70
     3
  0
LAYER
  2
FOREGROUND
 70
    64
 62
     7
  6
CONTINUOUS
  0
LAYER
  2
BACKGROUND
 70
    65
 62
    -7
  6
CONTINUOUS
  0
LAYER
  2
0
 70
    64
 62
     7
  6
CONTINUOUS
  0
ENDTAB
  0
ENDSEC
  0
SECTION
  2
ENTITIES
  0
POLYLINE
  8
FOREGROUND
  6
CONTINUOUS
 66
     1
 40
0.000000
 41
0.000000
  0
VERTEX
  8
FOREGROUND
  6
CONTINUOUS
 10
0.000000
 20
5.481080
  0
VERTEX
  8
FOREGROUND
  6
CONTINUOUS
 10
8.499920
 20
5.481080
  0
VERTEX
  8
FOREGROUND
  6
CONTINUOUS
 10
8.499920
 20
-5.518920
  0
VERTEX
  8
FOREGROUND
  6
CONTINUOUS
 10
0.000000
 20
-5.518920
  0
VERTEX
  8
FOREGROUND
  6
CONTINUOUS
 10
0.000000
 20
5.481080
  0
SEQEND
  8
0
  0
POLYLINE
  8
FOREGROUND
  6
CONTINUOUS
 66
     1
 40
0.000000
 41
0.000000
  0
VERTEX
  8
FOREGROUND
  6
CONTINUOUS
 10
0.000000
 20
5.481080
  0
VERTEX
  8
FOREGROUND
  6
CONTINUOUS
 10
8.499920
 20
5.481080
  0
VERTEX
  8
FOREGROUND
  6
CONTINUOUS
 10
8.499920
 20
-5.518920
  0
VERTEX
  8
FOREGROUND
  6
CONTINUOUS
 10
0.000000
 20
-5.518920
  0
VERTEX
  8
FOREGROUND
  6
CONTINUOUS
 10
0.000000
 20
5.481080
  0
SEQEND
  8
0
  0
POLYLINE
  8
0
  6
CONTINUOUS
 66
     1
 40
0.014080
 41
0.014080
  0
VERTEX
  8
0
  6
CONTINUOUS
 10
7.228320
 20
3.828000
  0
VERTEX
  8
0
  6
CONTINUOUS
 10
4.495040
 20
3.828000
  0
VERTEX
  8
0
  6
CONTINUOUS
 10
4.156240
 20
4.101240
  0
VERTEX
  8
0
  6
CONTINUOUS
 10
4.598440
 20
4.672800
  0
VERTEX
  8
0
  6
CONTINUOUS
 10
4.624840
 20
4.691720
  0
VERTEX
  8
0
  6
CONTINUOUS
 10
4.652560
 20
4.706240
  0
VERTEX
  8
0
  6
CONTINUOUS
 10
4.680720
 20
4.716360
  0
VERTEX
  8
0
  6
CONTINUOUS
 10
4.709320
 20
4.722080
  0
VERTEX
  8
0
  6
CONTINUOUS
 10
4.737480
 20
4.724280
  0
VERTEX
  8
0
  6
CONTINUOUS
 10
4.751560
 20
4.724280
  0
VERTEX
  8
0
  6
CONTINUOUS
 10
4.779280
 20
4.720760
  0
VERTEX
  8
0
  6
CONTINUOUS
 10
4.806120
 20
4.714160
  0
VERTEX
  8
0
  6
CONTINUOUS
 10
4.843080
 20
4.697880
  0
VERTEX
  8
0
  6
CONTINUOUS
 10
4.865080
 20
4.683360
  0
VERTEX
  8
0
  6
CONTINUOUS
 10
4.884880
 20
4.666200
  0
VERTEX
  8
0
  6
CONTINUOUS
 10
4.901600
 20
4.645960
  0
VERTEX
  8
0
  6
CONTINUOUS
 10
4.915240
 20
4.623960
  0
VERTEX
  8
0
  6
CONTINUOUS
 10
4.925360
 20
4.599320
  0
VERTEX
  8
0
  6
CONTINUOUS
 10
4.931520
 20
4.572480
  0
VERTEX
  8
0
  6
CONTINUOUS
 10
4.933280
 20
4.543880
  0
VERTEX
  8
0
  6
CONTINUOUS
 10
5.038880
 20
4.543880
  0
VERTEX
  8
0
  6
CONTINUOUS
 10
5.045920
 20
4.528040
  0
VERTEX
  8
0
  6
CONTINUOUS
 10
5.056480
 20
4.488440
  0
VERTEX
  8
0
  6
CONTINUOUS
 10
5.069240
 20
4.418920
  0
VERTEX
  8
0
  6
CONTINUOUS
 10
5.075840
 20
4.399560
  0
VERTEX
  8
0
  6
CONTINUOUS
 10
5.096960
 20
4.359960
  0
VERTEX
  8
0
  6
CONTINUOUS
 10
5.112800
 20
4.343680
  0
VERTEX
  8
0
  6
CONTINUOUS
 10
5.128200
 20
4.335760
  0
VERTEX
  8
0
  6
CONTINUOUS
 10
5.148000
 20
4.333120
  0
VERTEX
  8
0
  6
CONTINUOUS
 10
5.172200
 20
4.337960
  0
VERTEX
  8
0
  6
CONTINUOUS
 10
5.201680
 20
4.352040
  0
VERTEX
  8
0
  6
CONTINUOUS
 10
5.236880
 20
4.377120
  0
VERTEX
  8
0
  6
CONTINUOUS
 10
5.308600
 20
4.442680
  0
VERTEX
  8
0
  6
CONTINUOUS
 10
5.337640
 20
4.465560
  0
VERTEX
  8
0
  6
CONTINUOUS
 10
5.365800
 20
4.483600
  0
VERTEX
  8
0
  6
CONTINUOUS
 10
5.393080
 20
4.497680
  0
VERTEX
  8
0
  6
CONTINUOUS
 10
5.432680
 20
4.511320
  0
VERTEX
  8
0
  6
CONTINUOUS
 10
5.469640
 20
4.517480
  0
VERTEX
  8
0
  6
CONTINUOUS
 10
5.492960
 20
4.517920
  0
VERTEX
  8
0
  6
CONTINUOUS
 10
5.514960
 20
4.515720
  0
VERTEX
  8
0
  6
CONTINUOUS
 10
5.535640
 20
4.511760
  0
VERTEX
  8
0
  6
CONTINUOUS
 10
5.555000
 20
4.505600
  0
VERTEX
  8
0
  6
CONTINUOUS
 10
5.573040
 20
4.498120
  0
VERTEX
  8
0
  6
CONTINUOUS
 10
5.603840
 20
4.479640
  0
VERTEX
  8
0
  6
CONTINUOUS
 10
5.628040
 20
4.459400
  0
VERTEX
  8
0
  6
CONTINUOUS
 10
5.915360
 20
4.703600
  0
VERTEX
  8
0
  6
CONTINUOUS
 10
6.105880
 20
4.506040
  0
VERTEX
  8
0
  6
CONTINUOUS
 10
6.127000
 20
4.522760
  0
VERTEX
  8
0
  6
CONTINUOUS
 10
6.170560
 20
4.550480
  0
VERTEX
  8
0
  6
CONTINUOUS
 10
6.215880
 20
4.571600
  0
VERTEX
  8
0
  6
CONTINUOUS
 10
6.262520
 20
4.587000
  0
VERTEX
  8
0
  6
CONTINUOUS
 10
6.286280
 20
4.592720
  0
VERTEX
  8
0
  6
CONTINUOUS
 10
6.334240
 20
4.599760
  0
VERTEX
  8
0
  6
CONTINUOUS
 10
6.383080
 20
4.602840
  0
VERTEX
  8
0
  6
CONTINUOUS
 10
6.432360
 20
4.601520
  0
VERTEX
  8
0
  6
CONTINUOUS
 10
6.482080
 20
4.597120
  0
VERTEX
  8
0
  6
CONTINUOUS
 10
6.531360
 20
4.589640
  0
VERTEX
  8
0
  6
CONTINUOUS
 10
6.580640
 20
4.580400
  0
VERTEX
  8
0
  6
CONTINUOUS
 10
6.677000
 20
4.557080
  0
VERTEX
  8
0
  6
CONTINUOUS
 10
6.813400
 20
4.521440
  0
VERTEX
  8
0
  6
CONTINUOUS
 10
6.941000
 20
4.492400
  0
VERTEX
  8
0
  6
CONTINUOUS
 10
7.030760
 20
4.475680
  0
VERTEX
  8
0
  6
CONTINUOUS
 10
7.100280
 20
4.467320
  0
VERTEX
  8
0
  6
CONTINUOUS
 10
7.147800
 20
4.465120
  0
VERTEX
  8
0
  6
CONTINUOUS
 10
7.172000
 20
4.465120
  0
VERTEX
  8
0
  6
CONTINUOUS
 10
7.220400
 20
4.468200
  0
VERTEX
  8
0
  6
CONTINUOUS
 10
7.269240
 20
4.475240
  0
VERTEX
  8
0
  6
CONTINUOUS
 10
7.318960
 20
4.487560
  0
VERTEX
  8
0
  6
CONTINUOUS
 10
7.344040
 20
4.495480
  0
VERTEX
  8
0
  6
CONTINUOUS
 10
7.393760
 20
4.516160
  0
VERTEX
  8
0
  6
CONTINUOUS
 10
7.444360
 20
4.543000
  0
VERTEX
  8
0
  6
CONTINUOUS
 10
7.494960
 20
4.577320
  0
VERTEX
  8
0
  6
CONTINUOUS
 10
7.545560
 20
4.619120
  0
VERTEX
  8
0
  6
CONTINUOUS
 10
7.596160
 20
4.669280
  0
VERTEX
  8
0
  6
CONTINUOUS
 10
7.621240
 20
4.697440
  0
VERTEX
  8
0
  6
CONTINUOUS
 10
7.873800
 20
4.472160
  0
VERTEX
  8
0
  6
CONTINUOUS
 10
7.228320
 20
3.828000
  0
SEQEND
  8
0
  0
TEXT
  8
0
 10
4.866400
 20
4.123240
 40
0.138071
  1
BA  1201
 41
1.000000
  7
SN0
 71
     0
 72
     5
 11
5.549715
 21
4.123240
  0
TEXT
  8
0
 10
4.664440
 20
3.931400
 40
0.138071
  1
15/16" x 3-3/4"
 41
1.000000
  7
SN0
 71
     0
 72
     5
 11
5.751542
 21
3.931400
  0
TEXT
  8
0
 10
5.552360
 20
0.992640
 40
0.138071
  1
BA  1201
 41
1.000000
  7
SN0
 71
     0
 72
     5
 11
6.235675
 21
0.992640
  0
TEXT
  8
0
 10
5.350400
 20
0.800800
 40
0.138071
  1
15/16" x 3-3/4"
 41
1.000000
  7
SN0
 71
     0
 72
     5
 11
6.437502
 21
0.800800
  0
SOLID
  8
0
 62
    15
 10
4.511760
 20
1.847120
 11
5.165160
 21
1.467840
 12
4.435200
 22
1.836560
 13
5.088600
 23
1.457280
  0
POLYLINE
  8
0
  6
CONTINUOUS
 66
     1
 40
0.000000
 41
0.000000
  0
VERTEX
  8
0
  6
CONTINUOUS
 10
4.511760
 20
1.847120
  0
VERTEX
  8
0
  6
CONTINUOUS
 10
5.165160
 20
1.467840
  0
VERTEX
  8
0
  6
CONTINUOUS
 10
5.088600
 20
1.457280
  0
VERTEX
  8
0
  6
CONTINUOUS
 10
4.435200
 20
1.836560
  0
VERTEX
  8
0
  6
CONTINUOUS
 10
4.511760
 20
1.847120
  0
SEQEND
  8
0
  0
SOLID
  8
0
 62
    15
 10
6.201360
 20
3.400760
 11
6.854760
 21
3.021040
 12
6.059240
 22
3.391960
 13
6.712640
 23
3.012240
  0
POLYLINE
  8
0
  6
CONTINUOUS
 66
     1
 40
0.000000
 41
0.000000
  0
VERTEX
  8
0
  6
CONTINUOUS
 10
6.201360
 20
3.400760
  0
VERTEX
  8
0
  6
CONTINUOUS
 10
6.854760
 20
3.021040
  0
VERTEX
  8
0
  6
CONTINUOUS
 10
6.712640
 20
3.012240
  0
VERTEX
  8
0
  6
CONTINUOUS
 10
6.059240
 20
3.391960
  0
VERTEX
  8
0
  6
CONTINUOUS
 10
6.201360
 20
3.400760
  0
SEQEND
  8
0
  0
SOLID
  8
0
 62
    15
 10
6.059240
 20
3.391960
 11
6.712640
 21
3.012240
 12
5.940880
 22
3.362040
 13
6.594280
 23
2.982320
  0
POLYLINE
  8
0
  6
CONTINUOUS
 66
     1
 40
0.000000
 41
0.000000
  0
VERTEX
  8
0
  6
CONTINUOUS
 10
6.059240
 20
3.391960
  0
VERTEX
  8
0
  6
CONTINUOUS
 10
6.712640
 20
3.012240
  0
VERTEX
  8
0
  6
CONTINUOUS
 10
6.594280
 20
2.982320
  0
VERTEX
  8
0
  6
CONTINUOUS
 10
5.940880
 20
3.362040
  0
VERTEX
  8
0
  6
CONTINUOUS
 10
6.059240
 20
3.391960
  0
SEQEND
  8
0
  0
SOLID
  8
0
 62
    15
 10
5.940880
 20
3.362040
 11
6.594280
 21
2.982320
 12
5.843640
 22
3.314520
 13
6.497040
 23
2.934800
  0
POLYLINE
  8
0
  6
CONTINUOUS
 66
     1
 40
0.000000
 41
0.000000
  0
VERTEX
  8
0
  6
CONTINUOUS
 10
5.940880
 20
3.362040
  0
VERTEX
  8
0
  6
CONTINUOUS
 10
6.594280
 20
2.982320
  0
VERTEX
  8
0
  6
CONTINUOUS
 10
6.497040
 20
2.934800
  0
VERTEX
  8
0
  6
CONTINUOUS
 10
5.843640
 20
3.314520
  0
VERTEX
  8
0
  6
CONTINUOUS
 10
5.940880
 20
3.362040
  0
SEQEND
  8
0
  0
SOLID
  8
0
 62
    15
 10
5.843640
 20
3.314520
 11
6.497040
 21
2.934800
 12
5.763560
 22
3.253360
 13
6.417400
 23
2.873640
  0
POLYLINE
  8
0
  6
CONTINUOUS
 66
     1
 40
0.000000
 41
0.000000
  0
VERTEX
  8
0
  6
CONTINUOUS
 10
5.843640
 20
3.314520
  0
VERTEX
  8
0
  6
CONTINUOUS
 10
6.497040
 20
2.934800
  0
VERTEX
  8
0
  6
CONTINUOUS
 10
6.417400
 20
2.873640
  0
VERTEX
  8
0
  6
CONTINUOUS
 10
5.763560
 20
3.253360
  0
VERTEX
  8
0
  6
CONTINUOUS
 10
5.843640
 20
3.314520
  0
SEQEND
  8
0
  0
SOLID
  8
0
 62
    15
 10
5.763560
 20
3.253360
 11
6.417400
 21
2.873640
 12
5.698000
 22
3.182960
 13
6.351400
 23
2.803240
  0
POLYLINE
  8
0
  6
CONTINUOUS
 66
     1
 40
0.000000
 41
0.000000
  0
VERTEX
  8
0
  6
CONTINUOUS
 10
5.763560
 20
3.253360
  0
VERTEX
  8
0
  6
CONTINUOUS
 10
6.417400
 20
2.873640
  0
VERTEX
  8
0
  6
CONTINUOUS
 10
6.351400
 20
2.803240
  0
VERTEX
  8
0
  6
CONTINUOUS
 10
5.698000
 20
3.182960
  0
VERTEX
  8
0
  6
CONTINUOUS
 10
5.763560
 20
3.253360
  0
SEQEND
  8
0
  0
SOLID
  8
0
 62
    15
 10
5.698000
 20
3.182960
 11
6.351400
 21
2.803240
 12
5.643440
 22
3.106400
 13
6.296840
 23
2.727120
  0
POLYLINE
  8
0
  6
CONTINUOUS
 66
     1
 40
0.000000
 41
0.000000
  0
VERTEX
  8
0
  6
CONTINUOUS
 10
5.698000
 20
3.182960
  0
VERTEX
  8
0
  6
CONTINUOUS
 10
6.351400
 20
2.803240
  0
VERTEX
  8
0
  6
CONTINUOUS
 10
6.296840
 20
2.727120
  0
VERTEX
  8
0
  6
CONTINUOUS
 10
5.643440
 20
3.106400
  0
VERTEX
  8
0
  6
CONTINUOUS
 10
5.698000
 20
3.182960
  0
SEQEND
  8
0
  0
SOLID
  8
0
 62
    15
 10
5.643440
 20
3.106400
 11
6.296840
 21
2.727120
 12
5.554120
 22
2.952400
 13
6.207520
 23
2.572680
  0
POLYLINE
  8
0
  6
CONTINUOUS
 66
     1
 40
0.000000
 41
0.000000
  0
VERTEX
  8
0
  6
CONTINUOUS
 10
5.643440
 20
3.106400
  0
VERTEX
  8
0
  6
CONTINUOUS
 10
6.296840
 20
2.727120
  0
VERTEX
  8
0
  6
CONTINUOUS
 10
6.207520
 20
2.572680
  0
VERTEX
  8
0
  6
CONTINUOUS
 10
5.554120
 20
2.952400
  0
VERTEX
  8
0
  6
CONTINUOUS
 10
5.643440
 20
3.106400
  0
SEQEND
  8
0
  0
SOLID
  8
0
 62
    15
 10
5.554120
 20
2.952400
 11
6.207520
 21
2.572680
 12
5.512760
 22
2.873200
 13
6.166160
 23
2.493920
  0
POLYLINE
  8
0
  6
CONTINUOUS
 66
     1
 40
0.000000
 41
0.000000
  0
VERTEX
  8
0
  6
CONTINUOUS
 10
5.554120
 20
2.952400
  0
VERTEX
  8
0
  6
CONTINUOUS
 10
6.207520
 20
2.572680
  0
VERTEX
  8
0
  6
CONTINUOUS
 10
6.166160
 20
2.493920
  0
VERTEX
  8
0
  6
CONTINUOUS
 10
5.512760
 20
2.873200
  0
VERTEX
  8
0
  6
CONTINUOUS
 10
5.554120
 20
2.952400
  0
SEQEND
  8
0
  0
SOLID
  8
0
 62
    15
 10
5.512760
 20
2.873200
 11
6.166160
 21
2.493920
 12
5.469640
 22
2.787840
 13
6.123040
 23
2.408560
  0
POLYLINE
  8
0
  6
CONTINUOUS
 66
     1
 40
0.000000
 41
0.000000
  0
VERTEX
  8
0
  6
CONTINUOUS
 10
5.512760
 20
2.873200
  0
VERTEX
  8
0
  6
CONTINUOUS
 10
6.166160
 20
2.493920
  0
VERTEX
  8
0
  6
CONTINUOUS
 10
6.123040
 20
2.408560
  0
VERTEX
  8
0
  6
CONTINUOUS
 10
5.469640
 20
2.787840
  0
VERTEX
  8
0
  6
CONTINUOUS
 10
5.512760
 20
2.873200
  0
SEQEND
  8
0
  0
SOLID
  8
0
 62
    15
 10
5.469640
 20
2.787840
 11
6.123040
 21
2.408560
 12
5.369760
 22
2.615800
 13
6.023160
 23
2.236080
  0
POLYLINE
  8
0
  6
CONTINUOUS
 66
     1
 40
0.000000
 41
0.000000
  0
VERTEX
  8
0
  6
CONTINUOUS
 10
5.469640
 20
2.787840
  0
VERTEX
  8
0
  6
CONTINUOUS
 10
6.123040
 20
2.408560
  0
VERTEX
  8
0
  6
CONTINUOUS
 10
6.023160
 20
2.236080
  0
VERTEX
  8
0
  6
CONTINUOUS
 10
5.369760
 20
2.615800
  0
VERTEX
  8
0
  6
CONTINUOUS
 10
5.469640
 20
2.787840
  0
SEQEND
  8
0
  0
SOLID
  8
0
 62
    15
 10
5.369760
 20
2.615800
 11
6.023160
 21
2.236080
 12
5.308600
 22
2.538360
 13
5.962000
 23
2.158640
  0
POLYLINE
  8
0
  6
CONTINUOUS
 66
     1
 40
0.000000
 41
0.000000
  0
VERTEX
  8
0
  6
CONTINUOUS
 10
5.369760
 20
2.615800
  0
VERTEX
  8
0
  6
CONTINUOUS
 10
6.023160
 20
2.236080
  0
VERTEX
  8
0
  6
CONTINUOUS
 10
5.962000
 20
2.158640
  0
VERTEX
  8
0
  6
CONTINUOUS
 10
5.308600
 20
2.538360
  0
VERTEX
  8
0
  6
CONTINUOUS
 10
5.369760
 20
2.615800
  0
SEQEND
  8
0
  0
SOLID
  8
0
 62
    15
 10
5.308600
 20
2.538360
 11
5.962000
 21
2.158640
 12
5.236440
 22
2.472360
 13
5.890280
 23
2.092640
  0
POLYLINE
  8
0
  6
CONTINUOUS
 66
     1
 40
0.000000
 41
0.000000
  0
VERTEX
  8
0
  6
CONTINUOUS
 10
5.308600
 20
2.538360
  0
VERTEX
  8
0
  6
CONTINUOUS
 10
5.962000
 20
2.158640
  0
VERTEX
  8
0
  6
CONTINUOUS
 10
5.890280
 20
2.092640
  0
VERTEX
  8
0
  6
CONTINUOUS
 10
5.236440
 20
2.472360
  0
VERTEX
  8
0
  6
CONTINUOUS
 10
5.308600
 20
2.538360
  0
SEQEND
  8
0
  0
SOLID
  8
0
 62
    15
 10
5.236440
 20
2.472360
 11
5.890280
 21
2.092640
 12
5.151960
 22
2.423080
 13
5.805360
 23
2.043360
  0
POLYLINE
  8
0
  6
CONTINUOUS
 66
     1
 40
0.000000
 41
0.000000
  0
VERTEX
  8
0
  6
CONTINUOUS
 10
5.236440
 20
2.472360
  0
VERTEX
  8
0
  6
CONTINUOUS
 10
5.890280
 20
2.092640
  0
VERTEX
  8
0
  6
CONTINUOUS
 10
5.805360
 20
2.043360
  0
VERTEX
  8
0
  6
CONTINUOUS
 10
5.151960
 20
2.423080
  0
VERTEX
  8
0
  6
CONTINUOUS
 10
5.236440
 20
2.472360
  0
SEQEND
  8
0
  0
SOLID
  8
0
 62
    15
 10
5.151960
 20
2.423080
 11
5.805360
 21
2.043360
 12
5.052080
 22
2.394920
 13
5.705480
 23
2.015200
  0
POLYLINE
  8
0
  6
CONTINUOUS
 66
     1
 40
0.000000
 41
0.000000
  0
VERTEX
  8
0
  6
CONTINUOUS
 10
5.151960
 20
2.423080
  0
VERTEX
  8
0
  6
CONTINUOUS
 10
5.805360
 20
2.043360
  0
VERTEX
  8
0
  6
CONTINUOUS
 10
5.705480
 20
2.015200
  0
VERTEX
  8
0
  6
CONTINUOUS
 10
5.052080
 20
2.394920
  0
VERTEX
  8
0
  6
CONTINUOUS
 10
5.151960
 20
2.423080
  0
SEQEND
  8
0
  0
SOLID
  8
0
 62
    15
 10
5.052080
 20
2.394920
 11
5.705480
 21
2.015200
 12
5.073200
 22
2.121240
 13
5.726600
 23
1.741520
  0
POLYLINE
  8
0
  6
CONTINUOUS
 66
     1
 40
0.000000
 41
0.000000
  0
VERTEX
  8
0
  6
CONTINUOUS
 10
5.052080
 20
2.394920
  0
VERTEX
  8
0
  6
CONTINUOUS
 10
5.705480
 20
2.015200
  0
VERTEX
  8
0
  6
CONTINUOUS
 10
5.726600
 20
1.741520
  0
VERTEX
  8
0
  6
CONTINUOUS
 10
5.073200
 20
2.121240
  0
VERTEX
  8
0
  6
CONTINUOUS
 10
5.052080
 20
2.394920
  0
SEQEND
  8
0
  0
SOLID
  8
0
 62
    15
 10
5.073200
 20
2.121240
 11
5.726600
 21
1.741520
 12
4.700080
 22
2.068440
 13
5.353480
 23
1.688720
  0
POLYLINE
  8
0
  6
CONTINUOUS
 66
     1
 40
0.000000
 41
0.000000
  0
VERTEX
  8
0
  6
CONTINUOUS
 10
5.073200
 20
2.121240
  0
VERTEX
  8
0
  6
CONTINUOUS
 10
5.726600
 20
1.741520
  0
VERTEX
  8
0
  6
CONTINUOUS
 10
5.353480
 20
1.688720
  0
VERTEX
  8
0
  6
CONTINUOUS
 10
4.700080
 20
2.068440
  0
VERTEX
  8
0
  6
CONTINUOUS
 10
5.073200
 20
2.121240
  0
SEQEND
  8
0
  0
SOLID
  8
0
 62
    15
 10
4.700080
 20
2.068440
 11
5.353480
 21
1.688720
 12
4.692160
 22
2.001560
 13
5.346000
 23
1.621840
  0
POLYLINE
  8
0
  6
CONTINUOUS
 66
     1
 40
0.000000
 41
0.000000
  0
VERTEX
  8
0
  6
CONTINUOUS
 10
4.700080
 20
2.068440
  0
VERTEX
  8
0
  6
CONTINUOUS
 10
5.353480
 20
1.688720
  0
VERTEX
  8
0
  6
CONTINUOUS
 10
5.346000
 20
1.621840
  0
VERTEX
  8
0
  6
CONTINUOUS
 10
4.692160
 20
2.001560
  0
VERTEX
  8
0
  6
CONTINUOUS
 10
4.700080
 20
2.068440
  0
SEQEND
  8
0
  0
SOLID
  8
0
 62
    15
 10
4.692160
 20
2.001560
 11
5.346000
 21
1.621840
 12
4.654320
 22
1.928520
 13
5.307720
 23
1.549240
  0
POLYLINE
  8
0
  6
CONTINUOUS
 66
     1
 40
0.000000
 41
0.000000
  0
VERTEX
  8
0
  6
CONTINUOUS
 10
4.692160
 20
2.001560
  0
VERTEX
  8
0
  6
CONTINUOUS
 10
5.346000
 20
1.621840
  0
VERTEX
  8
0
  6
CONTINUOUS
 10
5.307720
 20
1.549240
  0
VERTEX
  8
0
  6
CONTINUOUS
 10
4.654320
 20
1.928520
  0
VERTEX
  8
0
  6
CONTINUOUS
 10
4.692160
 20
2.001560
  0
SEQEND
  8
0
  0
SOLID
  8
0
 62
    15
 10
4.654320
 20
1.928520
 11
5.307720
 21
1.549240
 12
4.619560
 22
1.895520
 13
5.273400
 23
1.515800
  0
POLYLINE
  8
0
  6
CONTINUOUS
 66
     1
 40
0.000000
 41
0.000000
  0
VERTEX
  8
0
  6
CONTINUOUS
 10
4.654320
 20
1.928520
  0
VERTEX
  8
0
  6
CONTINUOUS
 10
5.307720
 20
1.549240
  0
VERTEX
  8
0
  6
CONTINUOUS
 10
5.273400
 20
1.515800
  0
VERTEX
  8
0
  6
CONTINUOUS
 10
4.619560
 20
1.895520
  0
VERTEX
  8
0
  6
CONTINUOUS
 10
4.654320
 20
1.928520
  0
SEQEND
  8
0
  0
SOLID
  8
0
 62
    15
 10
4.619560
 20
1.895520
 11
5.273400
 21
1.515800
 12
4.572920
 22
1.867800
 13
5.226320
 23
1.488080
  0
POLYLINE
  8
0
  6
CONTINUOUS
 66
     1
 40
0.000000
 41
0.000000
  0
VERTEX
  8
0
  6
CONTINUOUS
 10
4.619560
 20
1.895520
  0
VERTEX
  8
0
  6
CONTINUOUS
 10
5.273400
 20
1.515800
  0
VERTEX
  8
0
  6
CONTINUOUS
 10
5.226320
 20
1.488080
  0
VERTEX
  8
0
  6
CONTINUOUS
 10
4.572920
 20
1.867800
  0
VERTEX
  8
0
  6
CONTINUOUS
 10
4.619560
 20
1.895520
  0
SEQEND
  8
0
  0
SOLID
  8
0
 62
    15
 10
4.572920
 20
1.867800
 11
5.226320
 21
1.488080
 12
4.511760
 22
1.847120
 13
5.165160
 23
1.467840
  0
POLYLINE
  8
0
  6
CONTINUOUS
 66
     1
 40
0.000000
 41
0.000000
  0
VERTEX
  8
0
  6
CONTINUOUS
 10
4.572920
 20
1.867800
  0
VERTEX
  8
0
  6
CONTINUOUS
 10
5.226320
 20
1.488080
  0
VERTEX
  8
0
  6
CONTINUOUS
 10
5.165160
 20
1.467840
  0
VERTEX
  8
0
  6
CONTINUOUS
 10
4.511760
 20
1.847120
  0
VERTEX
  8
0
  6
CONTINUOUS
 10
4.572920
 20
1.867800
  0
SEQEND
  8
0
  0
SOLID
  8
0
 62
    15
 10
6.200920
 20
3.739560
 11
6.854320
 21
3.359840
 12
6.201360
 22
3.400760
 13
6.854760
 23
3.021040
  0
POLYLINE
  8
0
  6
CONTINUOUS
 66
     1
 40
0.000000
 41
0.000000
  0
VERTEX
  8
0
  6
CONTINUOUS
 10
6.200920
 20
3.739560
  0
VERTEX
  8
0
  6
CONTINUOUS
 10
6.854320
 20
3.359840
  0
VERTEX
  8
0
  6
CONTINUOUS
 10
6.854760
 20
3.021040
  0
VERTEX
  8
0
  6
CONTINUOUS
 10
6.201360
 20
3.400760
  0
VERTEX
  8
0
  6
CONTINUOUS
 10
6.200920
 20
3.739560
  0
SEQEND
  8
0
  0
SOLID
  8
0
 62
    15
 10
4.435200
 20
1.836560
 11
5.088600
 21
1.457280
 12
4.363480
 22
1.827760
 13
5.016880
 23
1.448040
  0
POLYLINE
  8
0
  6
CONTINUOUS
 66
     1
 40
0.000000
 41
0.000000
  0
VERTEX
  8
0
  6
CONTINUOUS
 10
4.435200
 20
1.836560
  0
VERTEX
  8
0
  6
CONTINUOUS
 10
5.088600
 20
1.457280
  0
VERTEX
  8
0
  6
CONTINUOUS
 10
5.016880
 20
1.448040
  0
VERTEX
  8
0
  6
CONTINUOUS
 10
4.363480
 20
1.827760
  0
VERTEX
  8
0
  6
CONTINUOUS
 10
4.435200
 20
1.836560
  0
SEQEND
  8
0
  0
SOLID
  8
0
 62
    15
 10
4.363480
 20
1.827760
 11
5.016880
 21
1.448040
 12
4.315520
 22
1.812800
 13
4.968920
 23
1.433080
  0
POLYLINE
  8
0
  6
CONTINUOUS
 66
     1
 40
0.000000
 41
0.000000
  0
VERTEX
  8
0
  6
CONTINUOUS
 10
4.363480
 20
1.827760
  0
VERTEX
  8
0
  6
CONTINUOUS
 10
5.016880
 20
1.448040
  0
VERTEX
  8
0
  6
CONTINUOUS
 10
4.968920
 20
1.433080
  0
VERTEX
  8
0
  6
CONTINUOUS
 10
4.315520
 20
1.812800
  0
VERTEX
  8
0
  6
CONTINUOUS
 10
4.363480
 20
1.827760
  0
SEQEND
  8
0
  0
SOLID
  8
0
 62
    15
 10
4.315520
 20
1.812800
 11
4.968920
 21
1.433080
 12
4.286920
 22
1.793440
 13
4.940320
 23
1.413720
  0
POLYLINE
  8
0
  6
CONTINUOUS
 66
     1
 40
0.000000
 41
0.000000
  0
VERTEX
  8
0
  6
CONTINUOUS
 10
4.315520
 20
1.812800
  0
VERTEX
  8
0
  6
CONTINUOUS
 10
4.968920
 20
1.433080
  0
VERTEX
  8
0
  6
CONTINUOUS
 10
4.940320
 20
1.413720
  0
VERTEX
  8
0
  6
CONTINUOUS
 10
4.286920
 20
1.793440
  0
VERTEX
  8
0
  6
CONTINUOUS
 10
4.315520
 20
1.812800
  0
SEQEND
  8
0
  0
SOLID
  8
0
 62
    15
 10
4.286920
 20
1.793440
 11
4.940320
 21
1.413720
 12
4.273720
 22
1.771440
 13
4.927120
 23
1.391720
  0
POLYLINE
  8
0
  6
CONTINUOUS
 66
     1
 40
0.000000
 41
0.000000
  0
VERTEX
  8
0
  6
CONTINUOUS
 10
4.286920
 20
1.793440
  0
VERTEX
  8
0
  6
CONTINUOUS
 10
4.940320
 20
1.413720
  0
VERTEX
  8
0
  6
CONTINUOUS
 10
4.927120
 20
1.391720
  0
VERTEX
  8
0
  6
CONTINUOUS
 10
4.273720
 20
1.771440
  0
VERTEX
  8
0
  6
CONTINUOUS
 10
4.286920
 20
1.793440
  0
SEQEND
  8
0
  0
SOLID
  8
0
 62
    15
 10
4.273720
 20
1.771440
 11
4.927120
 21
1.391720
 12
4.275920
 22
1.727000
 13
4.929320
 23
1.347280
  0
POLYLINE
  8
0
  6
CONTINUOUS
 66
     1
 40
0.000000
 41
0.000000
  0
VERTEX
  8
0
  6
CONTINUOUS
 10
4.273720
 20
1.771440
  0
VERTEX
  8
0
  6
CONTINUOUS
 10
4.927120
 20
1.391720
  0
VERTEX
  8
0
  6
CONTINUOUS
 10
4.929320
 20
1.347280
  0
VERTEX
  8
0
  6
CONTINUOUS
 10
4.275920
 20
1.727000
  0
VERTEX
  8
0
  6
CONTINUOUS
 10
4.273720
 20
1.771440
  0
SEQEND
  8
0
  0
SOLID
  8
0
 62
    15
 10
4.275920
 20
1.727000
 11
4.929320
 21
1.347280
 12
4.283400
 22
1.708960
 13
4.936800
 23
1.329240
  0
POLYLINE
  8
0
  6
CONTINUOUS
 66
     1
 40
0.000000
 41
0.000000
  0
VERTEX
  8
0
  6
CONTINUOUS
 10
4.275920
 20
1.727000
  0
VERTEX
  8
0
  6
CONTINUOUS
 10
4.929320
 20
1.347280
  0
VERTEX
  8
0
  6
CONTINUOUS
 10
4.936800
 20
1.329240
  0
VERTEX
  8
0
  6
CONTINUOUS
 10
4.283400
 20
1.708960
  0
VERTEX
  8
0
  6
CONTINUOUS
 10
4.275920
 20
1.727000
  0
SEQEND
  8
0
  0
SOLID
  8
0
 62
    15
 10
4.283400
 20
1.708960
 11
4.936800
 21
1.329240
 12
4.288680
 22
1.695760
 13
4.942080
 23
1.316040
  0
POLYLINE
  8
0
  6
CONTINUOUS
 66
     1
 40
0.000000
 41
0.000000
  0
VERTEX
  8
0
  6
CONTINUOUS
 10
4.283400
 20
1.708960
  0
VERTEX
  8
0
  6
CONTINUOUS
 10
4.936800
 20
1.329240
  0
VERTEX
  8
0
  6
CONTINUOUS
 10
4.942080
 20
1.316040
  0
VERTEX
  8
0
  6
CONTINUOUS
 10
4.288680
 20
1.695760
  0
VERTEX
  8
0
  6
CONTINUOUS
 10
4.283400
 20
1.708960
  0
SEQEND
  8
0
  0
SOLID
  8
0
 62
    15
 10
4.288680
 20
1.695760
 11
4.942080
 21
1.316040
 12
4.303640
 22
1.670680
 13
4.957040
 23
1.290960
  0
POLYLINE
  8
0
  6
CONTINUOUS
 66
     1
 40
0.000000
 41
0.000000
  0
VERTEX
  8
0
  6
CONTINUOUS
 10
4.288680
 20
1.695760
  0
VERTEX
  8
0
  6
CONTINUOUS
 10
4.942080
 20
1.316040
  0
VERTEX
  8
0
  6
CONTINUOUS
 10
4.957040
 20
1.290960
  0
VERTEX
  8
0
  6
CONTINUOUS
 10
4.303640
 20
1.670680
  0
VERTEX
  8
0
  6
CONTINUOUS
 10
4.288680
 20
1.695760
  0
SEQEND
  8
0
  0
SOLID
  8
0
 62
    15
 10
4.303640
 20
1.670680
 11
4.957040
 21
1.290960
 12
4.315520
 22
1.655280
 13
4.968920
 23
1.275560
  0
POLYLINE
  8
0
  6
CONTINUOUS
 66
     1
 40
0.000000
 41
0.000000
  0
VERTEX
  8
0
  6
CONTINUOUS
 10
4.303640
 20
1.670680
  0
VERTEX
  8
0
  6
CONTINUOUS
 10
4.957040
 20
1.290960
  0
VERTEX
  8
0
  6
CONTINUOUS
 10
4.968920
 20
1.275560
  0
VERTEX
  8
0
  6
CONTINUOUS
 10
4.315520
 20
1.655280
  0
VERTEX
  8
0
  6
CONTINUOUS
 10
4.303640
 20
1.670680
  0
SEQEND
  8
0
  0
SOLID
  8
0
 62
    15
 10
4.315520
 20
1.655280
 11
4.968920
 21
1.275560
 12
4.328720
 22
1.639000
 13
4.982120
 23
1.259280
  0
POLYLINE
  8
0
  6
CONTINUOUS
 66
     1
 40
0.000000
 41
0.000000
  0
VERTEX
  8
0
  6
CONTINUOUS
 10
4.315520
 20
1.655280
  0
VERTEX
  8
0
  6
CONTINUOUS
 10
4.968920
 20
1.275560
  0
VERTEX
  8
0
  6
CONTINUOUS
 10
4.982120
 20
1.259280
  0
VERTEX
  8
0
  6
CONTINUOUS
 10
4.328720
 20
1.639000
  0
VERTEX
  8
0
  6
CONTINUOUS
 10
4.315520
 20
1.655280
  0
SEQEND
  8
0
  0
SOLID
  8
0
 62
    15
 10
4.328720
 20
1.639000
 11
4.982120
 21
1.259280
 12
4.372280
 22
1.572120
 13
5.025680
 23
1.192400
  0
POLYLINE
  8
0
  6
CONTINUOUS
 66
     1
 40
0.000000
 41
0.000000
  0
VERTEX
  8
0
  6
CONTINUOUS
 10
4.328720
 20
1.639000
  0
VERTEX
  8
0
  6
CONTINUOUS
 10
4.982120
 20
1.259280
  0
VERTEX
  8
0
  6
CONTINUOUS
 10
5.025680
 20
1.192400
  0
VERTEX
  8
0
  6
CONTINUOUS
 10
4.372280
 20
1.572120
  0
VERTEX
  8
0
  6
CONTINUOUS
 10
4.328720
 20
1.639000
  0
SEQEND
  8
0
  0
SOLID
  8
0
 62
    15
 10
4.372280
 20
1.572120
 11
5.025680
 21
1.192400
 12
4.301880
 22
1.492920
 13
4.955280
 23
1.113200
  0
POLYLINE
  8
0
  6
CONTINUOUS
 66
     1
 40
0.000000
 41
0.000000
  0
VERTEX
  8
0
  6
CONTINUOUS
 10
4.372280
 20
1.572120
  0
VERTEX
  8
0
  6
CONTINUOUS
 10
5.025680
 20
1.192400
  0
VERTEX
  8
0
  6
CONTINUOUS
 10
4.955280
 20
1.113200
  0
VERTEX
  8
0
  6
CONTINUOUS
 10
4.301880
 20
1.492920
  0
VERTEX
  8
0
  6
CONTINUOUS
 10
4.372280
 20
1.572120
  0
SEQEND
  8
0
  0
SOLID
  8
0
 62
    15
 10
4.301880
 20
1.492920
 11
4.955280
 21
1.113200
 12
4.337960
 22
1.450240
 13
4.991360
 23
1.070960
  0
POLYLINE
  8
0
  6
CONTINUOUS
 66
     1
 40
0.000000
 41
0.000000
  0
VERTEX
  8
0
  6
CONTINUOUS
 10
4.301880
 20
1.492920
  0
VERTEX
  8
0
  6
CONTINUOUS
 10
4.955280
 20
1.113200
  0
VERTEX
  8
0
  6
CONTINUOUS
 10
4.991360
 20
1.070960
  0
VERTEX
  8
0
  6
CONTINUOUS
 10
4.337960
 20
1.450240
  0
VERTEX
  8
0
  6
CONTINUOUS
 10
4.301880
 20
1.492920
  0
SEQEND
  8
0
  0
SOLID
  8
0
 62
    15
 10
4.337960
 20
1.450240
 11
4.991360
 21
1.070960
 12
4.357320
 22
1.401400
 13
5.010720
 23
1.021680
  0
POLYLINE
  8
0
  6
CONTINUOUS
 66
     1
 40
0.000000
 41
0.000000
  0
VERTEX
  8
0
  6
CONTINUOUS
 10
4.337960
 20
1.450240
  0
VERTEX
  8
0
  6
CONTINUOUS
 10
4.991360
 20
1.070960
  0
VERTEX
  8
0
  6
CONTINUOUS
 10
5.010720
 20
1.021680
  0
VERTEX
  8
0
  6
CONTINUOUS
 10
4.357320
 20
1.401400
  0
VERTEX
  8
0
  6
CONTINUOUS
 10
4.337960
 20
1.450240
  0
SEQEND
  8
0
  0
SOLID
  8
0
 62
    15
 10
4.357320
 20
1.401400
 11
5.010720
 21
1.021680
 12
4.360840
 22
1.349480
 13
5.014240
 23
0.969760
  0
POLYLINE
  8
0
  6
CONTINUOUS
 66
     1
 40
0.000000
 41
0.000000
  0
VERTEX
  8
0
  6
CONTINUOUS
 10
4.357320
 20
1.401400
  0
VERTEX
  8
0
  6
CONTINUOUS
 10
5.010720
 20
1.021680
  0
VERTEX
  8
0
  6
CONTINUOUS
 10
5.014240
 20
0.969760
  0
VERTEX
  8
0
  6
CONTINUOUS
 10
4.360840
 20
1.349480
  0
VERTEX
  8
0
  6
CONTINUOUS
 10
4.357320
 20
1.401400
  0
SEQEND
  8
0
  0
SOLID
  8
0
 62
    15
 10
4.360840
 20
1.349480
 11
5.014240
 21
0.969760
 12
4.349840
 22
1.297120
 13
5.003240
 23
0.917840
  0
POLYLINE
  8
0
  6
CONTINUOUS
 66
     1
 40
0.000000
 41
0.000000
  0
VERTEX
  8
0
  6
CONTINUOUS
 10
4.360840
 20
1.349480
  0
VERTEX
  8
0
  6
CONTINUOUS
 10
5.014240
 20
0.969760
  0
VERTEX
  8
0
  6
CONTINUOUS
 10
5.003240
 20
0.917840
  0
VERTEX
  8
0
  6
CONTINUOUS
 10
4.349840
 20
1.297120
  0
VERTEX
  8
0
  6
CONTINUOUS
 10
4.360840
 20
1.349480
  0
SEQEND
  8
0
  0
SOLID
  8
0
 62
    15
 10
4.349840
 20
1.297120
 11
5.003240
 21
0.917840
 12
4.324320
 22
1.248720
 13
4.978160
 23
0.869000
  0
POLYLINE
  8
0
  6
CONTINUOUS
 66
     1
 40
0.000000
 41
0.000000
  0
VERTEX
  8
0
  6
CONTINUOUS
 10
4.349840
 20
1.297120
  0
VERTEX
  8
0
  6
CONTINUOUS
 10
5.003240
 20
0.917840
  0
VERTEX
  8
0
  6
CONTINUOUS
 10
4.978160
 20
0.869000
  0
VERTEX
  8
0
  6
CONTINUOUS
 10
4.324320
 20
1.248720
  0
VERTEX
  8
0
  6
CONTINUOUS
 10
4.349840
 20
1.297120
  0
SEQEND
  8
0
  0
SOLID
  8
0
 62
    15
 10
4.324320
 20
1.248720
 11
4.978160
 21
0.869000
 12
4.286480
 22
1.206920
 13
4.939880
 23
0.827200
  0
POLYLINE
  8
0
  6
CONTINUOUS
 66
     1
 40
0.000000
 41
0.000000
  0
VERTEX
  8
0
  6
CONTINUOUS
 10
4.324320
 20
1.248720
  0
VERTEX
  8
0
  6
CONTINUOUS
 10
4.978160
 20
0.869000
  0
VERTEX
  8
0
  6
CONTINUOUS
 10
4.939880
 20
0.827200
  0
VERTEX
  8
0
  6
CONTINUOUS
 10
4.286480
 20
1.206920
  0
VERTEX
  8
0
  6
CONTINUOUS
 10
4.324320
 20
1.248720
  0
SEQEND
  8
0
  0
SOLID
  8
0
 62
    15
 10
4.286480
 20
1.206920
 11
4.939880
 21
0.827200
 12
4.236760
 22
1.175240
 13
4.890160
 23
0.795520
  0
POLYLINE
  8
0
  6
CONTINUOUS
 66
     1
 40
0.000000
 41
0.000000
  0
VERTEX
  8
0
  6
CONTINUOUS
 10
4.286480
 20
1.206920
  0
VERTEX
  8
0
  6
CONTINUOUS
 10
4.939880
 20
0.827200
  0
VERTEX
  8
0
  6
CONTINUOUS
 10
4.890160
 20
0.795520
  0
VERTEX
  8
0
  6
CONTINUOUS
 10
4.236760
 20
1.175240
  0
VERTEX
  8
0
  6
CONTINUOUS
 10
4.286480
 20
1.206920
  0
SEQEND
  8
0
  0
SOLID
  8
0
 62
    15
 10
4.236760
 20
1.175240
 11
4.890160
 21
0.795520
 12
4.176040
 22
1.156760
 13
4.829440
 23
0.777480
  0
POLYLINE
  8
0
  6
CONTINUOUS
 66
     1
 40
0.000000
 41
0.000000
  0
VERTEX
  8
0
  6
CONTINUOUS
 10
4.236760
 20
1.175240
  0
VERTEX
  8
0
  6
CONTINUOUS
 10
4.890160
 20
0.795520
  0
VERTEX
  8
0
  6
CONTINUOUS
 10
4.829440
 20
0.777480
  0
VERTEX
  8
0
  6
CONTINUOUS
 10
4.176040
 20
1.156760
  0
VERTEX
  8
0
  6
CONTINUOUS
 10
4.236760
 20
1.175240
  0
SEQEND
  8
0
  0
SOLID
  8
0
 62
    15
 10
4.176040
 20
1.156760
 11
4.829440
 21
0.777480
 12
3.455320
 22
1.205600
 13
4.108720
 23
0.825880
  0
POLYLINE
  8
0
  6
CONTINUOUS
 66
     1
 40
0.000000
 41
0.000000
  0
VERTEX
  8
0
  6
CONTINUOUS
 10
4.176040
 20
1.156760
  0
VERTEX
  8
0
  6
CONTINUOUS
 10
4.829440
 20
0.777480
  0
VERTEX
  8
0
  6
CONTINUOUS
 10
4.108720
 20
0.825880
  0
VERTEX
  8
0
  6
CONTINUOUS
 10
3.455320
 20
1.205600
  0
VERTEX
  8
0
  6
CONTINUOUS
 10
4.176040
 20
1.156760
  0
SEQEND
  8
0
  0
POLYLINE
  8
0
  6
CONTINUOUS
 66
     1
 40
0.000000
 41
0.000000
  0
VERTEX
  8
0
  6
CONTINUOUS
 10
5.291440
 20
3.685000
  0
VERTEX
  8
0
  6
CONTINUOUS
 10
6.200920
 20
3.739560
  0
VERTEX
  8
0
  6
CONTINUOUS
 10
6.201360
 20
3.400760
  0
VERTEX
  8
0
  6
CONTINUOUS
 10
6.059240
 20
3.391960
  0
VERTEX
  8
0
  6
CONTINUOUS
 10
5.940880
 20
3.362040
  0
VERTEX
  8
0
  6
CONTINUOUS
 10
5.843640
 20
3.314520
  0
VERTEX
  8
0
  6
CONTINUOUS
 10
5.763560
 20
3.253360
  0
VERTEX
  8
0
  6
CONTINUOUS
 10
5.698000
 20
3.182960
  0
VERTEX
  8
0
  6
CONTINUOUS
 10
5.643440
 20
3.106400
  0
VERTEX
  8
0
  6
CONTINUOUS
 10
5.554120
 20
2.952400
  0
VERTEX
  8
0
  6
CONTINUOUS
 10
5.512760
 20
2.873200
  0
VERTEX
  8
0
  6
CONTINUOUS
 10
5.469640
 20
2.787840
  0
VERTEX
  8
0
  6
CONTINUOUS
 10
5.369760
 20
2.615800
  0
VERTEX
  8
0
  6
CONTINUOUS
 10
5.308600
 20
2.538360
  0
VERTEX
  8
0
  6
CONTINUOUS
 10
5.236440
 20
2.472360
  0
VERTEX
  8
0
  6
CONTINUOUS
 10
5.151960
 20
2.423080
  0
VERTEX
  8
0
  6
CONTINUOUS
 10
5.052080
 20
2.394920
  0
VERTEX
  8
0
  6
CONTINUOUS
 10
5.073200
 20
2.121240
  0
VERTEX
  8
0
  6
CONTINUOUS
 10
4.700080
 20
2.068440
  0
VERTEX
  8
0
  6
CONTINUOUS
 10
4.692160
 20
2.001560
  0
VERTEX
  8
0
  6
CONTINUOUS
 10
4.654320
 20
1.928520
  0
VERTEX
  8
0
  6
CONTINUOUS
 10
4.619560
 20
1.895520
  0
VERTEX
  8
0
  6
CONTINUOUS
 10
4.572920
 20
1.867800
  0
VERTEX
  8
0
  6
CONTINUOUS
 10
4.511760
 20
1.847120
  0
VERTEX
  8
0
  6
CONTINUOUS
 10
4.435200
 20
1.836560
  0
VERTEX
  8
0
  6
CONTINUOUS
 10
4.363480
 20
1.827760
  0
VERTEX
  8
0
  6
CONTINUOUS
 10
4.315520
 20
1.812800
  0
VERTEX
  8
0
  6
CONTINUOUS
 10
4.286920
 20
1.793440
  0
VERTEX
  8
0
  6
CONTINUOUS
 10
4.273720
 20
1.771440
  0
VERTEX
  8
0
  6
CONTINUOUS
 10
4.275920
 20
1.727000
  0
VERTEX
  8
0
  6
CONTINUOUS
 10
4.283400
 20
1.708960
  0
VERTEX
  8
0
  6
CONTINUOUS
 10
4.288680
 20
1.695760
  0
VERTEX
  8
0
  6
CONTINUOUS
 10
4.303640
 20
1.670680
  0
VERTEX
  8
0
  6
CONTINUOUS
 10
4.315520
 20
1.655280
  0
VERTEX
  8
0
  6
CONTINUOUS
 10
4.328720
 20
1.639000
  0
VERTEX
  8
0
  6
CONTINUOUS
 10
4.372280
 20
1.572120
  0
VERTEX
  8
0
  6
CONTINUOUS
 10
4.301880
 20
1.492920
  0
VERTEX
  8
0
  6
CONTINUOUS
 10
4.337960
 20
1.450240
  0
VERTEX
  8
0
  6
CONTINUOUS
 10
4.357320
 20
1.401400
  0
VERTEX
  8
0
  6
CONTINUOUS
 10
4.360840
 20
1.349480
  0
VERTEX
  8
0
  6
CONTINUOUS
 10
4.349840
 20
1.297120
  0
VERTEX
  8
0
  6
CONTINUOUS
 10
4.324320
 20
1.248720
  0
VERTEX
  8
0
  6
CONTINUOUS
 10
4.286480
 20
1.206920
  0
VERTEX
  8
0
  6
CONTINUOUS
 10
4.236760
 20
1.175240
  0
VERTEX
  8
0
  6
CONTINUOUS
 10
4.176040
 20
1.156760
  0
VERTEX
  8
0
  6
CONTINUOUS
 10
3.455320
 20
1.205600
  0
VERTEX
  8
0
  6
CONTINUOUS
 10
3.476000
 20
1.640760
  0
VERTEX
  8
0
  6
CONTINUOUS
 10
5.290560
 20
3.684560
  0
VERTEX
  8
0
  6
CONTINUOUS
 10
5.291440
 20
3.685000
  0
SEQEND
  8
0
  0
ENDSEC
  0
EOF
