  0
SECTION
  2
HEADER
  9
$ACADVER
  1
AC1006
  9
$EXTMIN
 10
3.065920
 20
1.344640
  9
$EXTMAX
 10
6.332480
 20
3.773000
  9
$LTSCALE
 40
0.044000
  9
$PDMODE
 70
    35
  9
$PDSIZE
 40
0.035200
  0
ENDSEC
  0
SECTION
  2
TABLES
  0
TABLE
  2
LTYPE
 70
     9
  0
LTYPE
  2
CONTINUOUS
 70
    64
  3
Solid line
 72
    65
 73
     0
 40
0.000000
  0
LTYPE
  2
DASHED
 70
    64
  3
__ __ __ __ __ __ __ __ __ __ __ __ __ __ __
 72
    65
 73
     2
 40
0.000330
 49
0.000220
 49
-0.000110
  0
LTYPE
  2
HIDDEN
 70
    64
  3
 _ _ _ _ _ _ _ _ _ _ _ _ _ _ _ _ _ _ _ _ _ _
 72
    65
 73
     2
 40
0.000165
 49
0.000110
 49
-0.000055
  0
LTYPE
  2
CENTER
 70
    64
  3
____ _ ____ _ ____ _ ____ _ ____ _ ____ _ ____
 72
    65
 73
     4
 40
0.000880
 49
0.000550
 49
-0.000110
 49
0.000110
 49
-0.000110
  0
LTYPE
  2
PHANTOM
 70
    64
  3
_____ _ _ _____ _ _ _____ _ _ _____ _ _ ____
 72
    65
 73
     6
 40
0.001100
 49
0.000550
 49
-0.000110
 49
0.000110
 49
-0.000110
 49
0.000110
 49
-0.000110
  0
LTYPE
  2
DOT
 70
    64
  3
...............................................
 72
    65
 73
     2
 40
0.000110
 49
0.000000
 49
-0.000110
  0
LTYPE
  2
DASHDOT
 70
    64
  3
__ . __ . __ . __ . __ . __ . __ . __ . __ . __
 72
    65
 73
     4
 40
0.000440
 49
0.000220
 49
-0.000110
 49
0.000000
 49
-0.000110
  0
LTYPE
  2
BORDER
 70
    64
  3
__ __ . __ __ . __ __ . __ __ . __ __ . __ __
 72
    65
 73
     6
 40
0.000770
 49
0.000220
 49
-0.000110
 49
0.000220
 49
-0.000110
 49
0.000000
 49
-0.000110
  0
LTYPE
  2
DIVIDE
 70
    64
  3
__ . . __ . . __ . . __ . . __ . . __ . . __
 72
    65
 73
     6
 40
0.000550
 49
0.000220
 49
-0.000110
 49
0.000000
 49
-0.000110
 49
0.000000
 49
-0.000110
  0
LTYPE
  2
DOTDOT
 70
    64
  3
 . .  . .  . .  . .  . .  . . 
 72
    65
 73
     5
 40
0.000242
 49
-0.000110
 49
0.000000
 49
-0.000110
 49
0.000000
 49
-0.000110
  0
ENDTAB
  0
TABLE
  2
STYLE
 70
     2
  0
STYLE
 70
     0
  2
SN0
 40
0.000000
 41
0.000440
 50
0.000000
 71
     0
 42
0.000000
  3
ROMAND
  0
STYLE
 70
    68
  2
SV0
 40
0.000000
 41
0.000440
 50
0.000000
 71
     0
 42
0.000000
  3
ROMAND
  0
ENDTAB
  0
TABLE
  2
LAYER
 70
     3
  0
LAYER
  2
FOREGROUND
 70
    64
 62
     7
  6
CONTINUOUS
  0
LAYER
  2
BACKGROUND
 70
    65
 62
    -7
  6
CONTINUOUS
  0
LAYER
  2
0
 70
    64
 62
     7
  6
CONTINUOUS
  0
ENDTAB
  0
ENDSEC
  0
SECTION
  2
ENTITIES
  0
POLYLINE
  8
FOREGROUND
  6
CONTINUOUS
 66
     1
 40
0.000000
 41
0.000000
  0
VERTEX
  8
FOREGROUND
  6
CONTINUOUS
 10
0.000000
 20
5.117640
  0
VERTEX
  8
FOREGROUND
  6
CONTINUOUS
 10
8.499920
 20
5.117640
  0
VERTEX
  8
FOREGROUND
  6
CONTINUOUS
 10
8.499920
 20
-5.882360
  0
VERTEX
  8
FOREGROUND
  6
CONTINUOUS
 10
0.000000
 20
-5.882360
  0
VERTEX
  8
FOREGROUND
  6
CONTINUOUS
 10
0.000000
 20
5.117640
  0
SEQEND
  8
0
  0
POLYLINE
  8
FOREGROUND
  6
CONTINUOUS
 66
     1
 40
0.000000
 41
0.000000
  0
VERTEX
  8
FOREGROUND
  6
CONTINUOUS
 10
0.000000
 20
5.117640
  0
VERTEX
  8
FOREGROUND
  6
CONTINUOUS
 10
8.499920
 20
5.117640
  0
VERTEX
  8
FOREGROUND
  6
CONTINUOUS
 10
8.499920
 20
-5.882360
  0
VERTEX
  8
FOREGROUND
  6
CONTINUOUS
 10
0.000000
 20
-5.882360
  0
VERTEX
  8
FOREGROUND
  6
CONTINUOUS
 10
0.000000
 20
5.117640
  0
SEQEND
  8
0
  0
POLYLINE
  8
0
  6
CONTINUOUS
 66
     1
 40
0.014080
 41
0.014080
  0
VERTEX
  8
0
  6
CONTINUOUS
 10
5.113240
 20
3.023680
  0
VERTEX
  8
0
  6
CONTINUOUS
 10
5.113240
 20
3.138960
  0
VERTEX
  8
0
  6
CONTINUOUS
 10
5.059120
 20
3.148200
  0
VERTEX
  8
0
  6
CONTINUOUS
 10
5.009400
 20
3.161400
  0
VERTEX
  8
0
  6
CONTINUOUS
 10
4.964520
 20
3.177680
  0
VERTEX
  8
0
  6
CONTINUOUS
 10
4.924040
 20
3.198360
  0
VERTEX
  8
0
  6
CONTINUOUS
 10
4.888400
 20
3.223440
  0
VERTEX
  8
0
  6
CONTINUOUS
 10
4.857160
 20
3.252920
  0
VERTEX
  8
0
  6
CONTINUOUS
 10
4.831200
 20
3.286800
  0
VERTEX
  8
0
  6
CONTINUOUS
 10
4.810080
 20
3.325960
  0
VERTEX
  8
0
  6
CONTINUOUS
 10
4.794240
 20
3.369960
  0
VERTEX
  8
0
  6
CONTINUOUS
 10
4.786320
 20
3.402520
  0
VERTEX
  8
0
  6
CONTINUOUS
 10
4.780600
 20
3.437280
  0
VERTEX
  8
0
  6
CONTINUOUS
 10
4.778840
 20
3.455760
  0
VERTEX
  8
0
  6
CONTINUOUS
 10
4.786320
 20
3.504160
  0
VERTEX
  8
0
  6
CONTINUOUS
 10
4.795120
 20
3.534520
  0
VERTEX
  8
0
  6
CONTINUOUS
 10
4.813160
 20
3.577200
  0
VERTEX
  8
0
  6
CONTINUOUS
 10
4.836920
 20
3.615920
  0
VERTEX
  8
0
  6
CONTINUOUS
 10
4.865960
 20
3.650680
  0
VERTEX
  8
0
  6
CONTINUOUS
 10
4.898960
 20
3.681480
  0
VERTEX
  8
0
  6
CONTINUOUS
 10
4.935920
 20
3.707880
  0
VERTEX
  8
0
  6
CONTINUOUS
 10
4.962320
 20
3.722840
  0
VERTEX
  8
0
  6
CONTINUOUS
 10
4.989600
 20
3.735600
  0
VERTEX
  8
0
  6
CONTINUOUS
 10
5.018200
 20
3.746160
  0
VERTEX
  8
0
  6
CONTINUOUS
 10
5.047240
 20
3.754520
  0
VERTEX
  8
0
  6
CONTINUOUS
 10
5.077160
 20
3.760240
  0
VERTEX
  8
0
  6
CONTINUOUS
 10
5.107520
 20
3.764200
  0
VERTEX
  8
0
  6
CONTINUOUS
 10
5.137880
 20
3.765080
  0
VERTEX
  8
0
  6
CONTINUOUS
 10
5.168240
 20
3.763760
  0
VERTEX
  8
0
  6
CONTINUOUS
 10
5.213560
 20
3.756720
  0
VERTEX
  8
0
  6
CONTINUOUS
 10
5.257560
 20
3.743960
  0
VERTEX
  8
0
  6
CONTINUOUS
 10
5.300240
 20
3.724600
  0
VERTEX
  8
0
  6
CONTINUOUS
 10
5.340720
 20
3.699080
  0
VERTEX
  8
0
  6
CONTINUOUS
 10
5.377680
 20
3.666520
  0
VERTEX
  8
0
  6
CONTINUOUS
 10
5.401000
 20
3.641000
  0
VERTEX
  8
0
  6
CONTINUOUS
 10
5.431800
 20
3.597000
  0
VERTEX
  8
0
  6
CONTINUOUS
 10
5.458200
 20
3.545520
  0
VERTEX
  8
0
  6
CONTINUOUS
 10
5.479320
 20
3.486560
  0
VERTEX
  8
0
  6
CONTINUOUS
 10
5.489880
 20
3.443000
  0
VERTEX
  8
0
  6
CONTINUOUS
 10
5.672920
 20
3.443000
  0
VERTEX
  8
0
  6
CONTINUOUS
 10
5.719120
 20
3.357640
  0
VERTEX
  8
0
  6
CONTINUOUS
 10
5.734520
 20
3.338280
  0
VERTEX
  8
0
  6
CONTINUOUS
 10
5.754760
 20
3.323320
  0
VERTEX
  8
0
  6
CONTINUOUS
 10
5.782040
 20
3.311880
  0
VERTEX
  8
0
  6
CONTINUOUS
 10
5.819880
 20
3.304400
  0
VERTEX
  8
0
  6
CONTINUOUS
 10
5.888520
 20
3.299560
  0
VERTEX
  8
0
  6
CONTINUOUS
 10
5.922840
 20
3.294280
  0
VERTEX
  8
0
  6
CONTINUOUS
 10
5.955840
 20
3.284160
  0
VERTEX
  8
0
  6
CONTINUOUS
 10
6.000280
 20
3.263040
  0
VERTEX
  8
0
  6
CONTINUOUS
 10
6.035480
 20
3.238400
  0
VERTEX
  8
0
  6
CONTINUOUS
 10
6.053080
 20
3.221240
  0
VERTEX
  8
0
  6
CONTINUOUS
 10
6.064080
 20
3.205400
  0
VERTEX
  8
0
  6
CONTINUOUS
 10
6.076840
 20
3.174600
  0
VERTEX
  8
0
  6
CONTINUOUS
 10
6.082560
 20
3.164920
  0
VERTEX
  8
0
  6
CONTINUOUS
 10
6.097080
 20
3.151280
  0
VERTEX
  8
0
  6
CONTINUOUS
 10
6.116440
 20
3.144680
  0
VERTEX
  8
0
  6
CONTINUOUS
 10
6.128320
 20
3.143800
  0
VERTEX
  8
0
  6
CONTINUOUS
 10
6.199160
 20
3.143800
  0
VERTEX
  8
0
  6
CONTINUOUS
 10
6.206640
 20
3.142920
  0
VERTEX
  8
0
  6
CONTINUOUS
 10
6.222040
 20
3.135880
  0
VERTEX
  8
0
  6
CONTINUOUS
 10
6.235240
 20
3.123560
  0
VERTEX
  8
0
  6
CONTINUOUS
 10
6.243160
 20
3.108160
  0
VERTEX
  8
0
  6
CONTINUOUS
 10
6.244480
 20
3.099800
  0
VERTEX
  8
0
  6
CONTINUOUS
 10
6.244480
 20
3.023240
  0
VERTEX
  8
0
  6
CONTINUOUS
 10
5.113240
 20
3.023680
  0
SEQEND
  8
0
  0
TEXT
  8
0
 10
5.540480
 20
2.794440
 40
0.138044
  1
BA  1200
 41
1.000000
  7
SN0
 71
     0
 72
     5
 11
6.223191
 21
2.794440
  0
TEXT
  8
0
 10
5.430920
 20
2.603040
 40
0.138044
  1
3/4" x 1-1/2"
 41
1.000000
  7
SN0
 71
     0
 72
     5
 11
6.331837
 21
2.603040
  0
SOLID
  8
0
 62
    15
 10
3.381400
 20
2.714360
 11
4.045360
 21
2.332440
 12
3.366440
 22
2.694120
 13
4.030400
 23
2.312200
  0
POLYLINE
  8
0
  6
CONTINUOUS
 66
     1
 40
0.000000
 41
0.000000
  0
VERTEX
  8
0
  6
CONTINUOUS
 10
3.381400
 20
2.714360
  0
VERTEX
  8
0
  6
CONTINUOUS
 10
4.045360
 20
2.332440
  0
VERTEX
  8
0
  6
CONTINUOUS
 10
4.030400
 20
2.312200
  0
VERTEX
  8
0
  6
CONTINUOUS
 10
3.366440
 20
2.694120
  0
VERTEX
  8
0
  6
CONTINUOUS
 10
3.381400
 20
2.714360
  0
SEQEND
  8
0
  0
SOLID
  8
0
 62
    15
 10
3.671360
 20
3.602720
 11
4.335320
 21
3.220800
 12
3.714920
 22
3.561360
 13
4.378880
 23
3.179440
  0
POLYLINE
  8
0
  6
CONTINUOUS
 66
     1
 40
0.000000
 41
0.000000
  0
VERTEX
  8
0
  6
CONTINUOUS
 10
3.671360
 20
3.602720
  0
VERTEX
  8
0
  6
CONTINUOUS
 10
4.335320
 20
3.220800
  0
VERTEX
  8
0
  6
CONTINUOUS
 10
4.378880
 20
3.179440
  0
VERTEX
  8
0
  6
CONTINUOUS
 10
3.714920
 20
3.561360
  0
VERTEX
  8
0
  6
CONTINUOUS
 10
3.671360
 20
3.602720
  0
SEQEND
  8
0
  0
SOLID
  8
0
 62
    15
 10
3.714920
 20
3.561360
 11
4.378880
 21
3.179440
 12
3.751000
 22
3.512960
 13
4.414960
 23
3.131040
  0
POLYLINE
  8
0
  6
CONTINUOUS
 66
     1
 40
0.000000
 41
0.000000
  0
VERTEX
  8
0
  6
CONTINUOUS
 10
3.714920
 20
3.561360
  0
VERTEX
  8
0
  6
CONTINUOUS
 10
4.378880
 20
3.179440
  0
VERTEX
  8
0
  6
CONTINUOUS
 10
4.414960
 20
3.131040
  0
VERTEX
  8
0
  6
CONTINUOUS
 10
3.751000
 20
3.512960
  0
VERTEX
  8
0
  6
CONTINUOUS
 10
3.714920
 20
3.561360
  0
SEQEND
  8
0
  0
SOLID
  8
0
 62
    15
 10
3.751000
 20
3.512960
 11
4.414960
 21
3.131040
 12
3.778720
 22
3.459280
 13
4.442680
 23
3.077360
  0
POLYLINE
  8
0
  6
CONTINUOUS
 66
     1
 40
0.000000
 41
0.000000
  0
VERTEX
  8
0
  6
CONTINUOUS
 10
3.751000
 20
3.512960
  0
VERTEX
  8
0
  6
CONTINUOUS
 10
4.414960
 20
3.131040
  0
VERTEX
  8
0
  6
CONTINUOUS
 10
4.442680
 20
3.077360
  0
VERTEX
  8
0
  6
CONTINUOUS
 10
3.778720
 20
3.459280
  0
VERTEX
  8
0
  6
CONTINUOUS
 10
3.751000
 20
3.512960
  0
SEQEND
  8
0
  0
SOLID
  8
0
 62
    15
 10
3.778720
 20
3.459280
 11
4.442680
 21
3.077360
 12
3.797640
 22
3.401640
 13
4.461600
 23
3.019720
  0
POLYLINE
  8
0
  6
CONTINUOUS
 66
     1
 40
0.000000
 41
0.000000
  0
VERTEX
  8
0
  6
CONTINUOUS
 10
3.778720
 20
3.459280
  0
VERTEX
  8
0
  6
CONTINUOUS
 10
4.442680
 20
3.077360
  0
VERTEX
  8
0
  6
CONTINUOUS
 10
4.461600
 20
3.019720
  0
VERTEX
  8
0
  6
CONTINUOUS
 10
3.797640
 20
3.401640
  0
VERTEX
  8
0
  6
CONTINUOUS
 10
3.778720
 20
3.459280
  0
SEQEND
  8
0
  0
SOLID
  8
0
 62
    15
 10
3.797640
 20
3.401640
 11
4.461600
 21
3.019720
 12
3.807320
 22
3.341800
 13
4.471280
 23
2.959880
  0
POLYLINE
  8
0
  6
CONTINUOUS
 66
     1
 40
0.000000
 41
0.000000
  0
VERTEX
  8
0
  6
CONTINUOUS
 10
3.797640
 20
3.401640
  0
VERTEX
  8
0
  6
CONTINUOUS
 10
4.461600
 20
3.019720
  0
VERTEX
  8
0
  6
CONTINUOUS
 10
4.471280
 20
2.959880
  0
VERTEX
  8
0
  6
CONTINUOUS
 10
3.807320
 20
3.341800
  0
VERTEX
  8
0
  6
CONTINUOUS
 10
3.797640
 20
3.401640
  0
SEQEND
  8
0
  0
SOLID
  8
0
 62
    15
 10
3.807320
 20
3.341800
 11
4.471280
 21
2.959880
 12
3.806880
 22
3.281080
 13
4.471280
 23
2.899160
  0
POLYLINE
  8
0
  6
CONTINUOUS
 66
     1
 40
0.000000
 41
0.000000
  0
VERTEX
  8
0
  6
CONTINUOUS
 10
3.807320
 20
3.341800
  0
VERTEX
  8
0
  6
CONTINUOUS
 10
4.471280
 20
2.959880
  0
VERTEX
  8
0
  6
CONTINUOUS
 10
4.471280
 20
2.899160
  0
VERTEX
  8
0
  6
CONTINUOUS
 10
3.806880
 20
3.281080
  0
VERTEX
  8
0
  6
CONTINUOUS
 10
3.807320
 20
3.341800
  0
SEQEND
  8
0
  0
SOLID
  8
0
 62
    15
 10
3.806880
 20
3.281080
 11
4.471280
 21
2.899160
 12
3.796320
 22
3.220800
 13
4.460280
 23
2.838880
  0
POLYLINE
  8
0
  6
CONTINUOUS
 66
     1
 40
0.000000
 41
0.000000
  0
VERTEX
  8
0
  6
CONTINUOUS
 10
3.806880
 20
3.281080
  0
VERTEX
  8
0
  6
CONTINUOUS
 10
4.471280
 20
2.899160
  0
VERTEX
  8
0
  6
CONTINUOUS
 10
4.460280
 20
2.838880
  0
VERTEX
  8
0
  6
CONTINUOUS
 10
3.796320
 20
3.220800
  0
VERTEX
  8
0
  6
CONTINUOUS
 10
3.806880
 20
3.281080
  0
SEQEND
  8
0
  0
SOLID
  8
0
 62
    15
 10
3.796320
 20
3.220800
 11
4.460280
 21
2.838880
 12
3.775200
 22
3.162720
 13
4.439160
 23
2.780800
  0
POLYLINE
  8
0
  6
CONTINUOUS
 66
     1
 40
0.000000
 41
0.000000
  0
VERTEX
  8
0
  6
CONTINUOUS
 10
3.796320
 20
3.220800
  0
VERTEX
  8
0
  6
CONTINUOUS
 10
4.460280
 20
2.838880
  0
VERTEX
  8
0
  6
CONTINUOUS
 10
4.439160
 20
2.780800
  0
VERTEX
  8
0
  6
CONTINUOUS
 10
3.775200
 20
3.162720
  0
VERTEX
  8
0
  6
CONTINUOUS
 10
3.796320
 20
3.220800
  0
SEQEND
  8
0
  0
SOLID
  8
0
 62
    15
 10
3.775200
 20
3.162720
 11
4.439160
 21
2.780800
 12
3.742200
 22
3.108600
 13
4.406160
 23
2.726680
  0
POLYLINE
  8
0
  6
CONTINUOUS
 66
     1
 40
0.000000
 41
0.000000
  0
VERTEX
  8
0
  6
CONTINUOUS
 10
3.775200
 20
3.162720
  0
VERTEX
  8
0
  6
CONTINUOUS
 10
4.439160
 20
2.780800
  0
VERTEX
  8
0
  6
CONTINUOUS
 10
4.406160
 20
2.726680
  0
VERTEX
  8
0
  6
CONTINUOUS
 10
3.742200
 20
3.108600
  0
VERTEX
  8
0
  6
CONTINUOUS
 10
3.775200
 20
3.162720
  0
SEQEND
  8
0
  0
SOLID
  8
0
 62
    15
 10
3.742200
 20
3.108600
 11
4.406160
 21
2.726680
 12
3.721080
 22
3.083080
 13
4.385480
 23
2.701160
  0
POLYLINE
  8
0
  6
CONTINUOUS
 66
     1
 40
0.000000
 41
0.000000
  0
VERTEX
  8
0
  6
CONTINUOUS
 10
3.742200
 20
3.108600
  0
VERTEX
  8
0
  6
CONTINUOUS
 10
4.406160
 20
2.726680
  0
VERTEX
  8
0
  6
CONTINUOUS
 10
4.385480
 20
2.701160
  0
VERTEX
  8
0
  6
CONTINUOUS
 10
3.721080
 20
3.083080
  0
VERTEX
  8
0
  6
CONTINUOUS
 10
3.742200
 20
3.108600
  0
SEQEND
  8
0
  0
SOLID
  8
0
 62
    15
 10
3.721080
 20
3.083080
 11
4.385480
 21
2.701160
 12
3.697320
 22
3.059320
 13
4.361280
 23
2.677400
  0
POLYLINE
  8
0
  6
CONTINUOUS
 66
     1
 40
0.000000
 41
0.000000
  0
VERTEX
  8
0
  6
CONTINUOUS
 10
3.721080
 20
3.083080
  0
VERTEX
  8
0
  6
CONTINUOUS
 10
4.385480
 20
2.701160
  0
VERTEX
  8
0
  6
CONTINUOUS
 10
4.361280
 20
2.677400
  0
VERTEX
  8
0
  6
CONTINUOUS
 10
3.697320
 20
3.059320
  0
VERTEX
  8
0
  6
CONTINUOUS
 10
3.721080
 20
3.083080
  0
SEQEND
  8
0
  0
SOLID
  8
0
 62
    15
 10
3.697320
 20
3.059320
 11
4.361280
 21
2.677400
 12
3.670480
 22
3.037320
 13
4.334440
 23
2.655400
  0
POLYLINE
  8
0
  6
CONTINUOUS
 66
     1
 40
0.000000
 41
0.000000
  0
VERTEX
  8
0
  6
CONTINUOUS
 10
3.697320
 20
3.059320
  0
VERTEX
  8
0
  6
CONTINUOUS
 10
4.361280
 20
2.677400
  0
VERTEX
  8
0
  6
CONTINUOUS
 10
4.334440
 20
2.655400
  0
VERTEX
  8
0
  6
CONTINUOUS
 10
3.670480
 20
3.037320
  0
VERTEX
  8
0
  6
CONTINUOUS
 10
3.697320
 20
3.059320
  0
SEQEND
  8
0
  0
SOLID
  8
0
 62
    15
 10
3.670480
 20
3.037320
 11
4.334440
 21
2.655400
 12
3.640120
 22
3.017080
 13
4.304080
 23
2.635160
  0
POLYLINE
  8
0
  6
CONTINUOUS
 66
     1
 40
0.000000
 41
0.000000
  0
VERTEX
  8
0
  6
CONTINUOUS
 10
3.670480
 20
3.037320
  0
VERTEX
  8
0
  6
CONTINUOUS
 10
4.334440
 20
2.655400
  0
VERTEX
  8
0
  6
CONTINUOUS
 10
4.304080
 20
2.635160
  0
VERTEX
  8
0
  6
CONTINUOUS
 10
3.640120
 20
3.017080
  0
VERTEX
  8
0
  6
CONTINUOUS
 10
3.670480
 20
3.037320
  0
SEQEND
  8
0
  0
SOLID
  8
0
 62
    15
 10
3.640120
 20
3.017080
 11
4.304080
 21
2.635160
 12
3.606680
 22
2.999040
 13
4.270640
 23
2.617120
  0
POLYLINE
  8
0
  6
CONTINUOUS
 66
     1
 40
0.000000
 41
0.000000
  0
VERTEX
  8
0
  6
CONTINUOUS
 10
3.640120
 20
3.017080
  0
VERTEX
  8
0
  6
CONTINUOUS
 10
4.304080
 20
2.635160
  0
VERTEX
  8
0
  6
CONTINUOUS
 10
4.270640
 20
2.617120
  0
VERTEX
  8
0
  6
CONTINUOUS
 10
3.606680
 20
2.999040
  0
VERTEX
  8
0
  6
CONTINUOUS
 10
3.640120
 20
3.017080
  0
SEQEND
  8
0
  0
SOLID
  8
0
 62
    15
 10
3.606680
 20
2.999040
 11
4.270640
 21
2.617120
 12
3.570160
 22
2.983200
 13
4.234120
 23
2.601280
  0
POLYLINE
  8
0
  6
CONTINUOUS
 66
     1
 40
0.000000
 41
0.000000
  0
VERTEX
  8
0
  6
CONTINUOUS
 10
3.606680
 20
2.999040
  0
VERTEX
  8
0
  6
CONTINUOUS
 10
4.270640
 20
2.617120
  0
VERTEX
  8
0
  6
CONTINUOUS
 10
4.234120
 20
2.601280
  0
VERTEX
  8
0
  6
CONTINUOUS
 10
3.570160
 20
2.983200
  0
VERTEX
  8
0
  6
CONTINUOUS
 10
3.606680
 20
2.999040
  0
SEQEND
  8
0
  0
SOLID
  8
0
 62
    15
 10
3.570160
 20
2.983200
 11
4.234120
 21
2.601280
 12
3.529680
 22
2.970000
 13
4.194080
 23
2.588080
  0
POLYLINE
  8
0
  6
CONTINUOUS
 66
     1
 40
0.000000
 41
0.000000
  0
VERTEX
  8
0
  6
CONTINUOUS
 10
3.570160
 20
2.983200
  0
VERTEX
  8
0
  6
CONTINUOUS
 10
4.234120
 20
2.601280
  0
VERTEX
  8
0
  6
CONTINUOUS
 10
4.194080
 20
2.588080
  0
VERTEX
  8
0
  6
CONTINUOUS
 10
3.529680
 20
2.970000
  0
VERTEX
  8
0
  6
CONTINUOUS
 10
3.570160
 20
2.983200
  0
SEQEND
  8
0
  0
SOLID
  8
0
 62
    15
 10
3.529680
 20
2.970000
 11
4.194080
 21
2.588080
 12
3.486120
 22
2.959000
 13
4.150520
 23
2.577080
  0
POLYLINE
  8
0
  6
CONTINUOUS
 66
     1
 40
0.000000
 41
0.000000
  0
VERTEX
  8
0
  6
CONTINUOUS
 10
3.529680
 20
2.970000
  0
VERTEX
  8
0
  6
CONTINUOUS
 10
4.194080
 20
2.588080
  0
VERTEX
  8
0
  6
CONTINUOUS
 10
4.150520
 20
2.577080
  0
VERTEX
  8
0
  6
CONTINUOUS
 10
3.486120
 20
2.959000
  0
VERTEX
  8
0
  6
CONTINUOUS
 10
3.529680
 20
2.970000
  0
SEQEND
  8
0
  0
SOLID
  8
0
 62
    15
 10
3.486120
 20
2.959000
 11
4.150520
 21
2.577080
 12
3.486120
 22
2.775960
 13
4.150520
 23
2.394040
  0
POLYLINE
  8
0
  6
CONTINUOUS
 66
     1
 40
0.000000
 41
0.000000
  0
VERTEX
  8
0
  6
CONTINUOUS
 10
3.486120
 20
2.959000
  0
VERTEX
  8
0
  6
CONTINUOUS
 10
4.150520
 20
2.577080
  0
VERTEX
  8
0
  6
CONTINUOUS
 10
4.150520
 20
2.394040
  0
VERTEX
  8
0
  6
CONTINUOUS
 10
3.486120
 20
2.775960
  0
VERTEX
  8
0
  6
CONTINUOUS
 10
3.486120
 20
2.959000
  0
SEQEND
  8
0
  0
SOLID
  8
0
 62
    15
 10
3.486120
 20
2.775960
 11
4.150520
 21
2.394040
 12
3.453120
 22
2.757920
 13
4.117080
 23
2.376000
  0
POLYLINE
  8
0
  6
CONTINUOUS
 66
     1
 40
0.000000
 41
0.000000
  0
VERTEX
  8
0
  6
CONTINUOUS
 10
3.486120
 20
2.775960
  0
VERTEX
  8
0
  6
CONTINUOUS
 10
4.150520
 20
2.394040
  0
VERTEX
  8
0
  6
CONTINUOUS
 10
4.117080
 20
2.376000
  0
VERTEX
  8
0
  6
CONTINUOUS
 10
3.453120
 20
2.757920
  0
VERTEX
  8
0
  6
CONTINUOUS
 10
3.486120
 20
2.775960
  0
SEQEND
  8
0
  0
SOLID
  8
0
 62
    15
 10
3.453120
 20
2.757920
 11
4.117080
 21
2.376000
 12
3.424520
 22
2.743400
 13
4.088480
 23
2.361480
  0
POLYLINE
  8
0
  6
CONTINUOUS
 66
     1
 40
0.000000
 41
0.000000
  0
VERTEX
  8
0
  6
CONTINUOUS
 10
3.453120
 20
2.757920
  0
VERTEX
  8
0
  6
CONTINUOUS
 10
4.117080
 20
2.376000
  0
VERTEX
  8
0
  6
CONTINUOUS
 10
4.088480
 20
2.361480
  0
VERTEX
  8
0
  6
CONTINUOUS
 10
3.424520
 20
2.743400
  0
VERTEX
  8
0
  6
CONTINUOUS
 10
3.453120
 20
2.757920
  0
SEQEND
  8
0
  0
SOLID
  8
0
 62
    15
 10
3.424520
 20
2.743400
 11
4.088480
 21
2.361480
 12
3.400760
 22
2.730200
 13
4.064720
 23
2.348280
  0
POLYLINE
  8
0
  6
CONTINUOUS
 66
     1
 40
0.000000
 41
0.000000
  0
VERTEX
  8
0
  6
CONTINUOUS
 10
3.424520
 20
2.743400
  0
VERTEX
  8
0
  6
CONTINUOUS
 10
4.088480
 20
2.361480
  0
VERTEX
  8
0
  6
CONTINUOUS
 10
4.064720
 20
2.348280
  0
VERTEX
  8
0
  6
CONTINUOUS
 10
3.400760
 20
2.730200
  0
VERTEX
  8
0
  6
CONTINUOUS
 10
3.424520
 20
2.743400
  0
SEQEND
  8
0
  0
SOLID
  8
0
 62
    15
 10
3.400760
 20
2.730200
 11
4.064720
 21
2.348280
 12
3.381400
 22
2.714360
 13
4.045360
 23
2.332440
  0
POLYLINE
  8
0
  6
CONTINUOUS
 66
     1
 40
0.000000
 41
0.000000
  0
VERTEX
  8
0
  6
CONTINUOUS
 10
3.400760
 20
2.730200
  0
VERTEX
  8
0
  6
CONTINUOUS
 10
4.064720
 20
2.348280
  0
VERTEX
  8
0
  6
CONTINUOUS
 10
4.045360
 20
2.332440
  0
VERTEX
  8
0
  6
CONTINUOUS
 10
3.381400
 20
2.714360
  0
VERTEX
  8
0
  6
CONTINUOUS
 10
3.400760
 20
2.730200
  0
SEQEND
  8
0
  0
SOLID
  8
0
 62
    15
 10
3.620320
 20
3.635720
 11
4.284280
 21
3.253800
 12
3.671360
 22
3.602720
 13
4.335320
 23
3.220800
  0
POLYLINE
  8
0
  6
CONTINUOUS
 66
     1
 40
0.000000
 41
0.000000
  0
VERTEX
  8
0
  6
CONTINUOUS
 10
3.620320
 20
3.635720
  0
VERTEX
  8
0
  6
CONTINUOUS
 10
4.284280
 20
3.253800
  0
VERTEX
  8
0
  6
CONTINUOUS
 10
4.335320
 20
3.220800
  0
VERTEX
  8
0
  6
CONTINUOUS
 10
3.671360
 20
3.602720
  0
VERTEX
  8
0
  6
CONTINUOUS
 10
3.620320
 20
3.635720
  0
SEQEND
  8
0
  0
SOLID
  8
0
 62
    15
 10
3.366440
 20
2.694120
 11
4.030400
 21
2.312200
 12
3.355000
 22
2.666400
 13
4.019400
 23
2.284920
  0
POLYLINE
  8
0
  6
CONTINUOUS
 66
     1
 40
0.000000
 41
0.000000
  0
VERTEX
  8
0
  6
CONTINUOUS
 10
3.366440
 20
2.694120
  0
VERTEX
  8
0
  6
CONTINUOUS
 10
4.030400
 20
2.312200
  0
VERTEX
  8
0
  6
CONTINUOUS
 10
4.019400
 20
2.284920
  0
VERTEX
  8
0
  6
CONTINUOUS
 10
3.355000
 20
2.666400
  0
VERTEX
  8
0
  6
CONTINUOUS
 10
3.366440
 20
2.694120
  0
SEQEND
  8
0
  0
SOLID
  8
0
 62
    15
 10
3.355000
 20
2.666400
 11
4.019400
 21
2.284920
 12
3.347520
 22
2.628560
 13
4.011920
 23
2.246640
  0
POLYLINE
  8
0
  6
CONTINUOUS
 66
     1
 40
0.000000
 41
0.000000
  0
VERTEX
  8
0
  6
CONTINUOUS
 10
3.355000
 20
2.666400
  0
VERTEX
  8
0
  6
CONTINUOUS
 10
4.019400
 20
2.284920
  0
VERTEX
  8
0
  6
CONTINUOUS
 10
4.011920
 20
2.246640
  0
VERTEX
  8
0
  6
CONTINUOUS
 10
3.347520
 20
2.628560
  0
VERTEX
  8
0
  6
CONTINUOUS
 10
3.355000
 20
2.666400
  0
SEQEND
  8
0
  0
SOLID
  8
0
 62
    15
 10
3.347520
 20
2.628560
 11
4.011920
 21
2.246640
 12
3.345320
 22
2.605240
 13
4.009280
 23
2.223320
  0
POLYLINE
  8
0
  6
CONTINUOUS
 66
     1
 40
0.000000
 41
0.000000
  0
VERTEX
  8
0
  6
CONTINUOUS
 10
3.347520
 20
2.628560
  0
VERTEX
  8
0
  6
CONTINUOUS
 10
4.011920
 20
2.246640
  0
VERTEX
  8
0
  6
CONTINUOUS
 10
4.009280
 20
2.223320
  0
VERTEX
  8
0
  6
CONTINUOUS
 10
3.345320
 20
2.605240
  0
VERTEX
  8
0
  6
CONTINUOUS
 10
3.347520
 20
2.628560
  0
SEQEND
  8
0
  0
SOLID
  8
0
 62
    15
 10
3.345320
 20
2.605240
 11
4.009280
 21
2.223320
 12
3.343560
 22
2.577960
 13
4.007960
 23
2.196040
  0
POLYLINE
  8
0
  6
CONTINUOUS
 66
     1
 40
0.000000
 41
0.000000
  0
VERTEX
  8
0
  6
CONTINUOUS
 10
3.345320
 20
2.605240
  0
VERTEX
  8
0
  6
CONTINUOUS
 10
4.009280
 20
2.223320
  0
VERTEX
  8
0
  6
CONTINUOUS
 10
4.007960
 20
2.196040
  0
VERTEX
  8
0
  6
CONTINUOUS
 10
3.343560
 20
2.577960
  0
VERTEX
  8
0
  6
CONTINUOUS
 10
3.345320
 20
2.605240
  0
SEQEND
  8
0
  0
SOLID
  8
0
 62
    15
 10
3.343560
 20
2.577960
 11
4.007960
 21
2.196040
 12
3.340920
 22
2.543200
 13
4.004880
 23
2.161280
  0
POLYLINE
  8
0
  6
CONTINUOUS
 66
     1
 40
0.000000
 41
0.000000
  0
VERTEX
  8
0
  6
CONTINUOUS
 10
3.343560
 20
2.577960
  0
VERTEX
  8
0
  6
CONTINUOUS
 10
4.007960
 20
2.196040
  0
VERTEX
  8
0
  6
CONTINUOUS
 10
4.004880
 20
2.161280
  0
VERTEX
  8
0
  6
CONTINUOUS
 10
3.340920
 20
2.543200
  0
VERTEX
  8
0
  6
CONTINUOUS
 10
3.343560
 20
2.577960
  0
SEQEND
  8
0
  0
SOLID
  8
0
 62
    15
 10
3.340920
 20
2.543200
 11
4.004880
 21
2.161280
 12
3.333000
 22
2.509320
 13
3.996960
 23
2.127400
  0
POLYLINE
  8
0
  6
CONTINUOUS
 66
     1
 40
0.000000
 41
0.000000
  0
VERTEX
  8
0
  6
CONTINUOUS
 10
3.340920
 20
2.543200
  0
VERTEX
  8
0
  6
CONTINUOUS
 10
4.004880
 20
2.161280
  0
VERTEX
  8
0
  6
CONTINUOUS
 10
3.996960
 20
2.127400
  0
VERTEX
  8
0
  6
CONTINUOUS
 10
3.333000
 20
2.509320
  0
VERTEX
  8
0
  6
CONTINUOUS
 10
3.340920
 20
2.543200
  0
SEQEND
  8
0
  0
SOLID
  8
0
 62
    15
 10
3.333000
 20
2.509320
 11
3.996960
 21
2.127400
 12
3.321120
 22
2.477640
 13
3.985080
 23
2.095720
  0
POLYLINE
  8
0
  6
CONTINUOUS
 66
     1
 40
0.000000
 41
0.000000
  0
VERTEX
  8
0
  6
CONTINUOUS
 10
3.333000
 20
2.509320
  0
VERTEX
  8
0
  6
CONTINUOUS
 10
3.996960
 20
2.127400
  0
VERTEX
  8
0
  6
CONTINUOUS
 10
3.985080
 20
2.095720
  0
VERTEX
  8
0
  6
CONTINUOUS
 10
3.321120
 20
2.477640
  0
VERTEX
  8
0
  6
CONTINUOUS
 10
3.333000
 20
2.509320
  0
SEQEND
  8
0
  0
SOLID
  8
0
 62
    15
 10
3.321120
 20
2.477640
 11
3.985080
 21
2.095720
 12
3.306600
 22
2.448600
 13
3.970560
 23
2.066680
  0
POLYLINE
  8
0
  6
CONTINUOUS
 66
     1
 40
0.000000
 41
0.000000
  0
VERTEX
  8
0
  6
CONTINUOUS
 10
3.321120
 20
2.477640
  0
VERTEX
  8
0
  6
CONTINUOUS
 10
3.985080
 20
2.095720
  0
VERTEX
  8
0
  6
CONTINUOUS
 10
3.970560
 20
2.066680
  0
VERTEX
  8
0
  6
CONTINUOUS
 10
3.306600
 20
2.448600
  0
VERTEX
  8
0
  6
CONTINUOUS
 10
3.321120
 20
2.477640
  0
SEQEND
  8
0
  0
SOLID
  8
0
 62
    15
 10
3.306600
 20
2.448600
 11
3.970560
 21
2.066680
 12
3.289880
 22
2.423960
 13
3.954280
 23
2.042040
  0
POLYLINE
  8
0
  6
CONTINUOUS
 66
     1
 40
0.000000
 41
0.000000
  0
VERTEX
  8
0
  6
CONTINUOUS
 10
3.306600
 20
2.448600
  0
VERTEX
  8
0
  6
CONTINUOUS
 10
3.970560
 20
2.066680
  0
VERTEX
  8
0
  6
CONTINUOUS
 10
3.954280
 20
2.042040
  0
VERTEX
  8
0
  6
CONTINUOUS
 10
3.289880
 20
2.423960
  0
VERTEX
  8
0
  6
CONTINUOUS
 10
3.306600
 20
2.448600
  0
SEQEND
  8
0
  0
SOLID
  8
0
 62
    15
 10
3.289880
 20
2.423960
 11
3.954280
 21
2.042040
 12
3.273160
 22
2.403720
 13
3.937120
 23
2.021800
  0
POLYLINE
  8
0
  6
CONTINUOUS
 66
     1
 40
0.000000
 41
0.000000
  0
VERTEX
  8
0
  6
CONTINUOUS
 10
3.289880
 20
2.423960
  0
VERTEX
  8
0
  6
CONTINUOUS
 10
3.954280
 20
2.042040
  0
VERTEX
  8
0
  6
CONTINUOUS
 10
3.937120
 20
2.021800
  0
VERTEX
  8
0
  6
CONTINUOUS
 10
3.273160
 20
2.403720
  0
VERTEX
  8
0
  6
CONTINUOUS
 10
3.289880
 20
2.423960
  0
SEQEND
  8
0
  0
SOLID
  8
0
 62
    15
 10
3.273160
 20
2.403720
 11
3.937120
 21
2.021800
 12
3.256440
 22
2.389640
 13
3.920840
 23
2.007720
  0
POLYLINE
  8
0
  6
CONTINUOUS
 66
     1
 40
0.000000
 41
0.000000
  0
VERTEX
  8
0
  6
CONTINUOUS
 10
3.273160
 20
2.403720
  0
VERTEX
  8
0
  6
CONTINUOUS
 10
3.937120
 20
2.021800
  0
VERTEX
  8
0
  6
CONTINUOUS
 10
3.920840
 20
2.007720
  0
VERTEX
  8
0
  6
CONTINUOUS
 10
3.256440
 20
2.389640
  0
VERTEX
  8
0
  6
CONTINUOUS
 10
3.273160
 20
2.403720
  0
SEQEND
  8
0
  0
SOLID
  8
0
 62
    15
 10
3.256440
 20
2.389640
 11
3.920840
 21
2.007720
 12
3.241480
 22
2.381720
 13
3.905880
 23
1.999800
  0
POLYLINE
  8
0
  6
CONTINUOUS
 66
     1
 40
0.000000
 41
0.000000
  0
VERTEX
  8
0
  6
CONTINUOUS
 10
3.256440
 20
2.389640
  0
VERTEX
  8
0
  6
CONTINUOUS
 10
3.920840
 20
2.007720
  0
VERTEX
  8
0
  6
CONTINUOUS
 10
3.905880
 20
1.999800
  0
VERTEX
  8
0
  6
CONTINUOUS
 10
3.241480
 20
2.381720
  0
VERTEX
  8
0
  6
CONTINUOUS
 10
3.256440
 20
2.389640
  0
SEQEND
  8
0
  0
SOLID
  8
0
 62
    15
 10
3.241480
 20
2.381720
 11
3.905880
 21
1.999800
 12
3.217720
 22
2.372480
 13
3.881680
 23
1.990560
  0
POLYLINE
  8
0
  6
CONTINUOUS
 66
     1
 40
0.000000
 41
0.000000
  0
VERTEX
  8
0
  6
CONTINUOUS
 10
3.241480
 20
2.381720
  0
VERTEX
  8
0
  6
CONTINUOUS
 10
3.905880
 20
1.999800
  0
VERTEX
  8
0
  6
CONTINUOUS
 10
3.881680
 20
1.990560
  0
VERTEX
  8
0
  6
CONTINUOUS
 10
3.217720
 20
2.372480
  0
VERTEX
  8
0
  6
CONTINUOUS
 10
3.241480
 20
2.381720
  0
SEQEND
  8
0
  0
SOLID
  8
0
 62
    15
 10
3.217720
 20
2.372480
 11
3.881680
 21
1.990560
 12
3.200560
 22
2.359720
 13
3.864960
 23
1.977800
  0
POLYLINE
  8
0
  6
CONTINUOUS
 66
     1
 40
0.000000
 41
0.000000
  0
VERTEX
  8
0
  6
CONTINUOUS
 10
3.217720
 20
2.372480
  0
VERTEX
  8
0
  6
CONTINUOUS
 10
3.881680
 20
1.990560
  0
VERTEX
  8
0
  6
CONTINUOUS
 10
3.864960
 20
1.977800
  0
VERTEX
  8
0
  6
CONTINUOUS
 10
3.200560
 20
2.359720
  0
VERTEX
  8
0
  6
CONTINUOUS
 10
3.217720
 20
2.372480
  0
SEQEND
  8
0
  0
SOLID
  8
0
 62
    15
 10
3.200560
 20
2.359720
 11
3.864960
 21
1.977800
 12
3.190440
 22
2.342560
 13
3.854400
 23
1.960640
  0
POLYLINE
  8
0
  6
CONTINUOUS
 66
     1
 40
0.000000
 41
0.000000
  0
VERTEX
  8
0
  6
CONTINUOUS
 10
3.200560
 20
2.359720
  0
VERTEX
  8
0
  6
CONTINUOUS
 10
3.864960
 20
1.977800
  0
VERTEX
  8
0
  6
CONTINUOUS
 10
3.854400
 20
1.960640
  0
VERTEX
  8
0
  6
CONTINUOUS
 10
3.190440
 20
2.342560
  0
VERTEX
  8
0
  6
CONTINUOUS
 10
3.200560
 20
2.359720
  0
SEQEND
  8
0
  0
SOLID
  8
0
 62
    15
 10
3.190440
 20
2.342560
 11
3.854400
 21
1.960640
 12
3.186920
 22
2.320560
 13
3.851320
 23
1.938640
  0
POLYLINE
  8
0
  6
CONTINUOUS
 66
     1
 40
0.000000
 41
0.000000
  0
VERTEX
  8
0
  6
CONTINUOUS
 10
3.190440
 20
2.342560
  0
VERTEX
  8
0
  6
CONTINUOUS
 10
3.854400
 20
1.960640
  0
VERTEX
  8
0
  6
CONTINUOUS
 10
3.851320
 20
1.938640
  0
VERTEX
  8
0
  6
CONTINUOUS
 10
3.186920
 20
2.320560
  0
VERTEX
  8
0
  6
CONTINUOUS
 10
3.190440
 20
2.342560
  0
SEQEND
  8
0
  0
SOLID
  8
0
 62
    15
 10
3.186920
 20
2.320560
 11
3.851320
 21
1.938640
 12
3.186920
 22
2.249720
 13
3.851320
 23
1.867800
  0
POLYLINE
  8
0
  6
CONTINUOUS
 66
     1
 40
0.000000
 41
0.000000
  0
VERTEX
  8
0
  6
CONTINUOUS
 10
3.186920
 20
2.320560
  0
VERTEX
  8
0
  6
CONTINUOUS
 10
3.851320
 20
1.938640
  0
VERTEX
  8
0
  6
CONTINUOUS
 10
3.851320
 20
1.867800
  0
VERTEX
  8
0
  6
CONTINUOUS
 10
3.186920
 20
2.249720
  0
VERTEX
  8
0
  6
CONTINUOUS
 10
3.186920
 20
2.320560
  0
SEQEND
  8
0
  0
SOLID
  8
0
 62
    15
 10
3.186920
 20
2.249720
 11
3.851320
 21
1.867800
 12
3.183400
 22
2.234320
 13
3.847360
 23
1.852840
  0
POLYLINE
  8
0
  6
CONTINUOUS
 66
     1
 40
0.000000
 41
0.000000
  0
VERTEX
  8
0
  6
CONTINUOUS
 10
3.186920
 20
2.249720
  0
VERTEX
  8
0
  6
CONTINUOUS
 10
3.851320
 20
1.867800
  0
VERTEX
  8
0
  6
CONTINUOUS
 10
3.847360
 20
1.852840
  0
VERTEX
  8
0
  6
CONTINUOUS
 10
3.183400
 20
2.234320
  0
VERTEX
  8
0
  6
CONTINUOUS
 10
3.186920
 20
2.249720
  0
SEQEND
  8
0
  0
SOLID
  8
0
 62
    15
 10
3.183400
 20
2.234320
 11
3.847360
 21
1.852840
 12
3.173280
 22
2.219800
 13
3.837240
 23
1.837880
  0
POLYLINE
  8
0
  6
CONTINUOUS
 66
     1
 40
0.000000
 41
0.000000
  0
VERTEX
  8
0
  6
CONTINUOUS
 10
3.183400
 20
2.234320
  0
VERTEX
  8
0
  6
CONTINUOUS
 10
3.847360
 20
1.852840
  0
VERTEX
  8
0
  6
CONTINUOUS
 10
3.837240
 20
1.837880
  0
VERTEX
  8
0
  6
CONTINUOUS
 10
3.173280
 20
2.219800
  0
VERTEX
  8
0
  6
CONTINUOUS
 10
3.183400
 20
2.234320
  0
SEQEND
  8
0
  0
SOLID
  8
0
 62
    15
 10
3.173280
 20
2.219800
 11
3.837240
 21
1.837880
 12
3.159200
 22
2.208800
 13
3.823160
 23
1.826880
  0
POLYLINE
  8
0
  6
CONTINUOUS
 66
     1
 40
0.000000
 41
0.000000
  0
VERTEX
  8
0
  6
CONTINUOUS
 10
3.173280
 20
2.219800
  0
VERTEX
  8
0
  6
CONTINUOUS
 10
3.837240
 20
1.837880
  0
VERTEX
  8
0
  6
CONTINUOUS
 10
3.823160
 20
1.826880
  0
VERTEX
  8
0
  6
CONTINUOUS
 10
3.159200
 20
2.208800
  0
VERTEX
  8
0
  6
CONTINUOUS
 10
3.173280
 20
2.219800
  0
SEQEND
  8
0
  0
SOLID
  8
0
 62
    15
 10
3.159200
 20
2.208800
 11
3.823160
 21
1.826880
 12
3.142920
 22
2.204840
 13
3.807320
 23
1.822920
  0
POLYLINE
  8
0
  6
CONTINUOUS
 66
     1
 40
0.000000
 41
0.000000
  0
VERTEX
  8
0
  6
CONTINUOUS
 10
3.159200
 20
2.208800
  0
VERTEX
  8
0
  6
CONTINUOUS
 10
3.823160
 20
1.826880
  0
VERTEX
  8
0
  6
CONTINUOUS
 10
3.807320
 20
1.822920
  0
VERTEX
  8
0
  6
CONTINUOUS
 10
3.142920
 20
2.204840
  0
VERTEX
  8
0
  6
CONTINUOUS
 10
3.159200
 20
2.208800
  0
SEQEND
  8
0
  0
SOLID
  8
0
 62
    15
 10
3.142920
 20
2.204840
 11
3.807320
 21
1.822920
 12
3.066360
 22
2.204840
 13
3.730760
 23
1.822920
  0
POLYLINE
  8
0
  6
CONTINUOUS
 66
     1
 40
0.000000
 41
0.000000
  0
VERTEX
  8
0
  6
CONTINUOUS
 10
3.142920
 20
2.204840
  0
VERTEX
  8
0
  6
CONTINUOUS
 10
3.807320
 20
1.822920
  0
VERTEX
  8
0
  6
CONTINUOUS
 10
3.730760
 20
1.822920
  0
VERTEX
  8
0
  6
CONTINUOUS
 10
3.066360
 20
2.204840
  0
VERTEX
  8
0
  6
CONTINUOUS
 10
3.142920
 20
2.204840
  0
SEQEND
  8
0
  0
POLYLINE
  8
0
  6
CONTINUOUS
 66
     1
 40
0.000000
 41
0.000000
  0
VERTEX
  8
0
  6
CONTINUOUS
 10
3.066800
 20
3.335640
  0
VERTEX
  8
0
  6
CONTINUOUS
 10
3.182080
 20
3.335640
  0
VERTEX
  8
0
  6
CONTINUOUS
 10
3.195280
 20
3.406920
  0
VERTEX
  8
0
  6
CONTINUOUS
 10
3.215080
 20
3.470280
  0
VERTEX
  8
0
  6
CONTINUOUS
 10
3.241480
 20
3.524840
  0
VERTEX
  8
0
  6
CONTINUOUS
 10
3.275800
 20
3.571480
  0
VERTEX
  8
0
  6
CONTINUOUS
 10
3.318040
 20
3.609760
  0
VERTEX
  8
0
  6
CONTINUOUS
 10
3.369080
 20
3.638800
  0
VERTEX
  8
0
  6
CONTINUOUS
 10
3.428920
 20
3.659040
  0
VERTEX
  8
0
  6
CONTINUOUS
 10
3.498880
 20
3.670040
  0
VERTEX
  8
0
  6
CONTINUOUS
 10
3.531880
 20
3.666080
  0
VERTEX
  8
0
  6
CONTINUOUS
 10
3.562680
 20
3.658600
  0
VERTEX
  8
0
  6
CONTINUOUS
 10
3.620320
 20
3.635720
  0
VERTEX
  8
0
  6
CONTINUOUS
 10
3.671360
 20
3.602720
  0
VERTEX
  8
0
  6
CONTINUOUS
 10
3.714920
 20
3.561360
  0
VERTEX
  8
0
  6
CONTINUOUS
 10
3.751000
 20
3.512960
  0
VERTEX
  8
0
  6
CONTINUOUS
 10
3.778720
 20
3.459280
  0
VERTEX
  8
0
  6
CONTINUOUS
 10
3.797640
 20
3.401640
  0
VERTEX
  8
0
  6
CONTINUOUS
 10
3.807320
 20
3.341800
  0
VERTEX
  8
0
  6
CONTINUOUS
 10
3.806880
 20
3.281080
  0
VERTEX
  8
0
  6
CONTINUOUS
 10
3.796320
 20
3.220800
  0
VERTEX
  8
0
  6
CONTINUOUS
 10
3.775200
 20
3.162720
  0
VERTEX
  8
0
  6
CONTINUOUS
 10
3.742200
 20
3.108600
  0
VERTEX
  8
0
  6
CONTINUOUS
 10
3.721080
 20
3.083080
  0
VERTEX
  8
0
  6
CONTINUOUS
 10
3.697320
 20
3.059320
  0
VERTEX
  8
0
  6
CONTINUOUS
 10
3.670480
 20
3.037320
  0
VERTEX
  8
0
  6
CONTINUOUS
 10
3.640120
 20
3.017080
  0
VERTEX
  8
0
  6
CONTINUOUS
 10
3.606680
 20
2.999040
  0
VERTEX
  8
0
  6
CONTINUOUS
 10
3.570160
 20
2.983200
  0
VERTEX
  8
0
  6
CONTINUOUS
 10
3.529680
 20
2.970000
  0
VERTEX
  8
0
  6
CONTINUOUS
 10
3.486120
 20
2.959000
  0
VERTEX
  8
0
  6
CONTINUOUS
 10
3.486120
 20
2.775960
  0
VERTEX
  8
0
  6
CONTINUOUS
 10
3.400760
 20
2.730200
  0
VERTEX
  8
0
  6
CONTINUOUS
 10
3.381400
 20
2.714360
  0
VERTEX
  8
0
  6
CONTINUOUS
 10
3.366440
 20
2.694120
  0
VERTEX
  8
0
  6
CONTINUOUS
 10
3.355000
 20
2.666400
  0
VERTEX
  8
0
  6
CONTINUOUS
 10
3.347520
 20
2.628560
  0
VERTEX
  8
0
  6
CONTINUOUS
 10
3.340920
 20
2.543200
  0
VERTEX
  8
0
  6
CONTINUOUS
 10
3.333000
 20
2.509320
  0
VERTEX
  8
0
  6
CONTINUOUS
 10
3.321120
 20
2.477640
  0
VERTEX
  8
0
  6
CONTINUOUS
 10
3.306600
 20
2.448600
  0
VERTEX
  8
0
  6
CONTINUOUS
 10
3.289880
 20
2.423960
  0
VERTEX
  8
0
  6
CONTINUOUS
 10
3.273160
 20
2.403720
  0
VERTEX
  8
0
  6
CONTINUOUS
 10
3.256440
 20
2.389640
  0
VERTEX
  8
0
  6
CONTINUOUS
 10
3.241480
 20
2.381720
  0
VERTEX
  8
0
  6
CONTINUOUS
 10
3.217720
 20
2.372480
  0
VERTEX
  8
0
  6
CONTINUOUS
 10
3.200560
 20
2.359720
  0
VERTEX
  8
0
  6
CONTINUOUS
 10
3.190440
 20
2.342560
  0
VERTEX
  8
0
  6
CONTINUOUS
 10
3.186920
 20
2.320560
  0
VERTEX
  8
0
  6
CONTINUOUS
 10
3.186920
 20
2.249720
  0
VERTEX
  8
0
  6
CONTINUOUS
 10
3.183400
 20
2.234320
  0
VERTEX
  8
0
  6
CONTINUOUS
 10
3.173280
 20
2.219800
  0
VERTEX
  8
0
  6
CONTINUOUS
 10
3.159200
 20
2.208800
  0
VERTEX
  8
0
  6
CONTINUOUS
 10
3.142920
 20
2.204840
  0
VERTEX
  8
0
  6
CONTINUOUS
 10
3.066360
 20
2.204840
  0
VERTEX
  8
0
  6
CONTINUOUS
 10
3.066800
 20
3.335640
  0
SEQEND
  8
0
  0
TEXT
  8
0
 10
3.428040
 20
1.587960
 40
0.138044
  1
BA  1200
 41
1.000000
  7
SN0
 71
     0
 72
     5
 11
4.110751
 21
1.587960
  0
TEXT
  8
0
 10
3.318480
 20
1.396120
 40
0.138044
  1
3/4" x 1-1/2"
 41
1.000000
  7
SN0
 71
     0
 72
     5
 11
4.219397
 21
1.396120
  0
ENDSEC
  0
EOF
