  0
SECTION
  2
HEADER
  9
$ACADVER
  1
AC1006
  9
$EXTMIN
 10
2.255000
 20
0.556600
  9
$EXTMAX
 10
7.666120
 20
4.890160
  9
$LTSCALE
 40
0.044000
  9
$PDMODE
 70
    35
  9
$PDSIZE
 40
0.035200
  0
ENDSEC
  0
SECTION
  2
TABLES
  0
TABLE
  2
LTYPE
 70
     9
  0
LTYPE
  2
CONTINUOUS
 70
    64
  3
Solid line
 72
    65
 73
     0
 40
0.000000
  0
LTYPE
  2
DASHED
 70
    64
  3
__ __ __ __ __ __ __ __ __ __ __ __ __ __ __
 72
    65
 73
     2
 40
0.000330
 49
0.000220
 49
-0.000110
  0
LTYPE
  2
HIDDEN
 70
    64
  3
 _ _ _ _ _ _ _ _ _ _ _ _ _ _ _ _ _ _ _ _ _ _
 72
    65
 73
     2
 40
0.000165
 49
0.000110
 49
-0.000055
  0
LTYPE
  2
CENTER
 70
    64
  3
____ _ ____ _ ____ _ ____ _ ____ _ ____ _ ____
 72
    65
 73
     4
 40
0.000880
 49
0.000550
 49
-0.000110
 49
0.000110
 49
-0.000110
  0
LTYPE
  2
PHANTOM
 70
    64
  3
_____ _ _ _____ _ _ _____ _ _ _____ _ _ ____
 72
    65
 73
     6
 40
0.001100
 49
0.000550
 49
-0.000110
 49
0.000110
 49
-0.000110
 49
0.000110
 49
-0.000110
  0
LTYPE
  2
DOT
 70
    64
  3
...............................................
 72
    65
 73
     2
 40
0.000110
 49
0.000000
 49
-0.000110
  0
LTYPE
  2
DASHDOT
 70
    64
  3
__ . __ . __ . __ . __ . __ . __ . __ . __ . __
 72
    65
 73
     4
 40
0.000440
 49
0.000220
 49
-0.000110
 49
0.000000
 49
-0.000110
  0
LTYPE
  2
BORDER
 70
    64
  3
__ __ . __ __ . __ __ . __ __ . __ __ . __ __
 72
    65
 73
     6
 40
0.000770
 49
0.000220
 49
-0.000110
 49
0.000220
 49
-0.000110
 49
0.000000
 49
-0.000110
  0
LTYPE
  2
DIVIDE
 70
    64
  3
__ . . __ . . __ . . __ . . __ . . __ . . __
 72
    65
 73
     6
 40
0.000550
 49
0.000220
 49
-0.000110
 49
0.000000
 49
-0.000110
 49
0.000000
 49
-0.000110
  0
LTYPE
  2
DOTDOT
 70
    64
  3
 . .  . .  . .  . .  . .  . . 
 72
    65
 73
     5
 40
0.000242
 49
-0.000110
 49
0.000000
 49
-0.000110
 49
0.000000
 49
-0.000110
  0
ENDTAB
  0
TABLE
  2
STYLE
 70
     2
  0
STYLE
 70
     0
  2
SN0
 40
0.000000
 41
0.000440
 50
0.000000
 71
     0
 42
0.000000
  3
ROMAND
  0
STYLE
 70
    68
  2
SV0
 40
0.000000
 41
0.000440
 50
0.000000
 71
     0
 42
0.000000
  3
ROMAND
  0
ENDTAB
  0
TABLE
  2
LAYER
 70
     3
  0
LAYER
  2
FOREGROUND
 70
    64
 62
     7
  6
CONTINUOUS
  0
LAYER
  2
BACKGROUND
 70
    65
 62
    -7
  6
CONTINUOUS
  0
LAYER
  2
0
 70
    64
 62
     7
  6
CONTINUOUS
  0
ENDTAB
  0
ENDSEC
  0
SECTION
  2
ENTITIES
  0
POLYLINE
  8
FOREGROUND
  6
CONTINUOUS
 66
     1
 40
0.000000
 41
0.000000
  0
VERTEX
  8
FOREGROUND
  6
CONTINUOUS
 10
0.000000
 20
5.446760
  0
VERTEX
  8
FOREGROUND
  6
CONTINUOUS
 10
8.499920
 20
5.446760
  0
VERTEX
  8
FOREGROUND
  6
CONTINUOUS
 10
8.499920
 20
-5.553240
  0
VERTEX
  8
FOREGROUND
  6
CONTINUOUS
 10
0.000000
 20
-5.553240
  0
VERTEX
  8
FOREGROUND
  6
CONTINUOUS
 10
0.000000
 20
5.446760
  0
SEQEND
  8
0
  0
POLYLINE
  8
FOREGROUND
  6
CONTINUOUS
 66
     1
 40
0.000000
 41
0.000000
  0
VERTEX
  8
FOREGROUND
  6
CONTINUOUS
 10
0.000000
 20
5.446760
  0
VERTEX
  8
FOREGROUND
  6
CONTINUOUS
 10
8.499920
 20
5.446760
  0
VERTEX
  8
FOREGROUND
  6
CONTINUOUS
 10
8.499920
 20
-5.553240
  0
VERTEX
  8
FOREGROUND
  6
CONTINUOUS
 10
0.000000
 20
-5.553240
  0
VERTEX
  8
FOREGROUND
  6
CONTINUOUS
 10
0.000000
 20
5.446760
  0
SEQEND
  8
0
  0
POLYLINE
  8
0
  6
CONTINUOUS
 66
     1
 40
0.014080
 41
0.014080
  0
VERTEX
  8
0
  6
CONTINUOUS
 10
7.174640
 20
4.026880
  0
VERTEX
  8
0
  6
CONTINUOUS
 10
7.656440
 20
4.546960
  0
VERTEX
  8
0
  6
CONTINUOUS
 10
7.519160
 20
4.696560
  0
VERTEX
  8
0
  6
CONTINUOUS
 10
7.485720
 20
4.676760
  0
VERTEX
  8
0
  6
CONTINUOUS
 10
7.451400
 20
4.661360
  0
VERTEX
  8
0
  6
CONTINUOUS
 10
7.417080
 20
4.649920
  0
VERTEX
  8
0
  6
CONTINUOUS
 10
7.382320
 20
4.642000
  0
VERTEX
  8
0
  6
CONTINUOUS
 10
7.329960
 20
4.636280
  0
VERTEX
  8
0
  6
CONTINUOUS
 10
7.295200
 20
4.637160
  0
VERTEX
  8
0
  6
CONTINUOUS
 10
7.260880
 20
4.640680
  0
VERTEX
  8
0
  6
CONTINUOUS
 10
7.227440
 20
4.646840
  0
VERTEX
  8
0
  6
CONTINUOUS
 10
7.178600
 20
4.661800
  0
VERTEX
  8
0
  6
CONTINUOUS
 10
7.132840
 20
4.682040
  0
VERTEX
  8
0
  6
CONTINUOUS
 10
7.089720
 20
4.707120
  0
VERTEX
  8
0
  6
CONTINUOUS
 10
7.050560
 20
4.736160
  0
VERTEX
  8
0
  6
CONTINUOUS
 10
7.015800
 20
4.769160
  0
VERTEX
  8
0
  6
CONTINUOUS
 10
6.897000
 20
4.664000
  0
VERTEX
  8
0
  6
CONTINUOUS
 10
6.722320
 20
4.813600
  0
VERTEX
  8
0
  6
CONTINUOUS
 10
6.532240
 20
4.652560
  0
VERTEX
  8
0
  6
CONTINUOUS
 10
6.487360
 20
4.689960
  0
VERTEX
  8
0
  6
CONTINUOUS
 10
6.438520
 20
4.723840
  0
VERTEX
  8
0
  6
CONTINUOUS
 10
6.386160
 20
4.753760
  0
VERTEX
  8
0
  6
CONTINUOUS
 10
6.330280
 20
4.779720
  0
VERTEX
  8
0
  6
CONTINUOUS
 10
6.270000
 20
4.801720
  0
VERTEX
  8
0
  6
CONTINUOUS
 10
6.205760
 20
4.819320
  0
VERTEX
  8
0
  6
CONTINUOUS
 10
6.137120
 20
4.832520
  0
VERTEX
  8
0
  6
CONTINUOUS
 10
6.064080
 20
4.841320
  0
VERTEX
  8
0
  6
CONTINUOUS
 10
5.986200
 20
4.845280
  0
VERTEX
  8
0
  6
CONTINUOUS
 10
5.903920
 20
4.844400
  0
VERTEX
  8
0
  6
CONTINUOUS
 10
5.816360
 20
4.838680
  0
VERTEX
  8
0
  6
CONTINUOUS
 10
5.723960
 20
4.827240
  0
VERTEX
  8
0
  6
CONTINUOUS
 10
5.625840
 20
4.810960
  0
VERTEX
  8
0
  6
CONTINUOUS
 10
5.522440
 20
4.788960
  0
VERTEX
  8
0
  6
CONTINUOUS
 10
5.413760
 20
4.761680
  0
VERTEX
  8
0
  6
CONTINUOUS
 10
5.240840
 20
4.711080
  0
VERTEX
  8
0
  6
CONTINUOUS
 10
5.157240
 20
4.689520
  0
VERTEX
  8
0
  6
CONTINUOUS
 10
5.077160
 20
4.672360
  0
VERTEX
  8
0
  6
CONTINUOUS
 10
5.025680
 20
4.663120
  0
VERTEX
  8
0
  6
CONTINUOUS
 10
4.975960
 20
4.656080
  0
VERTEX
  8
0
  6
CONTINUOUS
 10
4.927560
 20
4.650800
  0
VERTEX
  8
0
  6
CONTINUOUS
 10
4.835600
 20
4.645080
  0
VERTEX
  8
0
  6
CONTINUOUS
 10
4.791600
 20
4.644640
  0
VERTEX
  8
0
  6
CONTINUOUS
 10
4.748920
 20
4.645520
  0
VERTEX
  8
0
  6
CONTINUOUS
 10
4.708000
 20
4.647720
  0
VERTEX
  8
0
  6
CONTINUOUS
 10
4.629240
 20
4.656520
  0
VERTEX
  8
0
  6
CONTINUOUS
 10
4.556200
 20
4.670160
  0
VERTEX
  8
0
  6
CONTINUOUS
 10
4.487560
 20
4.687760
  0
VERTEX
  8
0
  6
CONTINUOUS
 10
4.423760
 20
4.708880
  0
VERTEX
  8
0
  6
CONTINUOUS
 10
4.363920
 20
4.733520
  0
VERTEX
  8
0
  6
CONTINUOUS
 10
4.308480
 20
4.760360
  0
VERTEX
  8
0
  6
CONTINUOUS
 10
4.231920
 20
4.803920
  0
VERTEX
  8
0
  6
CONTINUOUS
 10
4.162840
 20
4.849680
  0
VERTEX
  8
0
  6
CONTINUOUS
 10
4.120600
 20
4.880480
  0
VERTEX
  8
0
  6
CONTINUOUS
 10
3.916440
 20
4.692600
  0
VERTEX
  8
0
  6
CONTINUOUS
 10
4.621320
 20
4.027320
  0
VERTEX
  8
0
  6
CONTINUOUS
 10
7.174640
 20
4.026880
  0
SEQEND
  8
0
  0
SOLID
  8
0
 62
    15
 10
3.504600
 20
1.741960
 11
4.154480
 21
1.377640
 12
3.386680
 22
1.685640
 13
4.036560
 23
1.321320
  0
POLYLINE
  8
0
  6
CONTINUOUS
 66
     1
 40
0.000000
 41
0.000000
  0
VERTEX
  8
0
  6
CONTINUOUS
 10
3.504600
 20
1.741960
  0
VERTEX
  8
0
  6
CONTINUOUS
 10
4.154480
 20
1.377640
  0
VERTEX
  8
0
  6
CONTINUOUS
 10
4.036560
 20
1.321320
  0
VERTEX
  8
0
  6
CONTINUOUS
 10
3.386680
 20
1.685640
  0
VERTEX
  8
0
  6
CONTINUOUS
 10
3.504600
 20
1.741960
  0
SEQEND
  8
0
  0
SOLID
  8
0
 62
    15
 10
5.068800
 20
3.121800
 11
5.718680
 21
2.757480
 12
4.962760
 22
3.107280
 13
5.612640
 23
2.742960
  0
POLYLINE
  8
0
  6
CONTINUOUS
 66
     1
 40
0.000000
 41
0.000000
  0
VERTEX
  8
0
  6
CONTINUOUS
 10
5.068800
 20
3.121800
  0
VERTEX
  8
0
  6
CONTINUOUS
 10
5.718680
 20
2.757480
  0
VERTEX
  8
0
  6
CONTINUOUS
 10
5.612640
 20
2.742960
  0
VERTEX
  8
0
  6
CONTINUOUS
 10
4.962760
 20
3.107280
  0
VERTEX
  8
0
  6
CONTINUOUS
 10
5.068800
 20
3.121800
  0
SEQEND
  8
0
  0
SOLID
  8
0
 62
    15
 10
4.962760
 20
3.107280
 11
5.612640
 21
2.742960
 12
4.849240
 22
3.081320
 13
5.499120
 23
2.717000
  0
POLYLINE
  8
0
  6
CONTINUOUS
 66
     1
 40
0.000000
 41
0.000000
  0
VERTEX
  8
0
  6
CONTINUOUS
 10
4.962760
 20
3.107280
  0
VERTEX
  8
0
  6
CONTINUOUS
 10
5.612640
 20
2.742960
  0
VERTEX
  8
0
  6
CONTINUOUS
 10
5.499120
 20
2.717000
  0
VERTEX
  8
0
  6
CONTINUOUS
 10
4.849240
 20
3.081320
  0
VERTEX
  8
0
  6
CONTINUOUS
 10
4.962760
 20
3.107280
  0
SEQEND
  8
0
  0
SOLID
  8
0
 62
    15
 10
4.849240
 20
3.081320
 11
5.499120
 21
2.717000
 12
4.730000
 22
3.039960
 13
5.380320
 23
2.675640
  0
POLYLINE
  8
0
  6
CONTINUOUS
 66
     1
 40
0.000000
 41
0.000000
  0
VERTEX
  8
0
  6
CONTINUOUS
 10
4.849240
 20
3.081320
  0
VERTEX
  8
0
  6
CONTINUOUS
 10
5.499120
 20
2.717000
  0
VERTEX
  8
0
  6
CONTINUOUS
 10
5.380320
 20
2.675640
  0
VERTEX
  8
0
  6
CONTINUOUS
 10
4.730000
 20
3.039960
  0
VERTEX
  8
0
  6
CONTINUOUS
 10
4.849240
 20
3.081320
  0
SEQEND
  8
0
  0
SOLID
  8
0
 62
    15
 10
4.730000
 20
3.039960
 11
5.380320
 21
2.675640
 12
4.606800
 22
2.977920
 13
5.256680
 23
2.613600
  0
POLYLINE
  8
0
  6
CONTINUOUS
 66
     1
 40
0.000000
 41
0.000000
  0
VERTEX
  8
0
  6
CONTINUOUS
 10
4.730000
 20
3.039960
  0
VERTEX
  8
0
  6
CONTINUOUS
 10
5.380320
 20
2.675640
  0
VERTEX
  8
0
  6
CONTINUOUS
 10
5.256680
 20
2.613600
  0
VERTEX
  8
0
  6
CONTINUOUS
 10
4.606800
 20
2.977920
  0
VERTEX
  8
0
  6
CONTINUOUS
 10
4.730000
 20
3.039960
  0
SEQEND
  8
0
  0
SOLID
  8
0
 62
    15
 10
4.606800
 20
2.977920
 11
5.256680
 21
2.613600
 12
4.480960
 22
2.890360
 13
5.130840
 23
2.526040
  0
POLYLINE
  8
0
  6
CONTINUOUS
 66
     1
 40
0.000000
 41
0.000000
  0
VERTEX
  8
0
  6
CONTINUOUS
 10
4.606800
 20
2.977920
  0
VERTEX
  8
0
  6
CONTINUOUS
 10
5.256680
 20
2.613600
  0
VERTEX
  8
0
  6
CONTINUOUS
 10
5.130840
 20
2.526040
  0
VERTEX
  8
0
  6
CONTINUOUS
 10
4.480960
 20
2.890360
  0
VERTEX
  8
0
  6
CONTINUOUS
 10
4.606800
 20
2.977920
  0
SEQEND
  8
0
  0
SOLID
  8
0
 62
    15
 10
4.480960
 20
2.890360
 11
5.130840
 21
2.526040
 12
4.354240
 22
2.772880
 13
5.004120
 23
2.408560
  0
POLYLINE
  8
0
  6
CONTINUOUS
 66
     1
 40
0.000000
 41
0.000000
  0
VERTEX
  8
0
  6
CONTINUOUS
 10
4.480960
 20
2.890360
  0
VERTEX
  8
0
  6
CONTINUOUS
 10
5.130840
 20
2.526040
  0
VERTEX
  8
0
  6
CONTINUOUS
 10
5.004120
 20
2.408560
  0
VERTEX
  8
0
  6
CONTINUOUS
 10
4.354240
 20
2.772880
  0
VERTEX
  8
0
  6
CONTINUOUS
 10
4.480960
 20
2.890360
  0
SEQEND
  8
0
  0
SOLID
  8
0
 62
    15
 10
4.354240
 20
2.772880
 11
5.004120
 21
2.408560
 12
4.227960
 22
2.620200
 13
4.877840
 23
2.255880
  0
POLYLINE
  8
0
  6
CONTINUOUS
 66
     1
 40
0.000000
 41
0.000000
  0
VERTEX
  8
0
  6
CONTINUOUS
 10
4.354240
 20
2.772880
  0
VERTEX
  8
0
  6
CONTINUOUS
 10
5.004120
 20
2.408560
  0
VERTEX
  8
0
  6
CONTINUOUS
 10
4.877840
 20
2.255880
  0
VERTEX
  8
0
  6
CONTINUOUS
 10
4.227960
 20
2.620200
  0
VERTEX
  8
0
  6
CONTINUOUS
 10
4.354240
 20
2.772880
  0
SEQEND
  8
0
  0
SOLID
  8
0
 62
    15
 10
4.227960
 20
2.620200
 11
4.877840
 21
2.255880
 12
4.104320
 22
2.427920
 13
4.754200
 23
2.063600
  0
POLYLINE
  8
0
  6
CONTINUOUS
 66
     1
 40
0.000000
 41
0.000000
  0
VERTEX
  8
0
  6
CONTINUOUS
 10
4.227960
 20
2.620200
  0
VERTEX
  8
0
  6
CONTINUOUS
 10
4.877840
 20
2.255880
  0
VERTEX
  8
0
  6
CONTINUOUS
 10
4.754200
 20
2.063600
  0
VERTEX
  8
0
  6
CONTINUOUS
 10
4.104320
 20
2.427920
  0
VERTEX
  8
0
  6
CONTINUOUS
 10
4.227960
 20
2.620200
  0
SEQEND
  8
0
  0
SOLID
  8
0
 62
    15
 10
4.104320
 20
2.427920
 11
4.754200
 21
2.063600
 12
3.982440
 22
2.230360
 13
4.632760
 23
1.866040
  0
POLYLINE
  8
0
  6
CONTINUOUS
 66
     1
 40
0.000000
 41
0.000000
  0
VERTEX
  8
0
  6
CONTINUOUS
 10
4.104320
 20
2.427920
  0
VERTEX
  8
0
  6
CONTINUOUS
 10
4.754200
 20
2.063600
  0
VERTEX
  8
0
  6
CONTINUOUS
 10
4.632760
 20
1.866040
  0
VERTEX
  8
0
  6
CONTINUOUS
 10
3.982440
 20
2.230360
  0
VERTEX
  8
0
  6
CONTINUOUS
 10
4.104320
 20
2.427920
  0
SEQEND
  8
0
  0
SOLID
  8
0
 62
    15
 10
3.982440
 20
2.230360
 11
4.632760
 21
1.866040
 12
3.861880
 22
2.064920
 13
4.511760
 23
1.700600
  0
POLYLINE
  8
0
  6
CONTINUOUS
 66
     1
 40
0.000000
 41
0.000000
  0
VERTEX
  8
0
  6
CONTINUOUS
 10
3.982440
 20
2.230360
  0
VERTEX
  8
0
  6
CONTINUOUS
 10
4.632760
 20
1.866040
  0
VERTEX
  8
0
  6
CONTINUOUS
 10
4.511760
 20
1.700600
  0
VERTEX
  8
0
  6
CONTINUOUS
 10
3.861880
 20
2.064920
  0
VERTEX
  8
0
  6
CONTINUOUS
 10
3.982440
 20
2.230360
  0
SEQEND
  8
0
  0
SOLID
  8
0
 62
    15
 10
3.861880
 20
2.064920
 11
4.511760
 21
1.700600
 12
3.742200
 22
1.929840
 13
4.392080
 23
1.565520
  0
POLYLINE
  8
0
  6
CONTINUOUS
 66
     1
 40
0.000000
 41
0.000000
  0
VERTEX
  8
0
  6
CONTINUOUS
 10
3.861880
 20
2.064920
  0
VERTEX
  8
0
  6
CONTINUOUS
 10
4.511760
 20
1.700600
  0
VERTEX
  8
0
  6
CONTINUOUS
 10
4.392080
 20
1.565520
  0
VERTEX
  8
0
  6
CONTINUOUS
 10
3.742200
 20
1.929840
  0
VERTEX
  8
0
  6
CONTINUOUS
 10
3.861880
 20
2.064920
  0
SEQEND
  8
0
  0
SOLID
  8
0
 62
    15
 10
3.742200
 20
1.929840
 11
4.392080
 21
1.565520
 12
3.622960
 22
1.822480
 13
4.272840
 23
1.458160
  0
POLYLINE
  8
0
  6
CONTINUOUS
 66
     1
 40
0.000000
 41
0.000000
  0
VERTEX
  8
0
  6
CONTINUOUS
 10
3.742200
 20
1.929840
  0
VERTEX
  8
0
  6
CONTINUOUS
 10
4.392080
 20
1.565520
  0
VERTEX
  8
0
  6
CONTINUOUS
 10
4.272840
 20
1.458160
  0
VERTEX
  8
0
  6
CONTINUOUS
 10
3.622960
 20
1.822480
  0
VERTEX
  8
0
  6
CONTINUOUS
 10
3.742200
 20
1.929840
  0
SEQEND
  8
0
  0
SOLID
  8
0
 62
    15
 10
3.622960
 20
1.822480
 11
4.272840
 21
1.458160
 12
3.504600
 22
1.741960
 13
4.154480
 23
1.377640
  0
POLYLINE
  8
0
  6
CONTINUOUS
 66
     1
 40
0.000000
 41
0.000000
  0
VERTEX
  8
0
  6
CONTINUOUS
 10
3.622960
 20
1.822480
  0
VERTEX
  8
0
  6
CONTINUOUS
 10
4.272840
 20
1.458160
  0
VERTEX
  8
0
  6
CONTINUOUS
 10
4.154480
 20
1.377640
  0
VERTEX
  8
0
  6
CONTINUOUS
 10
3.504600
 20
1.741960
  0
VERTEX
  8
0
  6
CONTINUOUS
 10
3.622960
 20
1.822480
  0
SEQEND
  8
0
  0
SOLID
  8
0
 62
    15
 10
5.089480
 20
3.398120
 11
5.739360
 21
3.033800
 12
5.068800
 22
3.121800
 13
5.718680
 23
2.757480
  0
POLYLINE
  8
0
  6
CONTINUOUS
 66
     1
 40
0.000000
 41
0.000000
  0
VERTEX
  8
0
  6
CONTINUOUS
 10
5.089480
 20
3.398120
  0
VERTEX
  8
0
  6
CONTINUOUS
 10
5.739360
 20
3.033800
  0
VERTEX
  8
0
  6
CONTINUOUS
 10
5.718680
 20
2.757480
  0
VERTEX
  8
0
  6
CONTINUOUS
 10
5.068800
 20
3.121800
  0
VERTEX
  8
0
  6
CONTINUOUS
 10
5.089480
 20
3.398120
  0
SEQEND
  8
0
  0
SOLID
  8
0
 62
    15
 10
3.386680
 20
1.685640
 11
4.036560
 21
1.321320
 12
3.269200
 22
1.652640
 13
3.919080
 23
1.288320
  0
POLYLINE
  8
0
  6
CONTINUOUS
 66
     1
 40
0.000000
 41
0.000000
  0
VERTEX
  8
0
  6
CONTINUOUS
 10
3.386680
 20
1.685640
  0
VERTEX
  8
0
  6
CONTINUOUS
 10
4.036560
 20
1.321320
  0
VERTEX
  8
0
  6
CONTINUOUS
 10
3.919080
 20
1.288320
  0
VERTEX
  8
0
  6
CONTINUOUS
 10
3.269200
 20
1.652640
  0
VERTEX
  8
0
  6
CONTINUOUS
 10
3.386680
 20
1.685640
  0
SEQEND
  8
0
  0
SOLID
  8
0
 62
    15
 10
3.269200
 20
1.652640
 11
3.919080
 21
1.288320
 12
3.152160
 22
1.640320
 13
3.802040
 23
1.276000
  0
POLYLINE
  8
0
  6
CONTINUOUS
 66
     1
 40
0.000000
 41
0.000000
  0
VERTEX
  8
0
  6
CONTINUOUS
 10
3.269200
 20
1.652640
  0
VERTEX
  8
0
  6
CONTINUOUS
 10
3.919080
 20
1.288320
  0
VERTEX
  8
0
  6
CONTINUOUS
 10
3.802040
 20
1.276000
  0
VERTEX
  8
0
  6
CONTINUOUS
 10
3.152160
 20
1.640320
  0
VERTEX
  8
0
  6
CONTINUOUS
 10
3.269200
 20
1.652640
  0
SEQEND
  8
0
  0
SOLID
  8
0
 62
    15
 10
3.152160
 20
1.640320
 11
3.802040
 21
1.276000
 12
3.123560
 22
1.393040
 13
3.773440
 23
1.028720
  0
POLYLINE
  8
0
  6
CONTINUOUS
 66
     1
 40
0.000000
 41
0.000000
  0
VERTEX
  8
0
  6
CONTINUOUS
 10
3.152160
 20
1.640320
  0
VERTEX
  8
0
  6
CONTINUOUS
 10
3.802040
 20
1.276000
  0
VERTEX
  8
0
  6
CONTINUOUS
 10
3.773440
 20
1.028720
  0
VERTEX
  8
0
  6
CONTINUOUS
 10
3.123560
 20
1.393040
  0
VERTEX
  8
0
  6
CONTINUOUS
 10
3.152160
 20
1.640320
  0
SEQEND
  8
0
  0
SOLID
  8
0
 62
    15
 10
3.123560
 20
1.393040
 11
3.773440
 21
1.028720
 12
2.893440
 22
1.382480
 13
3.543760
 23
1.018160
  0
POLYLINE
  8
0
  6
CONTINUOUS
 66
     1
 40
0.000000
 41
0.000000
  0
VERTEX
  8
0
  6
CONTINUOUS
 10
3.123560
 20
1.393040
  0
VERTEX
  8
0
  6
CONTINUOUS
 10
3.773440
 20
1.028720
  0
VERTEX
  8
0
  6
CONTINUOUS
 10
3.543760
 20
1.018160
  0
VERTEX
  8
0
  6
CONTINUOUS
 10
2.893440
 20
1.382480
  0
VERTEX
  8
0
  6
CONTINUOUS
 10
3.123560
 20
1.393040
  0
SEQEND
  8
0
  0
SOLID
  8
0
 62
    15
 10
2.255440
 20
1.658360
 11
2.905320
 21
1.294040
 12
2.255880
 22
1.657920
 13
2.905760
 23
1.293600
  0
POLYLINE
  8
0
  6
CONTINUOUS
 66
     1
 40
0.000000
 41
0.000000
  0
VERTEX
  8
0
  6
CONTINUOUS
 10
2.255440
 20
1.658360
  0
VERTEX
  8
0
  6
CONTINUOUS
 10
2.905320
 20
1.294040
  0
VERTEX
  8
0
  6
CONTINUOUS
 10
2.905760
 20
1.293600
  0
VERTEX
  8
0
  6
CONTINUOUS
 10
2.255880
 20
1.657920
  0
VERTEX
  8
0
  6
CONTINUOUS
 10
2.255440
 20
1.658360
  0
SEQEND
  8
0
  0
SOLID
  8
0
 62
    15
 10
2.878920
 20
1.224960
 11
3.528800
 21
0.860640
 12
2.750000
 22
1.213080
 13
3.400320
 23
0.848760
  0
POLYLINE
  8
0
  6
CONTINUOUS
 66
     1
 40
0.000000
 41
0.000000
  0
VERTEX
  8
0
  6
CONTINUOUS
 10
2.878920
 20
1.224960
  0
VERTEX
  8
0
  6
CONTINUOUS
 10
3.528800
 20
0.860640
  0
VERTEX
  8
0
  6
CONTINUOUS
 10
3.400320
 20
0.848760
  0
VERTEX
  8
0
  6
CONTINUOUS
 10
2.750000
 20
1.213080
  0
VERTEX
  8
0
  6
CONTINUOUS
 10
2.878920
 20
1.224960
  0
SEQEND
  8
0
  0
SOLID
  8
0
 62
    15
 10
2.750000
 20
1.213080
 11
3.400320
 21
0.848760
 12
2.626360
 22
1.160720
 13
3.276240
 23
0.796400
  0
POLYLINE
  8
0
  6
CONTINUOUS
 66
     1
 40
0.000000
 41
0.000000
  0
VERTEX
  8
0
  6
CONTINUOUS
 10
2.750000
 20
1.213080
  0
VERTEX
  8
0
  6
CONTINUOUS
 10
3.400320
 20
0.848760
  0
VERTEX
  8
0
  6
CONTINUOUS
 10
3.276240
 20
0.796400
  0
VERTEX
  8
0
  6
CONTINUOUS
 10
2.626360
 20
1.160720
  0
VERTEX
  8
0
  6
CONTINUOUS
 10
2.750000
 20
1.213080
  0
SEQEND
  8
0
  0
SOLID
  8
0
 62
    15
 10
2.626360
 20
1.160720
 11
3.276240
 21
0.796400
 12
2.571360
 22
1.119360
 13
3.221240
 23
0.755040
  0
POLYLINE
  8
0
  6
CONTINUOUS
 66
     1
 40
0.000000
 41
0.000000
  0
VERTEX
  8
0
  6
CONTINUOUS
 10
2.626360
 20
1.160720
  0
VERTEX
  8
0
  6
CONTINUOUS
 10
3.276240
 20
0.796400
  0
VERTEX
  8
0
  6
CONTINUOUS
 10
3.221240
 20
0.755040
  0
VERTEX
  8
0
  6
CONTINUOUS
 10
2.571360
 20
1.119360
  0
VERTEX
  8
0
  6
CONTINUOUS
 10
2.626360
 20
1.160720
  0
SEQEND
  8
0
  0
SOLID
  8
0
 62
    15
 10
2.571360
 20
1.119360
 11
3.221240
 21
0.755040
 12
2.524280
 22
1.067440
 13
3.174160
 23
0.703120
  0
POLYLINE
  8
0
  6
CONTINUOUS
 66
     1
 40
0.000000
 41
0.000000
  0
VERTEX
  8
0
  6
CONTINUOUS
 10
2.571360
 20
1.119360
  0
VERTEX
  8
0
  6
CONTINUOUS
 10
3.221240
 20
0.755040
  0
VERTEX
  8
0
  6
CONTINUOUS
 10
3.174160
 20
0.703120
  0
VERTEX
  8
0
  6
CONTINUOUS
 10
2.524280
 20
1.067440
  0
VERTEX
  8
0
  6
CONTINUOUS
 10
2.571360
 20
1.119360
  0
SEQEND
  8
0
  0
SOLID
  8
0
 62
    15
 10
2.524280
 20
1.067440
 11
3.174160
 21
0.703120
 12
2.486880
 22
1.005840
 13
3.136760
 23
0.641520
  0
POLYLINE
  8
0
  6
CONTINUOUS
 66
     1
 40
0.000000
 41
0.000000
  0
VERTEX
  8
0
  6
CONTINUOUS
 10
2.524280
 20
1.067440
  0
VERTEX
  8
0
  6
CONTINUOUS
 10
3.174160
 20
0.703120
  0
VERTEX
  8
0
  6
CONTINUOUS
 10
3.136760
 20
0.641520
  0
VERTEX
  8
0
  6
CONTINUOUS
 10
2.486880
 20
1.005840
  0
VERTEX
  8
0
  6
CONTINUOUS
 10
2.524280
 20
1.067440
  0
SEQEND
  8
0
  0
SOLID
  8
0
 62
    15
 10
2.486880
 20
1.005840
 11
3.136760
 21
0.641520
 12
2.461360
 22
0.934120
 13
3.111680
 23
0.569800
  0
POLYLINE
  8
0
  6
CONTINUOUS
 66
     1
 40
0.000000
 41
0.000000
  0
VERTEX
  8
0
  6
CONTINUOUS
 10
2.486880
 20
1.005840
  0
VERTEX
  8
0
  6
CONTINUOUS
 10
3.136760
 20
0.641520
  0
VERTEX
  8
0
  6
CONTINUOUS
 10
3.111680
 20
0.569800
  0
VERTEX
  8
0
  6
CONTINUOUS
 10
2.461360
 20
0.934120
  0
VERTEX
  8
0
  6
CONTINUOUS
 10
2.486880
 20
1.005840
  0
SEQEND
  8
0
  0
SOLID
  8
0
 62
    15
 10
2.461360
 20
0.934120
 11
3.111680
 21
0.569800
 12
2.259400
 22
0.949520
 13
2.909280
 23
0.585200
  0
POLYLINE
  8
0
  6
CONTINUOUS
 66
     1
 40
0.000000
 41
0.000000
  0
VERTEX
  8
0
  6
CONTINUOUS
 10
2.461360
 20
0.934120
  0
VERTEX
  8
0
  6
CONTINUOUS
 10
3.111680
 20
0.569800
  0
VERTEX
  8
0
  6
CONTINUOUS
 10
2.909280
 20
0.585200
  0
VERTEX
  8
0
  6
CONTINUOUS
 10
2.259400
 20
0.949520
  0
VERTEX
  8
0
  6
CONTINUOUS
 10
2.461360
 20
0.934120
  0
SEQEND
  8
0
  0
SOLID
  8
0
 62
    15
 10
2.893440
 20
1.382480
 11
3.543760
 21
1.018160
 12
2.878920
 22
1.224960
 13
3.528800
 23
0.860640
  0
POLYLINE
  8
0
  6
CONTINUOUS
 66
     1
 40
0.000000
 41
0.000000
  0
VERTEX
  8
0
  6
CONTINUOUS
 10
2.893440
 20
1.382480
  0
VERTEX
  8
0
  6
CONTINUOUS
 10
3.543760
 20
1.018160
  0
VERTEX
  8
0
  6
CONTINUOUS
 10
3.528800
 20
0.860640
  0
VERTEX
  8
0
  6
CONTINUOUS
 10
2.878920
 20
1.224960
  0
VERTEX
  8
0
  6
CONTINUOUS
 10
2.893440
 20
1.382480
  0
SEQEND
  8
0
  0
POLYLINE
  8
0
  6
CONTINUOUS
 66
     1
 40
0.000000
 41
0.000000
  0
VERTEX
  8
0
  6
CONTINUOUS
 10
2.255880
 20
1.657920
  0
VERTEX
  8
0
  6
CONTINUOUS
 10
4.120160
 20
3.402520
  0
VERTEX
  8
0
  6
CONTINUOUS
 10
5.089480
 20
3.398120
  0
VERTEX
  8
0
  6
CONTINUOUS
 10
5.068800
 20
3.121800
  0
VERTEX
  8
0
  6
CONTINUOUS
 10
4.962760
 20
3.107280
  0
VERTEX
  8
0
  6
CONTINUOUS
 10
4.849240
 20
3.081320
  0
VERTEX
  8
0
  6
CONTINUOUS
 10
4.730000
 20
3.039960
  0
VERTEX
  8
0
  6
CONTINUOUS
 10
4.606800
 20
2.977920
  0
VERTEX
  8
0
  6
CONTINUOUS
 10
4.480960
 20
2.890360
  0
VERTEX
  8
0
  6
CONTINUOUS
 10
4.354240
 20
2.772880
  0
VERTEX
  8
0
  6
CONTINUOUS
 10
4.227960
 20
2.620200
  0
VERTEX
  8
0
  6
CONTINUOUS
 10
4.104320
 20
2.427920
  0
VERTEX
  8
0
  6
CONTINUOUS
 10
3.982440
 20
2.230360
  0
VERTEX
  8
0
  6
CONTINUOUS
 10
3.861880
 20
2.064920
  0
VERTEX
  8
0
  6
CONTINUOUS
 10
3.742200
 20
1.929840
  0
VERTEX
  8
0
  6
CONTINUOUS
 10
3.622960
 20
1.822480
  0
VERTEX
  8
0
  6
CONTINUOUS
 10
3.504600
 20
1.741960
  0
VERTEX
  8
0
  6
CONTINUOUS
 10
3.386680
 20
1.685640
  0
VERTEX
  8
0
  6
CONTINUOUS
 10
3.269200
 20
1.652640
  0
VERTEX
  8
0
  6
CONTINUOUS
 10
3.152160
 20
1.640320
  0
VERTEX
  8
0
  6
CONTINUOUS
 10
3.123560
 20
1.393040
  0
VERTEX
  8
0
  6
CONTINUOUS
 10
2.893440
 20
1.382480
  0
VERTEX
  8
0
  6
CONTINUOUS
 10
2.878920
 20
1.224960
  0
VERTEX
  8
0
  6
CONTINUOUS
 10
2.750000
 20
1.213080
  0
VERTEX
  8
0
  6
CONTINUOUS
 10
2.626360
 20
1.160720
  0
VERTEX
  8
0
  6
CONTINUOUS
 10
2.571360
 20
1.119360
  0
VERTEX
  8
0
  6
CONTINUOUS
 10
2.524280
 20
1.067440
  0
VERTEX
  8
0
  6
CONTINUOUS
 10
2.486880
 20
1.005840
  0
VERTEX
  8
0
  6
CONTINUOUS
 10
2.461360
 20
0.934120
  0
VERTEX
  8
0
  6
CONTINUOUS
 10
2.259400
 20
0.949520
  0
VERTEX
  8
0
  6
CONTINUOUS
 10
2.255440
 20
1.658360
  0
VERTEX
  8
0
  6
CONTINUOUS
 10
2.255880
 20
1.657920
  0
SEQEND
  8
0
  0
TEXT
  8
0
 10
4.295720
 20
0.799920
 40
0.138146
  1
BA  1199
 41
1.000000
  7
SN0
 71
     0
 72
     5
 11
4.978333
 21
0.799920
  0
TEXT
  8
0
 10
4.186160
 20
0.608080
 40
0.138146
  1
7/8" x 3-3/4"
 41
1.000000
  7
SN0
 71
     0
 72
     5
 11
5.087382
 21
0.608080
  0
TEXT
  8
0
 10
5.514520
 20
4.319920
 40
0.138146
  1
BA  1199
 41
1.000000
  7
SN0
 71
     0
 72
     5
 11
6.197133
 21
4.319920
  0
TEXT
  8
0
 10
5.404960
 20
4.128080
 40
0.138146
  1
7/8" x 3-3/4"
 41
1.000000
  7
SN0
 71
     0
 72
     5
 11
6.306182
 21
4.128080
  0
ENDSEC
  0
EOF
