  0
SECTION
  2
HEADER
  9
$ACADVER
  1
AC1006
  9
$EXTMIN
 10
1.207800
 20
1.299320
  9
$EXTMAX
 10
6.961240
 20
7.923520
  9
$LTSCALE
 40
0.044000
  9
$PDMODE
 70
    35
  9
$PDSIZE
 40
0.035200
  0
ENDSEC
  0
SECTION
  2
TABLES
  0
TABLE
  2
LTYPE
 70
     9
  0
LTYPE
  2
CONTINUOUS
 70
    64
  3
Solid line
 72
    65
 73
     0
 40
0.000000
  0
LTYPE
  2
DASHED
 70
    64
  3
__ __ __ __ __ __ __ __ __ __ __ __ __ __ __
 72
    65
 73
     2
 40
0.000330
 49
0.000220
 49
-0.000110
  0
LTYPE
  2
HIDDEN
 70
    64
  3
 _ _ _ _ _ _ _ _ _ _ _ _ _ _ _ _ _ _ _ _ _ _
 72
    65
 73
     2
 40
0.000165
 49
0.000110
 49
-0.000055
  0
LTYPE
  2
CENTER
 70
    64
  3
____ _ ____ _ ____ _ ____ _ ____ _ ____ _ ____
 72
    65
 73
     4
 40
0.000880
 49
0.000550
 49
-0.000110
 49
0.000110
 49
-0.000110
  0
LTYPE
  2
PHANTOM
 70
    64
  3
_____ _ _ _____ _ _ _____ _ _ _____ _ _ ____
 72
    65
 73
     6
 40
0.001100
 49
0.000550
 49
-0.000110
 49
0.000110
 49
-0.000110
 49
0.000110
 49
-0.000110
  0
LTYPE
  2
DOT
 70
    64
  3
...............................................
 72
    65
 73
     2
 40
0.000110
 49
0.000000
 49
-0.000110
  0
LTYPE
  2
DASHDOT
 70
    64
  3
__ . __ . __ . __ . __ . __ . __ . __ . __ . __
 72
    65
 73
     4
 40
0.000440
 49
0.000220
 49
-0.000110
 49
0.000000
 49
-0.000110
  0
LTYPE
  2
BORDER
 70
    64
  3
__ __ . __ __ . __ __ . __ __ . __ __ . __ __
 72
    65
 73
     6
 40
0.000770
 49
0.000220
 49
-0.000110
 49
0.000220
 49
-0.000110
 49
0.000000
 49
-0.000110
  0
LTYPE
  2
DIVIDE
 70
    64
  3
__ . . __ . . __ . . __ . . __ . . __ . . __
 72
    65
 73
     6
 40
0.000550
 49
0.000220
 49
-0.000110
 49
0.000000
 49
-0.000110
 49
0.000000
 49
-0.000110
  0
LTYPE
  2
DOTDOT
 70
    64
  3
 . .  . .  . .  . .  . .  . . 
 72
    65
 73
     5
 40
0.000242
 49
-0.000110
 49
0.000000
 49
-0.000110
 49
0.000000
 49
-0.000110
  0
ENDTAB
  0
TABLE
  2
STYLE
 70
     2
  0
STYLE
 70
     0
  2
SN0
 40
0.000000
 41
0.000440
 50
0.000000
 71
     0
 42
0.000000
  3
ROMAND
  0
STYLE
 70
    68
  2
SV0
 40
0.000000
 41
0.000440
 50
0.000000
 71
     0
 42
0.000000
  3
ROMAND
  0
ENDTAB
  0
TABLE
  2
LAYER
 70
     3
  0
LAYER
  2
FOREGROUND
 70
    64
 62
     7
  6
CONTINUOUS
  0
LAYER
  2
BACKGROUND
 70
    65
 62
    -7
  6
CONTINUOUS
  0
LAYER
  2
0
 70
    64
 62
     7
  6
CONTINUOUS
  0
ENDTAB
  0
ENDSEC
  0
SECTION
  2
ENTITIES
  0
POLYLINE
  8
FOREGROUND
  6
CONTINUOUS
 66
     1
 40
0.000000
 41
0.000000
  0
VERTEX
  8
FOREGROUND
  6
CONTINUOUS
 10
0.000000
 20
9.222840
  0
VERTEX
  8
FOREGROUND
  6
CONTINUOUS
 10
8.499920
 20
9.222840
  0
VERTEX
  8
FOREGROUND
  6
CONTINUOUS
 10
8.499920
 20
-1.777160
  0
VERTEX
  8
FOREGROUND
  6
CONTINUOUS
 10
0.000000
 20
-1.777160
  0
VERTEX
  8
FOREGROUND
  6
CONTINUOUS
 10
0.000000
 20
9.222840
  0
SEQEND
  8
0
  0
POLYLINE
  8
FOREGROUND
  6
CONTINUOUS
 66
     1
 40
0.000000
 41
0.000000
  0
VERTEX
  8
FOREGROUND
  6
CONTINUOUS
 10
0.000000
 20
9.222840
  0
VERTEX
  8
FOREGROUND
  6
CONTINUOUS
 10
8.499920
 20
9.222840
  0
VERTEX
  8
FOREGROUND
  6
CONTINUOUS
 10
8.499920
 20
-1.777160
  0
VERTEX
  8
FOREGROUND
  6
CONTINUOUS
 10
0.000000
 20
-1.777160
  0
VERTEX
  8
FOREGROUND
  6
CONTINUOUS
 10
0.000000
 20
9.222840
  0
SEQEND
  8
0
  0
SOLID
  8
0
 62
    15
 10
6.563480
 20
3.853080
 11
6.563920
 21
4.610320
 12
6.586800
 22
3.853960
 13
6.587240
 23
4.611200
  0
POLYLINE
  8
0
  6
CONTINUOUS
 66
     1
 40
0.000000
 41
0.000000
  0
VERTEX
  8
0
  6
CONTINUOUS
 10
6.563480
 20
3.853080
  0
VERTEX
  8
0
  6
CONTINUOUS
 10
6.563920
 20
4.610320
  0
VERTEX
  8
0
  6
CONTINUOUS
 10
6.587240
 20
4.611200
  0
VERTEX
  8
0
  6
CONTINUOUS
 10
6.586800
 20
3.853960
  0
VERTEX
  8
0
  6
CONTINUOUS
 10
6.563480
 20
3.853080
  0
SEQEND
  8
0
  0
SOLID
  8
0
 62
    15
 10
6.709560
 20
3.177240
 11
6.710000
 21
3.934920
 12
6.710000
 22
3.177240
 13
6.710440
 23
3.934920
  0
POLYLINE
  8
0
  6
CONTINUOUS
 66
     1
 40
0.000000
 41
0.000000
  0
VERTEX
  8
0
  6
CONTINUOUS
 10
6.709560
 20
3.177240
  0
VERTEX
  8
0
  6
CONTINUOUS
 10
6.710000
 20
3.934920
  0
VERTEX
  8
0
  6
CONTINUOUS
 10
6.710440
 20
3.934920
  0
VERTEX
  8
0
  6
CONTINUOUS
 10
6.710000
 20
3.177240
  0
VERTEX
  8
0
  6
CONTINUOUS
 10
6.709560
 20
3.177240
  0
SEQEND
  8
0
  0
SOLID
  8
0
 62
    15
 10
1.408440
 20
3.316720
 11
1.408880
 21
4.073960
 12
1.660120
 22
3.316720
 13
1.660560
 23
4.073960
  0
POLYLINE
  8
0
  6
CONTINUOUS
 66
     1
 40
0.000000
 41
0.000000
  0
VERTEX
  8
0
  6
CONTINUOUS
 10
1.408440
 20
3.316720
  0
VERTEX
  8
0
  6
CONTINUOUS
 10
1.408880
 20
4.073960
  0
VERTEX
  8
0
  6
CONTINUOUS
 10
1.660560
 20
4.073960
  0
VERTEX
  8
0
  6
CONTINUOUS
 10
1.660120
 20
3.316720
  0
VERTEX
  8
0
  6
CONTINUOUS
 10
1.408440
 20
3.316720
  0
SEQEND
  8
0
  0
SOLID
  8
0
 62
    15
 10
1.408440
 20
3.716240
 11
1.408880
 21
4.473920
 12
1.543960
 22
3.878160
 13
1.544400
 23
4.635400
  0
POLYLINE
  8
0
  6
CONTINUOUS
 66
     1
 40
0.000000
 41
0.000000
  0
VERTEX
  8
0
  6
CONTINUOUS
 10
1.408440
 20
3.716240
  0
VERTEX
  8
0
  6
CONTINUOUS
 10
1.408880
 20
4.473920
  0
VERTEX
  8
0
  6
CONTINUOUS
 10
1.544400
 20
4.635400
  0
VERTEX
  8
0
  6
CONTINUOUS
 10
1.543960
 20
3.878160
  0
VERTEX
  8
0
  6
CONTINUOUS
 10
1.408440
 20
3.716240
  0
SEQEND
  8
0
  0
SOLID
  8
0
 62
    15
 10
1.543960
 20
3.878160
 11
1.544400
 21
4.635400
 12
6.278800
 22
3.878160
 13
6.279240
 23
4.635400
  0
POLYLINE
  8
0
  6
CONTINUOUS
 66
     1
 40
0.000000
 41
0.000000
  0
VERTEX
  8
0
  6
CONTINUOUS
 10
1.543960
 20
3.878160
  0
VERTEX
  8
0
  6
CONTINUOUS
 10
1.544400
 20
4.635400
  0
VERTEX
  8
0
  6
CONTINUOUS
 10
6.279240
 20
4.635400
  0
VERTEX
  8
0
  6
CONTINUOUS
 10
6.278800
 20
3.878160
  0
VERTEX
  8
0
  6
CONTINUOUS
 10
1.543960
 20
3.878160
  0
SEQEND
  8
0
  0
SOLID
  8
0
 62
    15
 10
6.278800
 20
3.878160
 11
6.279240
 21
4.635400
 12
6.425320
 22
3.711400
 13
6.425760
 23
4.468640
  0
POLYLINE
  8
0
  6
CONTINUOUS
 66
     1
 40
0.000000
 41
0.000000
  0
VERTEX
  8
0
  6
CONTINUOUS
 10
6.278800
 20
3.878160
  0
VERTEX
  8
0
  6
CONTINUOUS
 10
6.279240
 20
4.635400
  0
VERTEX
  8
0
  6
CONTINUOUS
 10
6.425760
 20
4.468640
  0
VERTEX
  8
0
  6
CONTINUOUS
 10
6.425320
 20
3.711400
  0
VERTEX
  8
0
  6
CONTINUOUS
 10
6.278800
 20
3.878160
  0
SEQEND
  8
0
  0
SOLID
  8
0
 62
    15
 10
6.425320
 20
3.711400
 11
6.425760
 21
4.468640
 12
6.451280
 22
3.711400
 13
6.451720
 23
4.468640
  0
POLYLINE
  8
0
  6
CONTINUOUS
 66
     1
 40
0.000000
 41
0.000000
  0
VERTEX
  8
0
  6
CONTINUOUS
 10
6.425320
 20
3.711400
  0
VERTEX
  8
0
  6
CONTINUOUS
 10
6.425760
 20
4.468640
  0
VERTEX
  8
0
  6
CONTINUOUS
 10
6.451720
 20
4.468640
  0
VERTEX
  8
0
  6
CONTINUOUS
 10
6.451280
 20
3.711400
  0
VERTEX
  8
0
  6
CONTINUOUS
 10
6.425320
 20
3.711400
  0
SEQEND
  8
0
  0
SOLID
  8
0
 62
    15
 10
6.451280
 20
3.711400
 11
6.451720
 21
4.468640
 12
6.457440
 22
3.746600
 13
6.457440
 23
4.503840
  0
POLYLINE
  8
0
  6
CONTINUOUS
 66
     1
 40
0.000000
 41
0.000000
  0
VERTEX
  8
0
  6
CONTINUOUS
 10
6.451280
 20
3.711400
  0
VERTEX
  8
0
  6
CONTINUOUS
 10
6.451720
 20
4.468640
  0
VERTEX
  8
0
  6
CONTINUOUS
 10
6.457440
 20
4.503840
  0
VERTEX
  8
0
  6
CONTINUOUS
 10
6.457440
 20
3.746600
  0
VERTEX
  8
0
  6
CONTINUOUS
 10
6.451280
 20
3.711400
  0
SEQEND
  8
0
  0
SOLID
  8
0
 62
    15
 10
6.457440
 20
3.746600
 11
6.457440
 21
4.503840
 12
6.467560
 22
3.776960
 13
6.468000
 23
4.534200
  0
POLYLINE
  8
0
  6
CONTINUOUS
 66
     1
 40
0.000000
 41
0.000000
  0
VERTEX
  8
0
  6
CONTINUOUS
 10
6.457440
 20
3.746600
  0
VERTEX
  8
0
  6
CONTINUOUS
 10
6.457440
 20
4.503840
  0
VERTEX
  8
0
  6
CONTINUOUS
 10
6.468000
 20
4.534200
  0
VERTEX
  8
0
  6
CONTINUOUS
 10
6.467560
 20
3.776960
  0
VERTEX
  8
0
  6
CONTINUOUS
 10
6.457440
 20
3.746600
  0
SEQEND
  8
0
  0
SOLID
  8
0
 62
    15
 10
6.467560
 20
3.776960
 11
6.468000
 21
4.534200
 12
6.482080
 22
3.802040
 13
6.482520
 23
4.559280
  0
POLYLINE
  8
0
  6
CONTINUOUS
 66
     1
 40
0.000000
 41
0.000000
  0
VERTEX
  8
0
  6
CONTINUOUS
 10
6.467560
 20
3.776960
  0
VERTEX
  8
0
  6
CONTINUOUS
 10
6.468000
 20
4.534200
  0
VERTEX
  8
0
  6
CONTINUOUS
 10
6.482520
 20
4.559280
  0
VERTEX
  8
0
  6
CONTINUOUS
 10
6.482080
 20
3.802040
  0
VERTEX
  8
0
  6
CONTINUOUS
 10
6.467560
 20
3.776960
  0
SEQEND
  8
0
  0
SOLID
  8
0
 62
    15
 10
6.482080
 20
3.802040
 11
6.482520
 21
4.559280
 12
6.499240
 22
3.821840
 13
6.499680
 23
4.579080
  0
POLYLINE
  8
0
  6
CONTINUOUS
 66
     1
 40
0.000000
 41
0.000000
  0
VERTEX
  8
0
  6
CONTINUOUS
 10
6.482080
 20
3.802040
  0
VERTEX
  8
0
  6
CONTINUOUS
 10
6.482520
 20
4.559280
  0
VERTEX
  8
0
  6
CONTINUOUS
 10
6.499680
 20
4.579080
  0
VERTEX
  8
0
  6
CONTINUOUS
 10
6.499240
 20
3.821840
  0
VERTEX
  8
0
  6
CONTINUOUS
 10
6.482080
 20
3.802040
  0
SEQEND
  8
0
  0
SOLID
  8
0
 62
    15
 10
6.499240
 20
3.821840
 11
6.499680
 21
4.579080
 12
6.519040
 22
3.837240
 13
6.519480
 23
4.594480
  0
POLYLINE
  8
0
  6
CONTINUOUS
 66
     1
 40
0.000000
 41
0.000000
  0
VERTEX
  8
0
  6
CONTINUOUS
 10
6.499240
 20
3.821840
  0
VERTEX
  8
0
  6
CONTINUOUS
 10
6.499680
 20
4.579080
  0
VERTEX
  8
0
  6
CONTINUOUS
 10
6.519480
 20
4.594480
  0
VERTEX
  8
0
  6
CONTINUOUS
 10
6.519040
 20
3.837240
  0
VERTEX
  8
0
  6
CONTINUOUS
 10
6.499240
 20
3.821840
  0
SEQEND
  8
0
  0
SOLID
  8
0
 62
    15
 10
6.519040
 20
3.837240
 11
6.519480
 21
4.594480
 12
6.540600
 22
3.847360
 13
6.541040
 23
4.604600
  0
POLYLINE
  8
0
  6
CONTINUOUS
 66
     1
 40
0.000000
 41
0.000000
  0
VERTEX
  8
0
  6
CONTINUOUS
 10
6.519040
 20
3.837240
  0
VERTEX
  8
0
  6
CONTINUOUS
 10
6.519480
 20
4.594480
  0
VERTEX
  8
0
  6
CONTINUOUS
 10
6.541040
 20
4.604600
  0
VERTEX
  8
0
  6
CONTINUOUS
 10
6.540600
 20
3.847360
  0
VERTEX
  8
0
  6
CONTINUOUS
 10
6.519040
 20
3.837240
  0
SEQEND
  8
0
  0
SOLID
  8
0
 62
    15
 10
6.540600
 20
3.847360
 11
6.541040
 21
4.604600
 12
6.563480
 22
3.853080
 13
6.563920
 23
4.610320
  0
POLYLINE
  8
0
  6
CONTINUOUS
 66
     1
 40
0.000000
 41
0.000000
  0
VERTEX
  8
0
  6
CONTINUOUS
 10
6.540600
 20
3.847360
  0
VERTEX
  8
0
  6
CONTINUOUS
 10
6.541040
 20
4.604600
  0
VERTEX
  8
0
  6
CONTINUOUS
 10
6.563920
 20
4.610320
  0
VERTEX
  8
0
  6
CONTINUOUS
 10
6.563480
 20
3.853080
  0
VERTEX
  8
0
  6
CONTINUOUS
 10
6.540600
 20
3.847360
  0
SEQEND
  8
0
  0
SOLID
  8
0
 62
    15
 10
6.960800
 20
3.563560
 11
6.960800
 21
4.321240
 12
6.960800
 22
3.317160
 13
6.960800
 23
4.074840
  0
POLYLINE
  8
0
  6
CONTINUOUS
 66
     1
 40
0.000000
 41
0.000000
  0
VERTEX
  8
0
  6
CONTINUOUS
 10
6.960800
 20
3.563560
  0
VERTEX
  8
0
  6
CONTINUOUS
 10
6.960800
 20
4.321240
  0
VERTEX
  8
0
  6
CONTINUOUS
 10
6.960800
 20
4.074840
  0
VERTEX
  8
0
  6
CONTINUOUS
 10
6.960800
 20
3.317160
  0
VERTEX
  8
0
  6
CONTINUOUS
 10
6.960800
 20
3.563560
  0
SEQEND
  8
0
  0
SOLID
  8
0
 62
    15
 10
6.586800
 20
3.853960
 11
6.587240
 21
4.611200
 12
6.609680
 22
3.850000
 13
6.610120
 23
4.607680
  0
POLYLINE
  8
0
  6
CONTINUOUS
 66
     1
 40
0.000000
 41
0.000000
  0
VERTEX
  8
0
  6
CONTINUOUS
 10
6.586800
 20
3.853960
  0
VERTEX
  8
0
  6
CONTINUOUS
 10
6.587240
 20
4.611200
  0
VERTEX
  8
0
  6
CONTINUOUS
 10
6.610120
 20
4.607680
  0
VERTEX
  8
0
  6
CONTINUOUS
 10
6.609680
 20
3.850000
  0
VERTEX
  8
0
  6
CONTINUOUS
 10
6.586800
 20
3.853960
  0
SEQEND
  8
0
  0
SOLID
  8
0
 62
    15
 10
6.609680
 20
3.850000
 11
6.610120
 21
4.607680
 12
6.631680
 22
3.842080
 13
6.632120
 23
4.599320
  0
POLYLINE
  8
0
  6
CONTINUOUS
 66
     1
 40
0.000000
 41
0.000000
  0
VERTEX
  8
0
  6
CONTINUOUS
 10
6.609680
 20
3.850000
  0
VERTEX
  8
0
  6
CONTINUOUS
 10
6.610120
 20
4.607680
  0
VERTEX
  8
0
  6
CONTINUOUS
 10
6.632120
 20
4.599320
  0
VERTEX
  8
0
  6
CONTINUOUS
 10
6.631680
 20
3.842080
  0
VERTEX
  8
0
  6
CONTINUOUS
 10
6.609680
 20
3.850000
  0
SEQEND
  8
0
  0
SOLID
  8
0
 62
    15
 10
6.631680
 20
3.842080
 11
6.632120
 21
4.599320
 12
6.652360
 22
3.829320
 13
6.652800
 23
4.586560
  0
POLYLINE
  8
0
  6
CONTINUOUS
 66
     1
 40
0.000000
 41
0.000000
  0
VERTEX
  8
0
  6
CONTINUOUS
 10
6.631680
 20
3.842080
  0
VERTEX
  8
0
  6
CONTINUOUS
 10
6.632120
 20
4.599320
  0
VERTEX
  8
0
  6
CONTINUOUS
 10
6.652800
 20
4.586560
  0
VERTEX
  8
0
  6
CONTINUOUS
 10
6.652360
 20
3.829320
  0
VERTEX
  8
0
  6
CONTINUOUS
 10
6.631680
 20
3.842080
  0
SEQEND
  8
0
  0
SOLID
  8
0
 62
    15
 10
6.652360
 20
3.829320
 11
6.652800
 21
4.586560
 12
6.670840
 22
3.812160
 13
6.671280
 23
4.569840
  0
POLYLINE
  8
0
  6
CONTINUOUS
 66
     1
 40
0.000000
 41
0.000000
  0
VERTEX
  8
0
  6
CONTINUOUS
 10
6.652360
 20
3.829320
  0
VERTEX
  8
0
  6
CONTINUOUS
 10
6.652800
 20
4.586560
  0
VERTEX
  8
0
  6
CONTINUOUS
 10
6.671280
 20
4.569840
  0
VERTEX
  8
0
  6
CONTINUOUS
 10
6.670840
 20
3.812160
  0
VERTEX
  8
0
  6
CONTINUOUS
 10
6.652360
 20
3.829320
  0
SEQEND
  8
0
  0
SOLID
  8
0
 62
    15
 10
6.686240
 20
3.791040
 11
6.686680
 21
4.548720
 12
6.698560
 22
3.765520
 13
6.699000
 23
4.523200
  0
POLYLINE
  8
0
  6
CONTINUOUS
 66
     1
 40
0.000000
 41
0.000000
  0
VERTEX
  8
0
  6
CONTINUOUS
 10
6.686240
 20
3.791040
  0
VERTEX
  8
0
  6
CONTINUOUS
 10
6.686680
 20
4.548720
  0
VERTEX
  8
0
  6
CONTINUOUS
 10
6.699000
 20
4.523200
  0
VERTEX
  8
0
  6
CONTINUOUS
 10
6.698560
 20
3.765520
  0
VERTEX
  8
0
  6
CONTINUOUS
 10
6.686240
 20
3.791040
  0
SEQEND
  8
0
  0
SOLID
  8
0
 62
    15
 10
6.670840
 20
3.812160
 11
6.671280
 21
4.569840
 12
6.686240
 22
3.791040
 13
6.686680
 23
4.548720
  0
POLYLINE
  8
0
  6
CONTINUOUS
 66
     1
 40
0.000000
 41
0.000000
  0
VERTEX
  8
0
  6
CONTINUOUS
 10
6.670840
 20
3.812160
  0
VERTEX
  8
0
  6
CONTINUOUS
 10
6.671280
 20
4.569840
  0
VERTEX
  8
0
  6
CONTINUOUS
 10
6.686680
 20
4.548720
  0
VERTEX
  8
0
  6
CONTINUOUS
 10
6.686240
 20
3.791040
  0
VERTEX
  8
0
  6
CONTINUOUS
 10
6.670840
 20
3.812160
  0
SEQEND
  8
0
  0
SOLID
  8
0
 62
    15
 10
6.698560
 20
3.765520
 11
6.699000
 21
4.523200
 12
6.706480
 22
3.736040
 13
6.706920
 23
4.493720
  0
POLYLINE
  8
0
  6
CONTINUOUS
 66
     1
 40
0.000000
 41
0.000000
  0
VERTEX
  8
0
  6
CONTINUOUS
 10
6.698560
 20
3.765520
  0
VERTEX
  8
0
  6
CONTINUOUS
 10
6.699000
 20
4.523200
  0
VERTEX
  8
0
  6
CONTINUOUS
 10
6.706920
 20
4.493720
  0
VERTEX
  8
0
  6
CONTINUOUS
 10
6.706480
 20
3.736040
  0
VERTEX
  8
0
  6
CONTINUOUS
 10
6.698560
 20
3.765520
  0
SEQEND
  8
0
  0
SOLID
  8
0
 62
    15
 10
6.709560
 20
3.255560
 11
6.710000
 21
4.013240
 12
6.709560
 22
3.260840
 13
6.710000
 23
4.018520
  0
POLYLINE
  8
0
  6
CONTINUOUS
 66
     1
 40
0.000000
 41
0.000000
  0
VERTEX
  8
0
  6
CONTINUOUS
 10
6.709560
 20
3.255560
  0
VERTEX
  8
0
  6
CONTINUOUS
 10
6.710000
 20
4.013240
  0
VERTEX
  8
0
  6
CONTINUOUS
 10
6.710000
 20
4.018520
  0
VERTEX
  8
0
  6
CONTINUOUS
 10
6.709560
 20
3.260840
  0
VERTEX
  8
0
  6
CONTINUOUS
 10
6.709560
 20
3.255560
  0
SEQEND
  8
0
  0
SOLID
  8
0
 62
    15
 10
6.709560
 20
3.702600
 11
6.710000
 21
4.459840
 12
6.709560
 22
3.563560
 13
6.710000
 23
4.321240
  0
POLYLINE
  8
0
  6
CONTINUOUS
 66
     1
 40
0.000000
 41
0.000000
  0
VERTEX
  8
0
  6
CONTINUOUS
 10
6.709560
 20
3.702600
  0
VERTEX
  8
0
  6
CONTINUOUS
 10
6.710000
 20
4.459840
  0
VERTEX
  8
0
  6
CONTINUOUS
 10
6.710000
 20
4.321240
  0
VERTEX
  8
0
  6
CONTINUOUS
 10
6.709560
 20
3.563560
  0
VERTEX
  8
0
  6
CONTINUOUS
 10
6.709560
 20
3.702600
  0
SEQEND
  8
0
  0
SOLID
  8
0
 62
    15
 10
6.709560
 20
3.260840
 11
6.710000
 21
4.018520
 12
6.709560
 22
3.177240
 13
6.710000
 23
3.934920
  0
POLYLINE
  8
0
  6
CONTINUOUS
 66
     1
 40
0.000000
 41
0.000000
  0
VERTEX
  8
0
  6
CONTINUOUS
 10
6.709560
 20
3.260840
  0
VERTEX
  8
0
  6
CONTINUOUS
 10
6.710000
 20
4.018520
  0
VERTEX
  8
0
  6
CONTINUOUS
 10
6.710000
 20
3.934920
  0
VERTEX
  8
0
  6
CONTINUOUS
 10
6.709560
 20
3.177240
  0
VERTEX
  8
0
  6
CONTINUOUS
 10
6.709560
 20
3.260840
  0
SEQEND
  8
0
  0
SOLID
  8
0
 62
    15
 10
6.706480
 20
3.736040
 11
6.706920
 21
4.493720
 12
6.710000
 22
3.702600
 13
6.710440
 23
4.459840
  0
POLYLINE
  8
0
  6
CONTINUOUS
 66
     1
 40
0.000000
 41
0.000000
  0
VERTEX
  8
0
  6
CONTINUOUS
 10
6.706480
 20
3.736040
  0
VERTEX
  8
0
  6
CONTINUOUS
 10
6.706920
 20
4.493720
  0
VERTEX
  8
0
  6
CONTINUOUS
 10
6.710440
 20
4.459840
  0
VERTEX
  8
0
  6
CONTINUOUS
 10
6.710000
 20
3.702600
  0
VERTEX
  8
0
  6
CONTINUOUS
 10
6.706480
 20
3.736040
  0
SEQEND
  8
0
  0
SOLID
  8
0
 62
    15
 10
6.709560
 20
3.317160
 11
6.710000
 21
4.074840
 12
6.709560
 22
3.255560
 13
6.710000
 23
4.013240
  0
POLYLINE
  8
0
  6
CONTINUOUS
 66
     1
 40
0.000000
 41
0.000000
  0
VERTEX
  8
0
  6
CONTINUOUS
 10
6.709560
 20
3.317160
  0
VERTEX
  8
0
  6
CONTINUOUS
 10
6.710000
 20
4.074840
  0
VERTEX
  8
0
  6
CONTINUOUS
 10
6.710000
 20
4.013240
  0
VERTEX
  8
0
  6
CONTINUOUS
 10
6.709560
 20
3.255560
  0
VERTEX
  8
0
  6
CONTINUOUS
 10
6.709560
 20
3.317160
  0
SEQEND
  8
0
  0
SOLID
  8
0
 62
    15
 10
6.709560
 20
3.563560
 11
6.710000
 21
4.321240
 12
6.960800
 22
3.563560
 13
6.960800
 23
4.321240
  0
POLYLINE
  8
0
  6
CONTINUOUS
 66
     1
 40
0.000000
 41
0.000000
  0
VERTEX
  8
0
  6
CONTINUOUS
 10
6.709560
 20
3.563560
  0
VERTEX
  8
0
  6
CONTINUOUS
 10
6.710000
 20
4.321240
  0
VERTEX
  8
0
  6
CONTINUOUS
 10
6.960800
 20
4.321240
  0
VERTEX
  8
0
  6
CONTINUOUS
 10
6.960800
 20
3.563560
  0
VERTEX
  8
0
  6
CONTINUOUS
 10
6.709560
 20
3.563560
  0
SEQEND
  8
0
  0
POLYLINE
  8
0
  6
CONTINUOUS
 66
     1
 40
0.000000
 41
0.000000
  0
VERTEX
  8
0
  6
CONTINUOUS
 10
6.709560
 20
3.260840
  0
VERTEX
  8
0
  6
CONTINUOUS
 10
6.710000
 20
3.177240
  0
VERTEX
  8
0
  6
CONTINUOUS
 10
6.706480
 20
3.143800
  0
VERTEX
  8
0
  6
CONTINUOUS
 10
6.698560
 20
3.114320
  0
VERTEX
  8
0
  6
CONTINUOUS
 10
6.686240
 20
3.089240
  0
VERTEX
  8
0
  6
CONTINUOUS
 10
6.670840
 20
3.067680
  0
VERTEX
  8
0
  6
CONTINUOUS
 10
6.652360
 20
3.050960
  0
VERTEX
  8
0
  6
CONTINUOUS
 10
6.631680
 20
3.038200
  0
VERTEX
  8
0
  6
CONTINUOUS
 10
6.609680
 20
3.029840
  0
VERTEX
  8
0
  6
CONTINUOUS
 10
6.586800
 20
3.026320
  0
VERTEX
  8
0
  6
CONTINUOUS
 10
6.563480
 20
3.027200
  0
VERTEX
  8
0
  6
CONTINUOUS
 10
6.540600
 20
3.032920
  0
VERTEX
  8
0
  6
CONTINUOUS
 10
6.519040
 20
3.043040
  0
VERTEX
  8
0
  6
CONTINUOUS
 10
6.499240
 20
3.058000
  0
VERTEX
  8
0
  6
CONTINUOUS
 10
6.482080
 20
3.078240
  0
VERTEX
  8
0
  6
CONTINUOUS
 10
6.467560
 20
3.103320
  0
VERTEX
  8
0
  6
CONTINUOUS
 10
6.457440
 20
3.133680
  0
VERTEX
  8
0
  6
CONTINUOUS
 10
6.451280
 20
3.168880
  0
VERTEX
  8
0
  6
CONTINUOUS
 10
6.425320
 20
3.168880
  0
VERTEX
  8
0
  6
CONTINUOUS
 10
6.278800
 20
3.002120
  0
VERTEX
  8
0
  6
CONTINUOUS
 10
1.543960
 20
3.002120
  0
VERTEX
  8
0
  6
CONTINUOUS
 10
1.408440
 20
3.163600
  0
VERTEX
  8
0
  6
CONTINUOUS
 10
1.408440
 20
3.316720
  0
VERTEX
  8
0
  6
CONTINUOUS
 10
1.660120
 20
3.316720
  0
VERTEX
  8
0
  6
CONTINUOUS
 10
1.660120
 20
3.564440
  0
VERTEX
  8
0
  6
CONTINUOUS
 10
1.408440
 20
3.564440
  0
VERTEX
  8
0
  6
CONTINUOUS
 10
1.408440
 20
3.716240
  0
VERTEX
  8
0
  6
CONTINUOUS
 10
1.543960
 20
3.878160
  0
VERTEX
  8
0
  6
CONTINUOUS
 10
6.278800
 20
3.878160
  0
VERTEX
  8
0
  6
CONTINUOUS
 10
6.425320
 20
3.711400
  0
VERTEX
  8
0
  6
CONTINUOUS
 10
6.451280
 20
3.711400
  0
VERTEX
  8
0
  6
CONTINUOUS
 10
6.457440
 20
3.746600
  0
VERTEX
  8
0
  6
CONTINUOUS
 10
6.467560
 20
3.776960
  0
VERTEX
  8
0
  6
CONTINUOUS
 10
6.482080
 20
3.802040
  0
VERTEX
  8
0
  6
CONTINUOUS
 10
6.499240
 20
3.821840
  0
VERTEX
  8
0
  6
CONTINUOUS
 10
6.519040
 20
3.837240
  0
VERTEX
  8
0
  6
CONTINUOUS
 10
6.540600
 20
3.847360
  0
VERTEX
  8
0
  6
CONTINUOUS
 10
6.563480
 20
3.853080
  0
VERTEX
  8
0
  6
CONTINUOUS
 10
6.586800
 20
3.853960
  0
VERTEX
  8
0
  6
CONTINUOUS
 10
6.609680
 20
3.850000
  0
VERTEX
  8
0
  6
CONTINUOUS
 10
6.631680
 20
3.842080
  0
VERTEX
  8
0
  6
CONTINUOUS
 10
6.652360
 20
3.829320
  0
VERTEX
  8
0
  6
CONTINUOUS
 10
6.670840
 20
3.812160
  0
VERTEX
  8
0
  6
CONTINUOUS
 10
6.686240
 20
3.791040
  0
VERTEX
  8
0
  6
CONTINUOUS
 10
6.698560
 20
3.765520
  0
VERTEX
  8
0
  6
CONTINUOUS
 10
6.706480
 20
3.736040
  0
VERTEX
  8
0
  6
CONTINUOUS
 10
6.710000
 20
3.702600
  0
VERTEX
  8
0
  6
CONTINUOUS
 10
6.709560
 20
3.702600
  0
VERTEX
  8
0
  6
CONTINUOUS
 10
6.709560
 20
3.563560
  0
VERTEX
  8
0
  6
CONTINUOUS
 10
6.960800
 20
3.563560
  0
VERTEX
  8
0
  6
CONTINUOUS
 10
6.960800
 20
3.317160
  0
VERTEX
  8
0
  6
CONTINUOUS
 10
6.709560
 20
3.317160
  0
VERTEX
  8
0
  6
CONTINUOUS
 10
6.709560
 20
3.255560
  0
VERTEX
  8
0
  6
CONTINUOUS
 10
6.709560
 20
3.260840
  0
SEQEND
  8
0
  0
POLYLINE
  8
0
  6
CONTINUOUS
 66
     1
 40
0.000000
 41
0.000000
  0
VERTEX
  8
0
  6
CONTINUOUS
 10
6.510240
 20
7.424120
  0
VERTEX
  8
0
  6
CONTINUOUS
 10
6.510240
 20
7.350200
  0
VERTEX
  8
0
  6
CONTINUOUS
 10
6.507160
 20
7.316760
  0
VERTEX
  8
0
  6
CONTINUOUS
 10
6.499240
 20
7.287280
  0
VERTEX
  8
0
  6
CONTINUOUS
 10
6.486920
 20
7.261760
  0
VERTEX
  8
0
  6
CONTINUOUS
 10
6.471520
 20
7.240640
  0
VERTEX
  8
0
  6
CONTINUOUS
 10
6.453040
 20
7.223480
  0
VERTEX
  8
0
  6
CONTINUOUS
 10
6.432360
 20
7.210720
  0
VERTEX
  8
0
  6
CONTINUOUS
 10
6.409920
 20
7.202800
  0
VERTEX
  8
0
  6
CONTINUOUS
 10
6.387040
 20
7.198840
  0
VERTEX
  8
0
  6
CONTINUOUS
 10
6.364160
 20
7.199720
  0
VERTEX
  8
0
  6
CONTINUOUS
 10
6.341280
 20
7.205440
  0
VERTEX
  8
0
  6
CONTINUOUS
 10
6.319720
 20
7.215560
  0
VERTEX
  8
0
  6
CONTINUOUS
 10
6.299920
 20
7.230960
  0
VERTEX
  8
0
  6
CONTINUOUS
 10
6.282320
 20
7.250760
  0
VERTEX
  8
0
  6
CONTINUOUS
 10
6.268240
 20
7.275840
  0
VERTEX
  8
0
  6
CONTINUOUS
 10
6.257680
 20
7.306200
  0
VERTEX
  8
0
  6
CONTINUOUS
 10
6.251520
 20
7.341400
  0
VERTEX
  8
0
  6
CONTINUOUS
 10
6.225560
 20
7.341400
  0
VERTEX
  8
0
  6
CONTINUOUS
 10
6.079040
 20
7.174640
  0
VERTEX
  8
0
  6
CONTINUOUS
 10
1.344200
 20
7.174640
  0
VERTEX
  8
0
  6
CONTINUOUS
 10
1.208680
 20
7.336560
  0
VERTEX
  8
0
  6
CONTINUOUS
 10
1.208680
 20
7.406520
  0
VERTEX
  8
0
  6
CONTINUOUS
 10
1.208680
 20
7.405640
  0
VERTEX
  8
0
  6
CONTINUOUS
 10
1.208680
 20
7.424560
  0
VERTEX
  8
0
  6
CONTINUOUS
 10
1.460360
 20
7.424560
  0
VERTEX
  8
0
  6
CONTINUOUS
 10
1.460360
 20
7.674480
  0
VERTEX
  8
0
  6
CONTINUOUS
 10
1.208680
 20
7.674480
  0
VERTEX
  8
0
  6
CONTINUOUS
 10
1.208680
 20
7.761160
  0
VERTEX
  8
0
  6
CONTINUOUS
 10
1.344200
 20
7.922640
  0
VERTEX
  8
0
  6
CONTINUOUS
 10
6.079040
 20
7.922640
  0
VERTEX
  8
0
  6
CONTINUOUS
 10
6.225560
 20
7.755880
  0
VERTEX
  8
0
  6
CONTINUOUS
 10
6.251520
 20
7.755880
  0
VERTEX
  8
0
  6
CONTINUOUS
 10
6.257680
 20
7.791080
  0
VERTEX
  8
0
  6
CONTINUOUS
 10
6.268240
 20
7.821440
  0
VERTEX
  8
0
  6
CONTINUOUS
 10
6.282320
 20
7.846520
  0
VERTEX
  8
0
  6
CONTINUOUS
 10
6.299920
 20
7.866760
  0
VERTEX
  8
0
  6
CONTINUOUS
 10
6.319720
 20
7.881720
  0
VERTEX
  8
0
  6
CONTINUOUS
 10
6.341280
 20
7.892280
  0
VERTEX
  8
0
  6
CONTINUOUS
 10
6.364160
 20
7.897560
  0
VERTEX
  8
0
  6
CONTINUOUS
 10
6.375600
 20
7.898880
  0
VERTEX
  8
0
  6
CONTINUOUS
 10
6.398920
 20
7.897120
  0
VERTEX
  8
0
  6
CONTINUOUS
 10
6.421360
 20
7.891400
  0
VERTEX
  8
0
  6
CONTINUOUS
 10
6.442920
 20
7.880840
  0
VERTEX
  8
0
  6
CONTINUOUS
 10
6.462280
 20
7.866320
  0
VERTEX
  8
0
  6
CONTINUOUS
 10
6.479440
 20
7.846960
  0
VERTEX
  8
0
  6
CONTINUOUS
 10
6.493520
 20
7.823640
  0
VERTEX
  8
0
  6
CONTINUOUS
 10
6.503640
 20
7.796360
  0
VERTEX
  8
0
  6
CONTINUOUS
 10
6.509360
 20
7.764680
  0
VERTEX
  8
0
  6
CONTINUOUS
 10
6.510240
 20
7.711440
  0
VERTEX
  8
0
  6
CONTINUOUS
 10
6.510240
 20
7.673600
  0
VERTEX
  8
0
  6
CONTINUOUS
 10
6.759280
 20
7.673600
  0
VERTEX
  8
0
  6
CONTINUOUS
 10
6.759280
 20
7.423680
  0
VERTEX
  8
0
  6
CONTINUOUS
 10
6.509360
 20
7.423680
  0
VERTEX
  8
0
  6
CONTINUOUS
 10
6.510240
 20
7.424120
  0
SEQEND
  8
0
  0
SOLID
  8
0
 62
    15
 10
6.358000
 20
6.285400
 11
6.361080
 21
7.031200
 12
6.380880
 22
6.290680
 13
6.383960
 23
7.036920
  0
POLYLINE
  8
0
  6
CONTINUOUS
 66
     1
 40
0.000000
 41
0.000000
  0
VERTEX
  8
0
  6
CONTINUOUS
 10
6.358000
 20
6.285400
  0
VERTEX
  8
0
  6
CONTINUOUS
 10
6.361080
 20
7.031200
  0
VERTEX
  8
0
  6
CONTINUOUS
 10
6.383960
 20
7.036920
  0
VERTEX
  8
0
  6
CONTINUOUS
 10
6.380880
 20
6.290680
  0
VERTEX
  8
0
  6
CONTINUOUS
 10
6.358000
 20
6.285400
  0
SEQEND
  8
0
  0
SOLID
  8
0
 62
    15
 10
6.526960
 20
5.743320
 11
6.530040
 21
6.489120
 12
6.527400
 22
5.743320
 13
6.530480
 23
6.489120
  0
POLYLINE
  8
0
  6
CONTINUOUS
 66
     1
 40
0.000000
 41
0.000000
  0
VERTEX
  8
0
  6
CONTINUOUS
 10
6.526960
 20
5.743320
  0
VERTEX
  8
0
  6
CONTINUOUS
 10
6.530040
 20
6.489120
  0
VERTEX
  8
0
  6
CONTINUOUS
 10
6.530480
 20
6.489120
  0
VERTEX
  8
0
  6
CONTINUOUS
 10
6.527400
 20
5.743320
  0
VERTEX
  8
0
  6
CONTINUOUS
 10
6.526960
 20
5.743320
  0
SEQEND
  8
0
  0
SOLID
  8
0
 62
    15
 10
1.225400
 20
5.817680
 11
1.228920
 21
6.563480
 12
1.477080
 22
5.817680
 13
1.480160
 23
6.563480
  0
POLYLINE
  8
0
  6
CONTINUOUS
 66
     1
 40
0.000000
 41
0.000000
  0
VERTEX
  8
0
  6
CONTINUOUS
 10
1.225400
 20
5.817680
  0
VERTEX
  8
0
  6
CONTINUOUS
 10
1.228920
 20
6.563480
  0
VERTEX
  8
0
  6
CONTINUOUS
 10
1.480160
 20
6.563480
  0
VERTEX
  8
0
  6
CONTINUOUS
 10
1.477080
 20
5.817680
  0
VERTEX
  8
0
  6
CONTINUOUS
 10
1.225400
 20
5.817680
  0
SEQEND
  8
0
  0
SOLID
  8
0
 62
    15
 10
1.225840
 20
6.154280
 11
1.228920
 21
6.900080
 12
1.361360
 22
6.315760
 13
1.364440
 23
7.061560
  0
POLYLINE
  8
0
  6
CONTINUOUS
 66
     1
 40
0.000000
 41
0.000000
  0
VERTEX
  8
0
  6
CONTINUOUS
 10
1.225840
 20
6.154280
  0
VERTEX
  8
0
  6
CONTINUOUS
 10
1.228920
 20
6.900080
  0
VERTEX
  8
0
  6
CONTINUOUS
 10
1.364440
 20
7.061560
  0
VERTEX
  8
0
  6
CONTINUOUS
 10
1.361360
 20
6.315760
  0
VERTEX
  8
0
  6
CONTINUOUS
 10
1.225840
 20
6.154280
  0
SEQEND
  8
0
  0
SOLID
  8
0
 62
    15
 10
1.361360
 20
6.315760
 11
1.364440
 21
7.061560
 12
6.096200
 22
6.315760
 13
6.099280
 23
7.061560
  0
POLYLINE
  8
0
  6
CONTINUOUS
 66
     1
 40
0.000000
 41
0.000000
  0
VERTEX
  8
0
  6
CONTINUOUS
 10
1.361360
 20
6.315760
  0
VERTEX
  8
0
  6
CONTINUOUS
 10
1.364440
 20
7.061560
  0
VERTEX
  8
0
  6
CONTINUOUS
 10
6.099280
 20
7.061560
  0
VERTEX
  8
0
  6
CONTINUOUS
 10
6.096200
 20
6.315760
  0
VERTEX
  8
0
  6
CONTINUOUS
 10
1.361360
 20
6.315760
  0
SEQEND
  8
0
  0
SOLID
  8
0
 62
    15
 10
6.096200
 20
6.315760
 11
6.099280
 21
7.061560
 12
6.242720
 22
6.149000
 13
6.245800
 23
6.894800
  0
POLYLINE
  8
0
  6
CONTINUOUS
 66
     1
 40
0.000000
 41
0.000000
  0
VERTEX
  8
0
  6
CONTINUOUS
 10
6.096200
 20
6.315760
  0
VERTEX
  8
0
  6
CONTINUOUS
 10
6.099280
 20
7.061560
  0
VERTEX
  8
0
  6
CONTINUOUS
 10
6.245800
 20
6.894800
  0
VERTEX
  8
0
  6
CONTINUOUS
 10
6.242720
 20
6.149000
  0
VERTEX
  8
0
  6
CONTINUOUS
 10
6.096200
 20
6.315760
  0
SEQEND
  8
0
  0
SOLID
  8
0
 62
    15
 10
6.242720
 20
6.149000
 11
6.245800
 21
6.894800
 12
6.268680
 22
6.149000
 13
6.271760
 23
6.894800
  0
POLYLINE
  8
0
  6
CONTINUOUS
 66
     1
 40
0.000000
 41
0.000000
  0
VERTEX
  8
0
  6
CONTINUOUS
 10
6.242720
 20
6.149000
  0
VERTEX
  8
0
  6
CONTINUOUS
 10
6.245800
 20
6.894800
  0
VERTEX
  8
0
  6
CONTINUOUS
 10
6.271760
 20
6.894800
  0
VERTEX
  8
0
  6
CONTINUOUS
 10
6.268680
 20
6.149000
  0
VERTEX
  8
0
  6
CONTINUOUS
 10
6.242720
 20
6.149000
  0
SEQEND
  8
0
  0
SOLID
  8
0
 62
    15
 10
6.268680
 20
6.149000
 11
6.271760
 21
6.894800
 12
6.274400
 22
6.184200
 13
6.277920
 23
6.930440
  0
POLYLINE
  8
0
  6
CONTINUOUS
 66
     1
 40
0.000000
 41
0.000000
  0
VERTEX
  8
0
  6
CONTINUOUS
 10
6.268680
 20
6.149000
  0
VERTEX
  8
0
  6
CONTINUOUS
 10
6.271760
 20
6.894800
  0
VERTEX
  8
0
  6
CONTINUOUS
 10
6.277920
 20
6.930440
  0
VERTEX
  8
0
  6
CONTINUOUS
 10
6.274400
 20
6.184200
  0
VERTEX
  8
0
  6
CONTINUOUS
 10
6.268680
 20
6.149000
  0
SEQEND
  8
0
  0
SOLID
  8
0
 62
    15
 10
6.274400
 20
6.184200
 11
6.277920
 21
6.930440
 12
6.284960
 22
6.214560
 13
6.288480
 23
6.960360
  0
POLYLINE
  8
0
  6
CONTINUOUS
 66
     1
 40
0.000000
 41
0.000000
  0
VERTEX
  8
0
  6
CONTINUOUS
 10
6.274400
 20
6.184200
  0
VERTEX
  8
0
  6
CONTINUOUS
 10
6.277920
 20
6.930440
  0
VERTEX
  8
0
  6
CONTINUOUS
 10
6.288480
 20
6.960360
  0
VERTEX
  8
0
  6
CONTINUOUS
 10
6.284960
 20
6.214560
  0
VERTEX
  8
0
  6
CONTINUOUS
 10
6.274400
 20
6.184200
  0
SEQEND
  8
0
  0
SOLID
  8
0
 62
    15
 10
6.284960
 20
6.214560
 11
6.288480
 21
6.960360
 12
6.299480
 22
6.239640
 13
6.302560
 23
6.985440
  0
POLYLINE
  8
0
  6
CONTINUOUS
 66
     1
 40
0.000000
 41
0.000000
  0
VERTEX
  8
0
  6
CONTINUOUS
 10
6.284960
 20
6.214560
  0
VERTEX
  8
0
  6
CONTINUOUS
 10
6.288480
 20
6.960360
  0
VERTEX
  8
0
  6
CONTINUOUS
 10
6.302560
 20
6.985440
  0
VERTEX
  8
0
  6
CONTINUOUS
 10
6.299480
 20
6.239640
  0
VERTEX
  8
0
  6
CONTINUOUS
 10
6.284960
 20
6.214560
  0
SEQEND
  8
0
  0
SOLID
  8
0
 62
    15
 10
6.299480
 20
6.239640
 11
6.302560
 21
6.985440
 12
6.316640
 22
6.259880
 13
6.319720
 23
7.005680
  0
POLYLINE
  8
0
  6
CONTINUOUS
 66
     1
 40
0.000000
 41
0.000000
  0
VERTEX
  8
0
  6
CONTINUOUS
 10
6.299480
 20
6.239640
  0
VERTEX
  8
0
  6
CONTINUOUS
 10
6.302560
 20
6.985440
  0
VERTEX
  8
0
  6
CONTINUOUS
 10
6.319720
 20
7.005680
  0
VERTEX
  8
0
  6
CONTINUOUS
 10
6.316640
 20
6.259880
  0
VERTEX
  8
0
  6
CONTINUOUS
 10
6.299480
 20
6.239640
  0
SEQEND
  8
0
  0
SOLID
  8
0
 62
    15
 10
6.316640
 20
6.259880
 11
6.319720
 21
7.005680
 12
6.336440
 22
6.274840
 13
6.339520
 23
7.021080
  0
POLYLINE
  8
0
  6
CONTINUOUS
 66
     1
 40
0.000000
 41
0.000000
  0
VERTEX
  8
0
  6
CONTINUOUS
 10
6.316640
 20
6.259880
  0
VERTEX
  8
0
  6
CONTINUOUS
 10
6.319720
 20
7.005680
  0
VERTEX
  8
0
  6
CONTINUOUS
 10
6.339520
 20
7.021080
  0
VERTEX
  8
0
  6
CONTINUOUS
 10
6.336440
 20
6.274840
  0
VERTEX
  8
0
  6
CONTINUOUS
 10
6.316640
 20
6.259880
  0
SEQEND
  8
0
  0
SOLID
  8
0
 62
    15
 10
6.336440
 20
6.274840
 11
6.339520
 21
7.021080
 12
6.358000
 22
6.285400
 13
6.361080
 23
7.031200
  0
POLYLINE
  8
0
  6
CONTINUOUS
 66
     1
 40
0.000000
 41
0.000000
  0
VERTEX
  8
0
  6
CONTINUOUS
 10
6.336440
 20
6.274840
  0
VERTEX
  8
0
  6
CONTINUOUS
 10
6.339520
 20
7.021080
  0
VERTEX
  8
0
  6
CONTINUOUS
 10
6.361080
 20
7.031200
  0
VERTEX
  8
0
  6
CONTINUOUS
 10
6.358000
 20
6.285400
  0
VERTEX
  8
0
  6
CONTINUOUS
 10
6.336440
 20
6.274840
  0
SEQEND
  8
0
  0
SOLID
  8
0
 62
    15
 10
6.526960
 20
5.817240
 11
6.530040
 21
6.563040
 12
6.526960
 22
5.743320
 13
6.530040
 23
6.489120
  0
POLYLINE
  8
0
  6
CONTINUOUS
 66
     1
 40
0.000000
 41
0.000000
  0
VERTEX
  8
0
  6
CONTINUOUS
 10
6.526960
 20
5.817240
  0
VERTEX
  8
0
  6
CONTINUOUS
 10
6.530040
 20
6.563040
  0
VERTEX
  8
0
  6
CONTINUOUS
 10
6.530040
 20
6.489120
  0
VERTEX
  8
0
  6
CONTINUOUS
 10
6.526960
 20
5.743320
  0
VERTEX
  8
0
  6
CONTINUOUS
 10
6.526960
 20
5.817240
  0
SEQEND
  8
0
  0
SOLID
  8
0
 62
    15
 10
6.380880
 20
6.290680
 11
6.383960
 21
7.036920
 12
6.404200
 22
6.291560
 13
6.407280
 23
7.037800
  0
POLYLINE
  8
0
  6
CONTINUOUS
 66
     1
 40
0.000000
 41
0.000000
  0
VERTEX
  8
0
  6
CONTINUOUS
 10
6.380880
 20
6.290680
  0
VERTEX
  8
0
  6
CONTINUOUS
 10
6.383960
 20
7.036920
  0
VERTEX
  8
0
  6
CONTINUOUS
 10
6.407280
 20
7.037800
  0
VERTEX
  8
0
  6
CONTINUOUS
 10
6.404200
 20
6.291560
  0
VERTEX
  8
0
  6
CONTINUOUS
 10
6.380880
 20
6.290680
  0
SEQEND
  8
0
  0
SOLID
  8
0
 62
    15
 10
6.404200
 20
6.291560
 11
6.407280
 21
7.037800
 12
6.427080
 22
6.288040
 13
6.430160
 23
7.033840
  0
POLYLINE
  8
0
  6
CONTINUOUS
 66
     1
 40
0.000000
 41
0.000000
  0
VERTEX
  8
0
  6
CONTINUOUS
 10
6.404200
 20
6.291560
  0
VERTEX
  8
0
  6
CONTINUOUS
 10
6.407280
 20
7.037800
  0
VERTEX
  8
0
  6
CONTINUOUS
 10
6.430160
 20
7.033840
  0
VERTEX
  8
0
  6
CONTINUOUS
 10
6.427080
 20
6.288040
  0
VERTEX
  8
0
  6
CONTINUOUS
 10
6.404200
 20
6.291560
  0
SEQEND
  8
0
  0
SOLID
  8
0
 62
    15
 10
6.427080
 20
6.288040
 11
6.430160
 21
7.033840
 12
6.449080
 22
6.279680
 13
6.452160
 23
7.025920
  0
POLYLINE
  8
0
  6
CONTINUOUS
 66
     1
 40
0.000000
 41
0.000000
  0
VERTEX
  8
0
  6
CONTINUOUS
 10
6.427080
 20
6.288040
  0
VERTEX
  8
0
  6
CONTINUOUS
 10
6.430160
 20
7.033840
  0
VERTEX
  8
0
  6
CONTINUOUS
 10
6.452160
 20
7.025920
  0
VERTEX
  8
0
  6
CONTINUOUS
 10
6.449080
 20
6.279680
  0
VERTEX
  8
0
  6
CONTINUOUS
 10
6.427080
 20
6.288040
  0
SEQEND
  8
0
  0
SOLID
  8
0
 62
    15
 10
6.449080
 20
6.279680
 11
6.452160
 21
7.025920
 12
6.469760
 22
6.267360
 13
6.472840
 23
7.013160
  0
POLYLINE
  8
0
  6
CONTINUOUS
 66
     1
 40
0.000000
 41
0.000000
  0
VERTEX
  8
0
  6
CONTINUOUS
 10
6.449080
 20
6.279680
  0
VERTEX
  8
0
  6
CONTINUOUS
 10
6.452160
 20
7.025920
  0
VERTEX
  8
0
  6
CONTINUOUS
 10
6.472840
 20
7.013160
  0
VERTEX
  8
0
  6
CONTINUOUS
 10
6.469760
 20
6.267360
  0
VERTEX
  8
0
  6
CONTINUOUS
 10
6.449080
 20
6.279680
  0
SEQEND
  8
0
  0
SOLID
  8
0
 62
    15
 10
6.469760
 20
6.267360
 11
6.472840
 21
7.013160
 12
6.488240
 22
6.250200
 13
6.491320
 23
6.996000
  0
POLYLINE
  8
0
  6
CONTINUOUS
 66
     1
 40
0.000000
 41
0.000000
  0
VERTEX
  8
0
  6
CONTINUOUS
 10
6.469760
 20
6.267360
  0
VERTEX
  8
0
  6
CONTINUOUS
 10
6.472840
 20
7.013160
  0
VERTEX
  8
0
  6
CONTINUOUS
 10
6.491320
 20
6.996000
  0
VERTEX
  8
0
  6
CONTINUOUS
 10
6.488240
 20
6.250200
  0
VERTEX
  8
0
  6
CONTINUOUS
 10
6.469760
 20
6.267360
  0
SEQEND
  8
0
  0
SOLID
  8
0
 62
    15
 10
6.503640
 20
6.229080
 11
6.506720
 21
6.974880
 12
6.515960
 22
6.203560
 13
6.519040
 23
6.949360
  0
POLYLINE
  8
0
  6
CONTINUOUS
 66
     1
 40
0.000000
 41
0.000000
  0
VERTEX
  8
0
  6
CONTINUOUS
 10
6.503640
 20
6.229080
  0
VERTEX
  8
0
  6
CONTINUOUS
 10
6.506720
 20
6.974880
  0
VERTEX
  8
0
  6
CONTINUOUS
 10
6.519040
 20
6.949360
  0
VERTEX
  8
0
  6
CONTINUOUS
 10
6.515960
 20
6.203560
  0
VERTEX
  8
0
  6
CONTINUOUS
 10
6.503640
 20
6.229080
  0
SEQEND
  8
0
  0
SOLID
  8
0
 62
    15
 10
6.488240
 20
6.250200
 11
6.491320
 21
6.996000
 12
6.503640
 22
6.229080
 13
6.506720
 23
6.974880
  0
POLYLINE
  8
0
  6
CONTINUOUS
 66
     1
 40
0.000000
 41
0.000000
  0
VERTEX
  8
0
  6
CONTINUOUS
 10
6.488240
 20
6.250200
  0
VERTEX
  8
0
  6
CONTINUOUS
 10
6.491320
 20
6.996000
  0
VERTEX
  8
0
  6
CONTINUOUS
 10
6.506720
 20
6.974880
  0
VERTEX
  8
0
  6
CONTINUOUS
 10
6.503640
 20
6.229080
  0
VERTEX
  8
0
  6
CONTINUOUS
 10
6.488240
 20
6.250200
  0
SEQEND
  8
0
  0
SOLID
  8
0
 62
    15
 10
6.515960
 20
6.203560
 11
6.519040
 21
6.949360
 12
6.523880
 22
6.174080
 13
6.526960
 23
6.919880
  0
POLYLINE
  8
0
  6
CONTINUOUS
 66
     1
 40
0.000000
 41
0.000000
  0
VERTEX
  8
0
  6
CONTINUOUS
 10
6.515960
 20
6.203560
  0
VERTEX
  8
0
  6
CONTINUOUS
 10
6.519040
 20
6.949360
  0
VERTEX
  8
0
  6
CONTINUOUS
 10
6.526960
 20
6.919880
  0
VERTEX
  8
0
  6
CONTINUOUS
 10
6.523880
 20
6.174080
  0
VERTEX
  8
0
  6
CONTINUOUS
 10
6.515960
 20
6.203560
  0
SEQEND
  8
0
  0
SOLID
  8
0
 62
    15
 10
6.776000
 20
6.066720
 11
6.779080
 21
6.812960
 12
6.776000
 22
5.816800
 13
6.779080
 23
6.563040
  0
POLYLINE
  8
0
  6
CONTINUOUS
 66
     1
 40
0.000000
 41
0.000000
  0
VERTEX
  8
0
  6
CONTINUOUS
 10
6.776000
 20
6.066720
  0
VERTEX
  8
0
  6
CONTINUOUS
 10
6.779080
 20
6.812960
  0
VERTEX
  8
0
  6
CONTINUOUS
 10
6.779080
 20
6.563040
  0
VERTEX
  8
0
  6
CONTINUOUS
 10
6.776000
 20
5.816800
  0
VERTEX
  8
0
  6
CONTINUOUS
 10
6.776000
 20
6.066720
  0
SEQEND
  8
0
  0
SOLID
  8
0
 62
    15
 10
6.526080
 20
5.816800
 11
6.529160
 21
6.563040
 12
6.526960
 22
5.817240
 13
6.530040
 23
6.563040
  0
POLYLINE
  8
0
  6
CONTINUOUS
 66
     1
 40
0.000000
 41
0.000000
  0
VERTEX
  8
0
  6
CONTINUOUS
 10
6.526080
 20
5.816800
  0
VERTEX
  8
0
  6
CONTINUOUS
 10
6.529160
 20
6.563040
  0
VERTEX
  8
0
  6
CONTINUOUS
 10
6.530040
 20
6.563040
  0
VERTEX
  8
0
  6
CONTINUOUS
 10
6.526960
 20
5.817240
  0
VERTEX
  8
0
  6
CONTINUOUS
 10
6.526080
 20
5.816800
  0
SEQEND
  8
0
  0
SOLID
  8
0
 62
    15
 10
6.526960
 20
6.066720
 11
6.530040
 21
6.812960
 12
6.776000
 22
6.066720
 13
6.779080
 23
6.812960
  0
POLYLINE
  8
0
  6
CONTINUOUS
 66
     1
 40
0.000000
 41
0.000000
  0
VERTEX
  8
0
  6
CONTINUOUS
 10
6.526960
 20
6.066720
  0
VERTEX
  8
0
  6
CONTINUOUS
 10
6.530040
 20
6.812960
  0
VERTEX
  8
0
  6
CONTINUOUS
 10
6.779080
 20
6.812960
  0
VERTEX
  8
0
  6
CONTINUOUS
 10
6.776000
 20
6.066720
  0
VERTEX
  8
0
  6
CONTINUOUS
 10
6.526960
 20
6.066720
  0
SEQEND
  8
0
  0
SOLID
  8
0
 62
    15
 10
6.523880
 20
6.174080
 11
6.526960
 21
6.919880
 12
6.527400
 22
6.140200
 13
6.530480
 23
6.886440
  0
POLYLINE
  8
0
  6
CONTINUOUS
 66
     1
 40
0.000000
 41
0.000000
  0
VERTEX
  8
0
  6
CONTINUOUS
 10
6.523880
 20
6.174080
  0
VERTEX
  8
0
  6
CONTINUOUS
 10
6.526960
 20
6.919880
  0
VERTEX
  8
0
  6
CONTINUOUS
 10
6.530480
 20
6.886440
  0
VERTEX
  8
0
  6
CONTINUOUS
 10
6.527400
 20
6.140200
  0
VERTEX
  8
0
  6
CONTINUOUS
 10
6.523880
 20
6.174080
  0
SEQEND
  8
0
  0
SOLID
  8
0
 62
    15
 10
6.526960
 20
6.140200
 11
6.530040
 21
6.886440
 12
6.526960
 22
6.067160
 13
6.530040
 23
6.812960
  0
POLYLINE
  8
0
  6
CONTINUOUS
 66
     1
 40
0.000000
 41
0.000000
  0
VERTEX
  8
0
  6
CONTINUOUS
 10
6.526960
 20
6.140200
  0
VERTEX
  8
0
  6
CONTINUOUS
 10
6.530040
 20
6.886440
  0
VERTEX
  8
0
  6
CONTINUOUS
 10
6.530040
 20
6.812960
  0
VERTEX
  8
0
  6
CONTINUOUS
 10
6.526960
 20
6.067160
  0
VERTEX
  8
0
  6
CONTINUOUS
 10
6.526960
 20
6.140200
  0
SEQEND
  8
0
  0
POLYLINE
  8
0
  6
CONTINUOUS
 66
     1
 40
0.000000
 41
0.000000
  0
VERTEX
  8
0
  6
CONTINUOUS
 10
6.526960
 20
5.817240
  0
VERTEX
  8
0
  6
CONTINUOUS
 10
6.527400
 20
5.743320
  0
VERTEX
  8
0
  6
CONTINUOUS
 10
6.523880
 20
5.709880
  0
VERTEX
  8
0
  6
CONTINUOUS
 10
6.515960
 20
5.680400
  0
VERTEX
  8
0
  6
CONTINUOUS
 10
6.503640
 20
5.654880
  0
VERTEX
  8
0
  6
CONTINUOUS
 10
6.488240
 20
5.633760
  0
VERTEX
  8
0
  6
CONTINUOUS
 10
6.469760
 20
5.616600
  0
VERTEX
  8
0
  6
CONTINUOUS
 10
6.449080
 20
5.603840
  0
VERTEX
  8
0
  6
CONTINUOUS
 10
6.427080
 20
5.595920
  0
VERTEX
  8
0
  6
CONTINUOUS
 10
6.404200
 20
5.591960
  0
VERTEX
  8
0
  6
CONTINUOUS
 10
6.380880
 20
5.592840
  0
VERTEX
  8
0
  6
CONTINUOUS
 10
6.358000
 20
5.598560
  0
VERTEX
  8
0
  6
CONTINUOUS
 10
6.336440
 20
5.609120
  0
VERTEX
  8
0
  6
CONTINUOUS
 10
6.316640
 20
5.624080
  0
VERTEX
  8
0
  6
CONTINUOUS
 10
6.299480
 20
5.644320
  0
VERTEX
  8
0
  6
CONTINUOUS
 10
6.284960
 20
5.669400
  0
VERTEX
  8
0
  6
CONTINUOUS
 10
6.274400
 20
5.699320
  0
VERTEX
  8
0
  6
CONTINUOUS
 10
6.268680
 20
5.734520
  0
VERTEX
  8
0
  6
CONTINUOUS
 10
6.242720
 20
5.734520
  0
VERTEX
  8
0
  6
CONTINUOUS
 10
6.096200
 20
5.567760
  0
VERTEX
  8
0
  6
CONTINUOUS
 10
1.361360
 20
5.567760
  0
VERTEX
  8
0
  6
CONTINUOUS
 10
1.225840
 20
5.729680
  0
VERTEX
  8
0
  6
CONTINUOUS
 10
1.225400
 20
5.817680
  0
VERTEX
  8
0
  6
CONTINUOUS
 10
1.477080
 20
5.817680
  0
VERTEX
  8
0
  6
CONTINUOUS
 10
1.477080
 20
6.067600
  0
VERTEX
  8
0
  6
CONTINUOUS
 10
1.225840
 20
6.067600
  0
VERTEX
  8
0
  6
CONTINUOUS
 10
1.225840
 20
6.154280
  0
VERTEX
  8
0
  6
CONTINUOUS
 10
1.361360
 20
6.315760
  0
VERTEX
  8
0
  6
CONTINUOUS
 10
6.096200
 20
6.315760
  0
VERTEX
  8
0
  6
CONTINUOUS
 10
6.242720
 20
6.149000
  0
VERTEX
  8
0
  6
CONTINUOUS
 10
6.268680
 20
6.149000
  0
VERTEX
  8
0
  6
CONTINUOUS
 10
6.274400
 20
6.184200
  0
VERTEX
  8
0
  6
CONTINUOUS
 10
6.284960
 20
6.214560
  0
VERTEX
  8
0
  6
CONTINUOUS
 10
6.299480
 20
6.239640
  0
VERTEX
  8
0
  6
CONTINUOUS
 10
6.316640
 20
6.259880
  0
VERTEX
  8
0
  6
CONTINUOUS
 10
6.336440
 20
6.274840
  0
VERTEX
  8
0
  6
CONTINUOUS
 10
6.358000
 20
6.285400
  0
VERTEX
  8
0
  6
CONTINUOUS
 10
6.380880
 20
6.290680
  0
VERTEX
  8
0
  6
CONTINUOUS
 10
6.404200
 20
6.291560
  0
VERTEX
  8
0
  6
CONTINUOUS
 10
6.427080
 20
6.288040
  0
VERTEX
  8
0
  6
CONTINUOUS
 10
6.449080
 20
6.279680
  0
VERTEX
  8
0
  6
CONTINUOUS
 10
6.469760
 20
6.267360
  0
VERTEX
  8
0
  6
CONTINUOUS
 10
6.488240
 20
6.250200
  0
VERTEX
  8
0
  6
CONTINUOUS
 10
6.503640
 20
6.229080
  0
VERTEX
  8
0
  6
CONTINUOUS
 10
6.515960
 20
6.203560
  0
VERTEX
  8
0
  6
CONTINUOUS
 10
6.523880
 20
6.174080
  0
VERTEX
  8
0
  6
CONTINUOUS
 10
6.527400
 20
6.140200
  0
VERTEX
  8
0
  6
CONTINUOUS
 10
6.526960
 20
6.140200
  0
VERTEX
  8
0
  6
CONTINUOUS
 10
6.526960
 20
6.066720
  0
VERTEX
  8
0
  6
CONTINUOUS
 10
6.776000
 20
6.066720
  0
VERTEX
  8
0
  6
CONTINUOUS
 10
6.776000
 20
5.816800
  0
VERTEX
  8
0
  6
CONTINUOUS
 10
6.526080
 20
5.816800
  0
VERTEX
  8
0
  6
CONTINUOUS
 10
6.526960
 20
5.817240
  0
SEQEND
  8
0
  0
TEXT
  8
0
 10
3.472040
 20
5.303760
 40
0.138147
  1
BA  1198A - D
 41
1.000000
  7
SN0
 71
     0
 72
     5
 11
4.533237
 21
5.303760
  0
TEXT
  8
0
 10
3.551680
 20
5.111920
 40
0.138147
  1
3/4" x 5-1/2"
 41
1.000000
  7
SN0
 71
     0
 72
     5
 11
4.454558
 21
5.111920
  0
TEXT
  8
0
 10
3.660360
 20
7.482640
 40
0.138147
  1
BA  1198
 41
1.000000
  7
SN0
 71
     0
 72
     5
 11
4.343646
 21
7.482640
  0
TEXT
  8
0
 10
3.361600
 20
7.290800
 40
0.138147
  1
3/4" x 5-1/2"A - D
 41
1.000000
  7
SN0
 71
     0
 72
     5
 11
4.642389
 21
7.290800
  0
POLYLINE
  8
0
  6
CONTINUOUS
 66
     1
 40
0.000000
 41
0.000000
  0
VERTEX
  8
0
  6
CONTINUOUS
 10
6.685800
 20
2.055240
  0
VERTEX
  8
0
  6
CONTINUOUS
 10
6.686240
 20
1.971640
  0
VERTEX
  8
0
  6
CONTINUOUS
 10
6.683160
 20
1.938200
  0
VERTEX
  8
0
  6
CONTINUOUS
 10
6.679640
 20
1.922800
  0
VERTEX
  8
0
  6
CONTINUOUS
 10
6.669080
 20
1.895520
  0
VERTEX
  8
0
  6
CONTINUOUS
 10
6.662920
 20
1.883200
  0
VERTEX
  8
0
  6
CONTINUOUS
 10
6.647080
 20
1.862080
  0
VERTEX
  8
0
  6
CONTINUOUS
 10
6.628600
 20
1.844920
  0
VERTEX
  8
0
  6
CONTINUOUS
 10
6.607920
 20
1.832600
  0
VERTEX
  8
0
  6
CONTINUOUS
 10
6.585920
 20
1.824240
  0
VERTEX
  8
0
  6
CONTINUOUS
 10
6.562600
 20
1.820720
  0
VERTEX
  8
0
  6
CONTINUOUS
 10
6.551160
 20
1.820280
  0
VERTEX
  8
0
  6
CONTINUOUS
 10
6.528280
 20
1.823800
  0
VERTEX
  8
0
  6
CONTINUOUS
 10
6.516840
 20
1.826880
  0
VERTEX
  8
0
  6
CONTINUOUS
 10
6.495280
 20
1.837440
  0
VERTEX
  8
0
  6
CONTINUOUS
 10
6.475480
 20
1.852400
  0
VERTEX
  8
0
  6
CONTINUOUS
 10
6.457880
 20
1.872640
  0
VERTEX
  8
0
  6
CONTINUOUS
 10
6.443800
 20
1.897720
  0
VERTEX
  8
0
  6
CONTINUOUS
 10
6.433240
 20
1.928080
  0
VERTEX
  8
0
  6
CONTINUOUS
 10
6.427080
 20
1.963280
  0
VERTEX
  8
0
  6
CONTINUOUS
 10
6.401560
 20
1.963280
  0
VERTEX
  8
0
  6
CONTINUOUS
 10
6.254600
 20
1.796520
  0
VERTEX
  8
0
  6
CONTINUOUS
 10
1.520200
 20
1.796520
  0
VERTEX
  8
0
  6
CONTINUOUS
 10
1.384240
 20
1.958000
  0
VERTEX
  8
0
  6
CONTINUOUS
 10
1.384240
 20
2.111120
  0
VERTEX
  8
0
  6
CONTINUOUS
 10
1.636360
 20
2.111120
  0
VERTEX
  8
0
  6
CONTINUOUS
 10
1.636360
 20
2.358840
  0
VERTEX
  8
0
  6
CONTINUOUS
 10
1.384240
 20
2.358840
  0
VERTEX
  8
0
  6
CONTINUOUS
 10
1.384240
 20
2.510640
  0
VERTEX
  8
0
  6
CONTINUOUS
 10
1.520200
 20
2.672120
  0
VERTEX
  8
0
  6
CONTINUOUS
 10
6.254600
 20
2.672120
  0
VERTEX
  8
0
  6
CONTINUOUS
 10
6.401560
 20
2.505360
  0
VERTEX
  8
0
  6
CONTINUOUS
 10
6.427080
 20
2.505360
  0
VERTEX
  8
0
  6
CONTINUOUS
 10
6.433240
 20
2.540560
  0
VERTEX
  8
0
  6
CONTINUOUS
 10
6.443800
 20
2.570920
  0
VERTEX
  8
0
  6
CONTINUOUS
 10
6.457880
 20
2.596000
  0
VERTEX
  8
0
  6
CONTINUOUS
 10
6.475480
 20
2.616240
  0
VERTEX
  8
0
  6
CONTINUOUS
 10
6.495280
 20
2.631200
  0
VERTEX
  8
0
  6
CONTINUOUS
 10
6.505840
 20
2.637360
  0
VERTEX
  8
0
  6
CONTINUOUS
 10
6.528280
 20
2.645280
  0
VERTEX
  8
0
  6
CONTINUOUS
 10
6.551160
 20
2.648360
  0
VERTEX
  8
0
  6
CONTINUOUS
 10
6.574480
 20
2.647040
  0
VERTEX
  8
0
  6
CONTINUOUS
 10
6.596920
 20
2.640880
  0
VERTEX
  8
0
  6
CONTINUOUS
 10
6.607920
 20
2.636480
  0
VERTEX
  8
0
  6
CONTINUOUS
 10
6.628600
 20
2.623720
  0
VERTEX
  8
0
  6
CONTINUOUS
 10
6.647080
 20
2.606560
  0
VERTEX
  8
0
  6
CONTINUOUS
 10
6.662920
 20
2.585440
  0
VERTEX
  8
0
  6
CONTINUOUS
 10
6.674800
 20
2.559920
  0
VERTEX
  8
0
  6
CONTINUOUS
 10
6.679640
 20
2.545840
  0
VERTEX
  8
0
  6
CONTINUOUS
 10
6.685360
 20
2.514160
  0
VERTEX
  8
0
  6
CONTINUOUS
 10
6.686240
 20
2.497000
  0
VERTEX
  8
0
  6
CONTINUOUS
 10
6.685800
 20
2.497000
  0
VERTEX
  8
0
  6
CONTINUOUS
 10
6.685800
 20
2.357960
  0
VERTEX
  8
0
  6
CONTINUOUS
 10
6.936600
 20
2.357960
  0
VERTEX
  8
0
  6
CONTINUOUS
 10
6.936600
 20
2.111560
  0
VERTEX
  8
0
  6
CONTINUOUS
 10
6.685800
 20
2.111560
  0
VERTEX
  8
0
  6
CONTINUOUS
 10
6.685800
 20
2.049960
  0
VERTEX
  8
0
  6
CONTINUOUS
 10
6.685800
 20
2.055240
  0
SEQEND
  8
0
  0
TEXT
  8
0
 10
3.629560
 20
1.542640
 40
0.138147
  1
BA  1198A - D
 41
1.000000
  7
SN0
 71
     0
 72
     5
 11
4.690757
 21
1.542640
  0
TEXT
  8
0
 10
3.709200
 20
1.351240
 40
0.138147
  1
7/8" x 5-7/8"
 41
1.000000
  7
SN0
 71
     0
 72
     5
 11
4.612078
 21
1.351240
  0
TEXT
  8
0
 10
2.987600
 20
3.417040
 40
0.138147
  1
BA  1198A - D
 41
1.000000
  7
SN0
 71
     0
 72
     5
 11
4.048797
 21
3.417040
  0
TEXT
  8
0
 10
3.067240
 20
3.225640
 40
0.138147
  1
7/8" x 5-7/8"
 41
1.000000
  7
SN0
 71
     0
 72
     5
 11
3.970118
 21
3.225640
  0
ENDSEC
  0
EOF
