  0
SECTION
  2
HEADER
  9
$ACADVER
  1
AC1006
  9
$EXTMIN
 10
2.851200
 20
0.772640
  9
$EXTMAX
 10
6.374280
 20
7.557880
  9
$LTSCALE
 40
0.044000
  9
$PDMODE
 70
    35
  9
$PDSIZE
 40
0.035200
  0
ENDSEC
  0
SECTION
  2
TABLES
  0
TABLE
  2
LTYPE
 70
     9
  0
LTYPE
  2
CONTINUOUS
 70
    64
  3
Solid line
 72
    65
 73
     0
 40
0.000000
  0
LTYPE
  2
DASHED
 70
    64
  3
__ __ __ __ __ __ __ __ __ __ __ __ __ __ __
 72
    65
 73
     2
 40
0.000330
 49
0.000220
 49
-0.000110
  0
LTYPE
  2
HIDDEN
 70
    64
  3
 _ _ _ _ _ _ _ _ _ _ _ _ _ _ _ _ _ _ _ _ _ _
 72
    65
 73
     2
 40
0.000165
 49
0.000110
 49
-0.000055
  0
LTYPE
  2
CENTER
 70
    64
  3
____ _ ____ _ ____ _ ____ _ ____ _ ____ _ ____
 72
    65
 73
     4
 40
0.000880
 49
0.000550
 49
-0.000110
 49
0.000110
 49
-0.000110
  0
LTYPE
  2
PHANTOM
 70
    64
  3
_____ _ _ _____ _ _ _____ _ _ _____ _ _ ____
 72
    65
 73
     6
 40
0.001100
 49
0.000550
 49
-0.000110
 49
0.000110
 49
-0.000110
 49
0.000110
 49
-0.000110
  0
LTYPE
  2
DOT
 70
    64
  3
...............................................
 72
    65
 73
     2
 40
0.000110
 49
0.000000
 49
-0.000110
  0
LTYPE
  2
DASHDOT
 70
    64
  3
__ . __ . __ . __ . __ . __ . __ . __ . __ . __
 72
    65
 73
     4
 40
0.000440
 49
0.000220
 49
-0.000110
 49
0.000000
 49
-0.000110
  0
LTYPE
  2
BORDER
 70
    64
  3
__ __ . __ __ . __ __ . __ __ . __ __ . __ __
 72
    65
 73
     6
 40
0.000770
 49
0.000220
 49
-0.000110
 49
0.000220
 49
-0.000110
 49
0.000000
 49
-0.000110
  0
LTYPE
  2
DIVIDE
 70
    64
  3
__ . . __ . . __ . . __ . . __ . . __ . . __
 72
    65
 73
     6
 40
0.000550
 49
0.000220
 49
-0.000110
 49
0.000000
 49
-0.000110
 49
0.000000
 49
-0.000110
  0
LTYPE
  2
DOTDOT
 70
    64
  3
 . .  . .  . .  . .  . .  . . 
 72
    65
 73
     5
 40
0.000242
 49
-0.000110
 49
0.000000
 49
-0.000110
 49
0.000000
 49
-0.000110
  0
ENDTAB
  0
TABLE
  2
STYLE
 70
     2
  0
STYLE
 70
     0
  2
SN0
 40
0.000000
 41
0.000440
 50
0.000000
 71
     0
 42
0.000000
  3
ROMAND
  0
STYLE
 70
    68
  2
SV0
 40
0.000000
 41
0.000440
 50
0.000000
 71
     0
 42
0.000000
  3
ROMAND
  0
ENDTAB
  0
TABLE
  2
LAYER
 70
     3
  0
LAYER
  2
FOREGROUND
 70
    64
 62
     7
  6
CONTINUOUS
  0
LAYER
  2
BACKGROUND
 70
    65
 62
    -7
  6
CONTINUOUS
  0
LAYER
  2
0
 70
    64
 62
     7
  6
CONTINUOUS
  0
ENDTAB
  0
ENDSEC
  0
SECTION
  2
ENTITIES
  0
POLYLINE
  8
FOREGROUND
  6
CONTINUOUS
 66
     1
 40
0.000000
 41
0.000000
  0
VERTEX
  8
FOREGROUND
  6
CONTINUOUS
 10
0.000000
 20
8.330520
  0
VERTEX
  8
FOREGROUND
  6
CONTINUOUS
 10
8.499920
 20
8.330520
  0
VERTEX
  8
FOREGROUND
  6
CONTINUOUS
 10
8.499920
 20
-2.669480
  0
VERTEX
  8
FOREGROUND
  6
CONTINUOUS
 10
0.000000
 20
-2.669480
  0
VERTEX
  8
FOREGROUND
  6
CONTINUOUS
 10
0.000000
 20
8.330520
  0
SEQEND
  8
0
  0
POLYLINE
  8
FOREGROUND
  6
CONTINUOUS
 66
     1
 40
0.000000
 41
0.000000
  0
VERTEX
  8
FOREGROUND
  6
CONTINUOUS
 10
0.000000
 20
8.330520
  0
VERTEX
  8
FOREGROUND
  6
CONTINUOUS
 10
8.499920
 20
8.330520
  0
VERTEX
  8
FOREGROUND
  6
CONTINUOUS
 10
8.499920
 20
-2.669480
  0
VERTEX
  8
FOREGROUND
  6
CONTINUOUS
 10
0.000000
 20
-2.669480
  0
VERTEX
  8
FOREGROUND
  6
CONTINUOUS
 10
0.000000
 20
8.330520
  0
SEQEND
  8
0
  0
POLYLINE
  8
0
  6
CONTINUOUS
 66
     1
 40
0.000000
 41
0.000000
  0
VERTEX
  8
0
  6
CONTINUOUS
 10
2.858680
 20
2.452560
  0
VERTEX
  8
0
  6
CONTINUOUS
 10
2.858680
 20
1.844920
  0
VERTEX
  8
0
  6
CONTINUOUS
 10
6.367240
 20
1.844920
  0
VERTEX
  8
0
  6
CONTINUOUS
 10
6.367240
 20
2.016960
  0
VERTEX
  8
0
  6
CONTINUOUS
 10
6.364160
 20
2.047320
  0
VERTEX
  8
0
  6
CONTINUOUS
 10
6.360640
 20
2.061400
  0
VERTEX
  8
0
  6
CONTINUOUS
 10
6.349200
 20
2.088240
  0
VERTEX
  8
0
  6
CONTINUOUS
 10
6.333360
 20
2.112000
  0
VERTEX
  8
0
  6
CONTINUOUS
 10
6.313120
 20
2.132240
  0
VERTEX
  8
0
  6
CONTINUOUS
 10
6.288920
 20
2.148520
  0
VERTEX
  8
0
  6
CONTINUOUS
 10
6.262520
 20
2.159960
  0
VERTEX
  8
0
  6
CONTINUOUS
 10
6.233480
 20
2.165680
  0
VERTEX
  8
0
  6
CONTINUOUS
 10
6.204880
 20
2.166120
  0
VERTEX
  8
0
  6
CONTINUOUS
 10
6.179800
 20
2.161720
  0
VERTEX
  8
0
  6
CONTINUOUS
 10
6.156480
 20
2.153360
  0
VERTEX
  8
0
  6
CONTINUOUS
 10
6.134920
 20
2.141040
  0
VERTEX
  8
0
  6
CONTINUOUS
 10
6.115560
 20
2.126080
  0
VERTEX
  8
0
  6
CONTINUOUS
 10
6.099280
 20
2.108040
  0
VERTEX
  8
0
  6
CONTINUOUS
 10
6.086080
 20
2.087360
  0
VERTEX
  8
0
  6
CONTINUOUS
 10
6.076400
 20
2.064480
  0
VERTEX
  8
0
  6
CONTINUOUS
 10
6.072880
 20
2.052600
  0
VERTEX
  8
0
  6
CONTINUOUS
 10
6.044720
 20
2.052600
  0
VERTEX
  8
0
  6
CONTINUOUS
 10
6.016120
 20
2.206600
  0
VERTEX
  8
0
  6
CONTINUOUS
 10
5.859040
 20
2.212320
  0
VERTEX
  8
0
  6
CONTINUOUS
 10
5.775440
 20
2.218040
  0
VERTEX
  8
0
  6
CONTINUOUS
 10
5.699760
 20
2.226400
  0
VERTEX
  8
0
  6
CONTINUOUS
 10
5.631560
 20
2.239160
  0
VERTEX
  8
0
  6
CONTINUOUS
 10
5.590640
 20
2.250160
  0
VERTEX
  8
0
  6
CONTINUOUS
 10
5.553240
 20
2.263800
  0
VERTEX
  8
0
  6
CONTINUOUS
 10
5.519360
 20
2.280520
  0
VERTEX
  8
0
  6
CONTINUOUS
 10
5.488560
 20
2.299880
  0
VERTEX
  8
0
  6
CONTINUOUS
 10
5.461720
 20
2.322760
  0
VERTEX
  8
0
  6
CONTINUOUS
 10
5.438400
 20
2.349160
  0
VERTEX
  8
0
  6
CONTINUOUS
 10
5.418160
 20
2.379960
  0
VERTEX
  8
0
  6
CONTINUOUS
 10
5.409360
 20
2.396680
  0
VERTEX
  8
0
  6
CONTINUOUS
 10
5.394840
 20
2.433640
  0
VERTEX
  8
0
  6
CONTINUOUS
 10
5.388680
 20
2.453880
  0
VERTEX
  8
0
  6
CONTINUOUS
 10
2.858680
 20
2.453880
  0
SEQEND
  8
0
  0
POLYLINE
  8
0
  6
CONTINUOUS
 66
     1
 40
0.000000
 41
0.000000
  0
VERTEX
  8
0
  6
CONTINUOUS
 10
6.367240
 20
1.380720
  0
VERTEX
  8
0
  6
CONTINUOUS
 10
6.367240
 20
0.773080
  0
VERTEX
  8
0
  6
CONTINUOUS
 10
2.858680
 20
0.773080
  0
VERTEX
  8
0
  6
CONTINUOUS
 10
2.858680
 20
0.945120
  0
VERTEX
  8
0
  6
CONTINUOUS
 10
2.861760
 20
0.975040
  0
VERTEX
  8
0
  6
CONTINUOUS
 10
2.865280
 20
0.989560
  0
VERTEX
  8
0
  6
CONTINUOUS
 10
2.876720
 20
1.015960
  0
VERTEX
  8
0
  6
CONTINUOUS
 10
2.893000
 20
1.040160
  0
VERTEX
  8
0
  6
CONTINUOUS
 10
2.913240
 20
1.060400
  0
VERTEX
  8
0
  6
CONTINUOUS
 10
2.937000
 20
1.076240
  0
VERTEX
  8
0
  6
CONTINUOUS
 10
2.963840
 20
1.087680
  0
VERTEX
  8
0
  6
CONTINUOUS
 10
2.992880
 20
1.093400
  0
VERTEX
  8
0
  6
CONTINUOUS
 10
3.021480
 20
1.093840
  0
VERTEX
  8
0
  6
CONTINUOUS
 10
3.046120
 20
1.089440
  0
VERTEX
  8
0
  6
CONTINUOUS
 10
3.069880
 20
1.081080
  0
VERTEX
  8
0
  6
CONTINUOUS
 10
3.091000
 20
1.069200
  0
VERTEX
  8
0
  6
CONTINUOUS
 10
3.110360
 20
1.053800
  0
VERTEX
  8
0
  6
CONTINUOUS
 10
3.126640
 20
1.035760
  0
VERTEX
  8
0
  6
CONTINUOUS
 10
3.139840
 20
1.015080
  0
VERTEX
  8
0
  6
CONTINUOUS
 10
3.149520
 20
0.992200
  0
VERTEX
  8
0
  6
CONTINUOUS
 10
3.153040
 20
0.980320
  0
VERTEX
  8
0
  6
CONTINUOUS
 10
3.181200
 20
0.980320
  0
VERTEX
  8
0
  6
CONTINUOUS
 10
3.209800
 20
1.134320
  0
VERTEX
  8
0
  6
CONTINUOUS
 10
3.366880
 20
1.140040
  0
VERTEX
  8
0
  6
CONTINUOUS
 10
3.450480
 20
1.145760
  0
VERTEX
  8
0
  6
CONTINUOUS
 10
3.526160
 20
1.154560
  0
VERTEX
  8
0
  6
CONTINUOUS
 10
3.594360
 20
1.167320
  0
VERTEX
  8
0
  6
CONTINUOUS
 10
3.635280
 20
1.178320
  0
VERTEX
  8
0
  6
CONTINUOUS
 10
3.672680
 20
1.191960
  0
VERTEX
  8
0
  6
CONTINUOUS
 10
3.706560
 20
1.208240
  0
VERTEX
  8
0
  6
CONTINUOUS
 10
3.737360
 20
1.228040
  0
VERTEX
  8
0
  6
CONTINUOUS
 10
3.764200
 20
1.250920
  0
VERTEX
  8
0
  6
CONTINUOUS
 10
3.787520
 20
1.277320
  0
VERTEX
  8
0
  6
CONTINUOUS
 10
3.807760
 20
1.307680
  0
VERTEX
  8
0
  6
CONTINUOUS
 10
3.824040
 20
1.342440
  0
VERTEX
  8
0
  6
CONTINUOUS
 10
3.837240
 20
1.381600
  0
VERTEX
  8
0
  6
CONTINUOUS
 10
6.367240
 20
1.381600
  0
SEQEND
  8
0
  0
SOLID
  8
0
 62
    15
 10
3.641440
 20
3.285040
 11
4.380640
 21
3.273600
 12
3.641440
 22
3.256880
 13
4.380640
 23
3.245880
  0
POLYLINE
  8
0
  6
CONTINUOUS
 66
     1
 40
0.000000
 41
0.000000
  0
VERTEX
  8
0
  6
CONTINUOUS
 10
3.641440
 20
3.285040
  0
VERTEX
  8
0
  6
CONTINUOUS
 10
4.380640
 20
3.273600
  0
VERTEX
  8
0
  6
CONTINUOUS
 10
4.380640
 20
3.245880
  0
VERTEX
  8
0
  6
CONTINUOUS
 10
3.641440
 20
3.256880
  0
VERTEX
  8
0
  6
CONTINUOUS
 10
3.641440
 20
3.285040
  0
SEQEND
  8
0
  0
SOLID
  8
0
 62
    15
 10
4.042720
 20
3.941520
 11
4.781920
 21
3.930080
 12
4.003560
 22
3.928320
 13
4.742760
 23
3.916880
  0
POLYLINE
  8
0
  6
CONTINUOUS
 66
     1
 40
0.000000
 41
0.000000
  0
VERTEX
  8
0
  6
CONTINUOUS
 10
4.042720
 20
3.941520
  0
VERTEX
  8
0
  6
CONTINUOUS
 10
4.781920
 20
3.930080
  0
VERTEX
  8
0
  6
CONTINUOUS
 10
4.742760
 20
3.916880
  0
VERTEX
  8
0
  6
CONTINUOUS
 10
4.003560
 20
3.928320
  0
VERTEX
  8
0
  6
CONTINUOUS
 10
4.042720
 20
3.941520
  0
SEQEND
  8
0
  0
SOLID
  8
0
 62
    15
 10
4.003560
 20
3.928320
 11
4.742760
 21
3.916880
 12
3.968800
 22
3.911600
 13
4.708000
 23
3.900600
  0
POLYLINE
  8
0
  6
CONTINUOUS
 66
     1
 40
0.000000
 41
0.000000
  0
VERTEX
  8
0
  6
CONTINUOUS
 10
4.003560
 20
3.928320
  0
VERTEX
  8
0
  6
CONTINUOUS
 10
4.742760
 20
3.916880
  0
VERTEX
  8
0
  6
CONTINUOUS
 10
4.708000
 20
3.900600
  0
VERTEX
  8
0
  6
CONTINUOUS
 10
3.968800
 20
3.911600
  0
VERTEX
  8
0
  6
CONTINUOUS
 10
4.003560
 20
3.928320
  0
SEQEND
  8
0
  0
SOLID
  8
0
 62
    15
 10
3.968800
 20
3.911600
 11
4.708000
 21
3.900600
 12
3.938440
 22
3.891800
 13
4.677640
 23
3.880360
  0
POLYLINE
  8
0
  6
CONTINUOUS
 66
     1
 40
0.000000
 41
0.000000
  0
VERTEX
  8
0
  6
CONTINUOUS
 10
3.968800
 20
3.911600
  0
VERTEX
  8
0
  6
CONTINUOUS
 10
4.708000
 20
3.900600
  0
VERTEX
  8
0
  6
CONTINUOUS
 10
4.677640
 20
3.880360
  0
VERTEX
  8
0
  6
CONTINUOUS
 10
3.938440
 20
3.891800
  0
VERTEX
  8
0
  6
CONTINUOUS
 10
3.968800
 20
3.911600
  0
SEQEND
  8
0
  0
SOLID
  8
0
 62
    15
 10
3.938440
 20
3.891800
 11
4.677640
 21
3.880360
 12
3.911600
 22
3.868040
 13
4.651240
 23
3.857040
  0
POLYLINE
  8
0
  6
CONTINUOUS
 66
     1
 40
0.000000
 41
0.000000
  0
VERTEX
  8
0
  6
CONTINUOUS
 10
3.938440
 20
3.891800
  0
VERTEX
  8
0
  6
CONTINUOUS
 10
4.677640
 20
3.880360
  0
VERTEX
  8
0
  6
CONTINUOUS
 10
4.651240
 20
3.857040
  0
VERTEX
  8
0
  6
CONTINUOUS
 10
3.911600
 20
3.868040
  0
VERTEX
  8
0
  6
CONTINUOUS
 10
3.938440
 20
3.891800
  0
SEQEND
  8
0
  0
SOLID
  8
0
 62
    15
 10
3.911600
 20
3.868040
 11
4.651240
 21
3.857040
 12
3.888720
 22
3.841200
 13
4.628360
 23
3.829760
  0
POLYLINE
  8
0
  6
CONTINUOUS
 66
     1
 40
0.000000
 41
0.000000
  0
VERTEX
  8
0
  6
CONTINUOUS
 10
3.911600
 20
3.868040
  0
VERTEX
  8
0
  6
CONTINUOUS
 10
4.651240
 20
3.857040
  0
VERTEX
  8
0
  6
CONTINUOUS
 10
4.628360
 20
3.829760
  0
VERTEX
  8
0
  6
CONTINUOUS
 10
3.888720
 20
3.841200
  0
VERTEX
  8
0
  6
CONTINUOUS
 10
3.911600
 20
3.868040
  0
SEQEND
  8
0
  0
SOLID
  8
0
 62
    15
 10
3.888720
 20
3.841200
 11
4.628360
 21
3.829760
 12
3.869360
 22
3.810840
 13
4.608560
 23
3.799400
  0
POLYLINE
  8
0
  6
CONTINUOUS
 66
     1
 40
0.000000
 41
0.000000
  0
VERTEX
  8
0
  6
CONTINUOUS
 10
3.888720
 20
3.841200
  0
VERTEX
  8
0
  6
CONTINUOUS
 10
4.628360
 20
3.829760
  0
VERTEX
  8
0
  6
CONTINUOUS
 10
4.608560
 20
3.799400
  0
VERTEX
  8
0
  6
CONTINUOUS
 10
3.869360
 20
3.810840
  0
VERTEX
  8
0
  6
CONTINUOUS
 10
3.888720
 20
3.841200
  0
SEQEND
  8
0
  0
SOLID
  8
0
 62
    15
 10
3.869360
 20
3.810840
 11
4.608560
 21
3.799400
 12
3.853080
 22
3.776960
 13
4.592280
 23
3.765520
  0
POLYLINE
  8
0
  6
CONTINUOUS
 66
     1
 40
0.000000
 41
0.000000
  0
VERTEX
  8
0
  6
CONTINUOUS
 10
3.869360
 20
3.810840
  0
VERTEX
  8
0
  6
CONTINUOUS
 10
4.608560
 20
3.799400
  0
VERTEX
  8
0
  6
CONTINUOUS
 10
4.592280
 20
3.765520
  0
VERTEX
  8
0
  6
CONTINUOUS
 10
3.853080
 20
3.776960
  0
VERTEX
  8
0
  6
CONTINUOUS
 10
3.869360
 20
3.810840
  0
SEQEND
  8
0
  0
SOLID
  8
0
 62
    15
 10
3.853080
 20
3.776960
 11
4.592280
 21
3.765520
 12
3.839440
 22
3.739120
 13
4.578640
 23
3.727680
  0
POLYLINE
  8
0
  6
CONTINUOUS
 66
     1
 40
0.000000
 41
0.000000
  0
VERTEX
  8
0
  6
CONTINUOUS
 10
3.853080
 20
3.776960
  0
VERTEX
  8
0
  6
CONTINUOUS
 10
4.592280
 20
3.765520
  0
VERTEX
  8
0
  6
CONTINUOUS
 10
4.578640
 20
3.727680
  0
VERTEX
  8
0
  6
CONTINUOUS
 10
3.839440
 20
3.739120
  0
VERTEX
  8
0
  6
CONTINUOUS
 10
3.853080
 20
3.776960
  0
SEQEND
  8
0
  0
SOLID
  8
0
 62
    15
 10
3.839440
 20
3.739120
 11
4.578640
 21
3.727680
 12
3.828440
 22
3.698200
 13
4.567640
 23
3.686760
  0
POLYLINE
  8
0
  6
CONTINUOUS
 66
     1
 40
0.000000
 41
0.000000
  0
VERTEX
  8
0
  6
CONTINUOUS
 10
3.839440
 20
3.739120
  0
VERTEX
  8
0
  6
CONTINUOUS
 10
4.578640
 20
3.727680
  0
VERTEX
  8
0
  6
CONTINUOUS
 10
4.567640
 20
3.686760
  0
VERTEX
  8
0
  6
CONTINUOUS
 10
3.828440
 20
3.698200
  0
VERTEX
  8
0
  6
CONTINUOUS
 10
3.839440
 20
3.739120
  0
SEQEND
  8
0
  0
SOLID
  8
0
 62
    15
 10
3.828440
 20
3.698200
 11
4.567640
 21
3.686760
 12
3.819200
 22
3.653760
 13
4.558400
 23
3.642320
  0
POLYLINE
  8
0
  6
CONTINUOUS
 66
     1
 40
0.000000
 41
0.000000
  0
VERTEX
  8
0
  6
CONTINUOUS
 10
3.828440
 20
3.698200
  0
VERTEX
  8
0
  6
CONTINUOUS
 10
4.567640
 20
3.686760
  0
VERTEX
  8
0
  6
CONTINUOUS
 10
4.558400
 20
3.642320
  0
VERTEX
  8
0
  6
CONTINUOUS
 10
3.819200
 20
3.653760
  0
VERTEX
  8
0
  6
CONTINUOUS
 10
3.828440
 20
3.698200
  0
SEQEND
  8
0
  0
SOLID
  8
0
 62
    15
 10
3.819200
 20
3.653760
 11
4.558400
 21
3.642320
 12
3.812160
 22
3.605800
 13
4.551360
 23
3.594360
  0
POLYLINE
  8
0
  6
CONTINUOUS
 66
     1
 40
0.000000
 41
0.000000
  0
VERTEX
  8
0
  6
CONTINUOUS
 10
3.819200
 20
3.653760
  0
VERTEX
  8
0
  6
CONTINUOUS
 10
4.558400
 20
3.642320
  0
VERTEX
  8
0
  6
CONTINUOUS
 10
4.551360
 20
3.594360
  0
VERTEX
  8
0
  6
CONTINUOUS
 10
3.812160
 20
3.605800
  0
VERTEX
  8
0
  6
CONTINUOUS
 10
3.819200
 20
3.653760
  0
SEQEND
  8
0
  0
SOLID
  8
0
 62
    15
 10
3.812160
 20
3.605800
 11
4.551360
 21
3.594360
 12
3.806880
 22
3.554320
 13
4.546080
 23
3.542880
  0
POLYLINE
  8
0
  6
CONTINUOUS
 66
     1
 40
0.000000
 41
0.000000
  0
VERTEX
  8
0
  6
CONTINUOUS
 10
3.812160
 20
3.605800
  0
VERTEX
  8
0
  6
CONTINUOUS
 10
4.551360
 20
3.594360
  0
VERTEX
  8
0
  6
CONTINUOUS
 10
4.546080
 20
3.542880
  0
VERTEX
  8
0
  6
CONTINUOUS
 10
3.806880
 20
3.554320
  0
VERTEX
  8
0
  6
CONTINUOUS
 10
3.812160
 20
3.605800
  0
SEQEND
  8
0
  0
SOLID
  8
0
 62
    15
 10
3.806880
 20
3.554320
 11
4.546080
 21
3.542880
 12
3.802920
 22
3.499320
 13
4.542120
 23
3.488320
  0
POLYLINE
  8
0
  6
CONTINUOUS
 66
     1
 40
0.000000
 41
0.000000
  0
VERTEX
  8
0
  6
CONTINUOUS
 10
3.806880
 20
3.554320
  0
VERTEX
  8
0
  6
CONTINUOUS
 10
4.546080
 20
3.542880
  0
VERTEX
  8
0
  6
CONTINUOUS
 10
4.542120
 20
3.488320
  0
VERTEX
  8
0
  6
CONTINUOUS
 10
3.802920
 20
3.499320
  0
VERTEX
  8
0
  6
CONTINUOUS
 10
3.806880
 20
3.554320
  0
SEQEND
  8
0
  0
SOLID
  8
0
 62
    15
 10
3.802920
 20
3.499320
 11
4.542120
 21
3.488320
 12
3.799840
 22
3.441240
 13
4.539040
 23
3.429800
  0
POLYLINE
  8
0
  6
CONTINUOUS
 66
     1
 40
0.000000
 41
0.000000
  0
VERTEX
  8
0
  6
CONTINUOUS
 10
3.802920
 20
3.499320
  0
VERTEX
  8
0
  6
CONTINUOUS
 10
4.542120
 20
3.488320
  0
VERTEX
  8
0
  6
CONTINUOUS
 10
4.539040
 20
3.429800
  0
VERTEX
  8
0
  6
CONTINUOUS
 10
3.799840
 20
3.441240
  0
VERTEX
  8
0
  6
CONTINUOUS
 10
3.802920
 20
3.499320
  0
SEQEND
  8
0
  0
SOLID
  8
0
 62
    15
 10
3.799840
 20
3.441240
 11
4.539040
 21
3.429800
 12
3.797200
 22
3.379200
 13
4.536400
 23
3.367760
  0
POLYLINE
  8
0
  6
CONTINUOUS
 66
     1
 40
0.000000
 41
0.000000
  0
VERTEX
  8
0
  6
CONTINUOUS
 10
3.799840
 20
3.441240
  0
VERTEX
  8
0
  6
CONTINUOUS
 10
4.539040
 20
3.429800
  0
VERTEX
  8
0
  6
CONTINUOUS
 10
4.536400
 20
3.367760
  0
VERTEX
  8
0
  6
CONTINUOUS
 10
3.797200
 20
3.379200
  0
VERTEX
  8
0
  6
CONTINUOUS
 10
3.799840
 20
3.441240
  0
SEQEND
  8
0
  0
SOLID
  8
0
 62
    15
 10
3.795440
 20
3.313640
 11
4.534640
 21
3.302200
 12
3.641440
 22
3.285040
 13
4.380640
 23
3.273600
  0
POLYLINE
  8
0
  6
CONTINUOUS
 66
     1
 40
0.000000
 41
0.000000
  0
VERTEX
  8
0
  6
CONTINUOUS
 10
3.795440
 20
3.313640
  0
VERTEX
  8
0
  6
CONTINUOUS
 10
4.534640
 20
3.302200
  0
VERTEX
  8
0
  6
CONTINUOUS
 10
4.380640
 20
3.273600
  0
VERTEX
  8
0
  6
CONTINUOUS
 10
3.641440
 20
3.285040
  0
VERTEX
  8
0
  6
CONTINUOUS
 10
3.795440
 20
3.313640
  0
SEQEND
  8
0
  0
SOLID
  8
0
 62
    15
 10
3.797200
 20
3.379200
 11
4.536400
 21
3.367760
 12
3.795440
 22
3.313640
 13
4.534640
 23
3.302200
  0
POLYLINE
  8
0
  6
CONTINUOUS
 66
     1
 40
0.000000
 41
0.000000
  0
VERTEX
  8
0
  6
CONTINUOUS
 10
3.797200
 20
3.379200
  0
VERTEX
  8
0
  6
CONTINUOUS
 10
4.536400
 20
3.367760
  0
VERTEX
  8
0
  6
CONTINUOUS
 10
4.534640
 20
3.302200
  0
VERTEX
  8
0
  6
CONTINUOUS
 10
3.795440
 20
3.313640
  0
VERTEX
  8
0
  6
CONTINUOUS
 10
3.797200
 20
3.379200
  0
SEQEND
  8
0
  0
SOLID
  8
0
 62
    15
 10
4.042720
 20
6.471080
 11
4.781920
 21
6.459640
 12
4.042720
 22
3.941520
 13
4.781920
 23
3.930080
  0
POLYLINE
  8
0
  6
CONTINUOUS
 66
     1
 40
0.000000
 41
0.000000
  0
VERTEX
  8
0
  6
CONTINUOUS
 10
4.042720
 20
6.471080
  0
VERTEX
  8
0
  6
CONTINUOUS
 10
4.781920
 20
6.459640
  0
VERTEX
  8
0
  6
CONTINUOUS
 10
4.781920
 20
3.930080
  0
VERTEX
  8
0
  6
CONTINUOUS
 10
4.042720
 20
3.941520
  0
VERTEX
  8
0
  6
CONTINUOUS
 10
4.042720
 20
6.471080
  0
SEQEND
  8
0
  0
SOLID
  8
0
 62
    15
 10
3.641440
 20
3.256880
 11
4.380640
 21
3.245880
 12
3.665200
 22
3.249400
 13
4.404400
 23
3.237960
  0
POLYLINE
  8
0
  6
CONTINUOUS
 66
     1
 40
0.000000
 41
0.000000
  0
VERTEX
  8
0
  6
CONTINUOUS
 10
3.641440
 20
3.256880
  0
VERTEX
  8
0
  6
CONTINUOUS
 10
4.380640
 20
3.245880
  0
VERTEX
  8
0
  6
CONTINUOUS
 10
4.404400
 20
3.237960
  0
VERTEX
  8
0
  6
CONTINUOUS
 10
3.665200
 20
3.249400
  0
VERTEX
  8
0
  6
CONTINUOUS
 10
3.641440
 20
3.256880
  0
SEQEND
  8
0
  0
SOLID
  8
0
 62
    15
 10
3.665200
 20
3.249400
 11
4.404400
 21
3.237960
 12
3.686760
 22
3.237520
 13
4.425960
 23
3.226080
  0
POLYLINE
  8
0
  6
CONTINUOUS
 66
     1
 40
0.000000
 41
0.000000
  0
VERTEX
  8
0
  6
CONTINUOUS
 10
3.665200
 20
3.249400
  0
VERTEX
  8
0
  6
CONTINUOUS
 10
4.404400
 20
3.237960
  0
VERTEX
  8
0
  6
CONTINUOUS
 10
4.425960
 20
3.226080
  0
VERTEX
  8
0
  6
CONTINUOUS
 10
3.686760
 20
3.237520
  0
VERTEX
  8
0
  6
CONTINUOUS
 10
3.665200
 20
3.249400
  0
SEQEND
  8
0
  0
SOLID
  8
0
 62
    15
 10
3.686760
 20
3.237520
 11
4.425960
 21
3.226080
 12
3.706120
 22
3.223000
 13
4.445320
 23
3.211560
  0
POLYLINE
  8
0
  6
CONTINUOUS
 66
     1
 40
0.000000
 41
0.000000
  0
VERTEX
  8
0
  6
CONTINUOUS
 10
3.686760
 20
3.237520
  0
VERTEX
  8
0
  6
CONTINUOUS
 10
4.425960
 20
3.226080
  0
VERTEX
  8
0
  6
CONTINUOUS
 10
4.445320
 20
3.211560
  0
VERTEX
  8
0
  6
CONTINUOUS
 10
3.706120
 20
3.223000
  0
VERTEX
  8
0
  6
CONTINUOUS
 10
3.686760
 20
3.237520
  0
SEQEND
  8
0
  0
SOLID
  8
0
 62
    15
 10
3.706120
 20
3.223000
 11
4.445320
 21
3.211560
 12
3.722840
 22
3.204960
 13
4.462040
 23
3.193520
  0
POLYLINE
  8
0
  6
CONTINUOUS
 66
     1
 40
0.000000
 41
0.000000
  0
VERTEX
  8
0
  6
CONTINUOUS
 10
3.706120
 20
3.223000
  0
VERTEX
  8
0
  6
CONTINUOUS
 10
4.445320
 20
3.211560
  0
VERTEX
  8
0
  6
CONTINUOUS
 10
4.462040
 20
3.193520
  0
VERTEX
  8
0
  6
CONTINUOUS
 10
3.722840
 20
3.204960
  0
VERTEX
  8
0
  6
CONTINUOUS
 10
3.706120
 20
3.223000
  0
SEQEND
  8
0
  0
SOLID
  8
0
 62
    15
 10
3.722840
 20
3.204960
 11
4.462040
 21
3.193520
 12
3.736480
 22
3.184720
 13
4.475680
 23
3.173280
  0
POLYLINE
  8
0
  6
CONTINUOUS
 66
     1
 40
0.000000
 41
0.000000
  0
VERTEX
  8
0
  6
CONTINUOUS
 10
3.722840
 20
3.204960
  0
VERTEX
  8
0
  6
CONTINUOUS
 10
4.462040
 20
3.193520
  0
VERTEX
  8
0
  6
CONTINUOUS
 10
4.475680
 20
3.173280
  0
VERTEX
  8
0
  6
CONTINUOUS
 10
3.736480
 20
3.184720
  0
VERTEX
  8
0
  6
CONTINUOUS
 10
3.722840
 20
3.204960
  0
SEQEND
  8
0
  0
SOLID
  8
0
 62
    15
 10
3.736480
 20
3.184720
 11
4.475680
 21
3.173280
 12
3.746600
 22
3.162280
 13
4.486240
 23
3.150840
  0
POLYLINE
  8
0
  6
CONTINUOUS
 66
     1
 40
0.000000
 41
0.000000
  0
VERTEX
  8
0
  6
CONTINUOUS
 10
3.736480
 20
3.184720
  0
VERTEX
  8
0
  6
CONTINUOUS
 10
4.475680
 20
3.173280
  0
VERTEX
  8
0
  6
CONTINUOUS
 10
4.486240
 20
3.150840
  0
VERTEX
  8
0
  6
CONTINUOUS
 10
3.746600
 20
3.162280
  0
VERTEX
  8
0
  6
CONTINUOUS
 10
3.736480
 20
3.184720
  0
SEQEND
  8
0
  0
SOLID
  8
0
 62
    15
 10
3.746600
 20
3.162280
 11
4.486240
 21
3.150840
 12
3.753200
 22
3.137640
 13
4.492400
 23
3.126640
  0
POLYLINE
  8
0
  6
CONTINUOUS
 66
     1
 40
0.000000
 41
0.000000
  0
VERTEX
  8
0
  6
CONTINUOUS
 10
3.746600
 20
3.162280
  0
VERTEX
  8
0
  6
CONTINUOUS
 10
4.486240
 20
3.150840
  0
VERTEX
  8
0
  6
CONTINUOUS
 10
4.492400
 20
3.126640
  0
VERTEX
  8
0
  6
CONTINUOUS
 10
3.753200
 20
3.137640
  0
VERTEX
  8
0
  6
CONTINUOUS
 10
3.746600
 20
3.162280
  0
SEQEND
  8
0
  0
SOLID
  8
0
 62
    15
 10
3.753200
 20
3.137640
 11
4.492400
 21
3.126640
 12
3.755400
 22
3.112120
 13
4.494600
 23
3.100680
  0
POLYLINE
  8
0
  6
CONTINUOUS
 66
     1
 40
0.000000
 41
0.000000
  0
VERTEX
  8
0
  6
CONTINUOUS
 10
3.753200
 20
3.137640
  0
VERTEX
  8
0
  6
CONTINUOUS
 10
4.492400
 20
3.126640
  0
VERTEX
  8
0
  6
CONTINUOUS
 10
4.494600
 20
3.100680
  0
VERTEX
  8
0
  6
CONTINUOUS
 10
3.755400
 20
3.112120
  0
VERTEX
  8
0
  6
CONTINUOUS
 10
3.753200
 20
3.137640
  0
SEQEND
  8
0
  0
SOLID
  8
0
 62
    15
 10
3.755400
 20
3.112120
 11
4.494600
 21
3.100680
 12
3.752320
 22
3.082200
 13
4.491520
 23
3.070760
  0
POLYLINE
  8
0
  6
CONTINUOUS
 66
     1
 40
0.000000
 41
0.000000
  0
VERTEX
  8
0
  6
CONTINUOUS
 10
3.755400
 20
3.112120
  0
VERTEX
  8
0
  6
CONTINUOUS
 10
4.494600
 20
3.100680
  0
VERTEX
  8
0
  6
CONTINUOUS
 10
4.491520
 20
3.070760
  0
VERTEX
  8
0
  6
CONTINUOUS
 10
3.752320
 20
3.082200
  0
VERTEX
  8
0
  6
CONTINUOUS
 10
3.755400
 20
3.112120
  0
SEQEND
  8
0
  0
SOLID
  8
0
 62
    15
 10
3.752320
 20
3.082200
 11
4.491520
 21
3.070760
 12
3.743520
 22
3.054040
 13
4.482720
 23
3.042600
  0
POLYLINE
  8
0
  6
CONTINUOUS
 66
     1
 40
0.000000
 41
0.000000
  0
VERTEX
  8
0
  6
CONTINUOUS
 10
3.752320
 20
3.082200
  0
VERTEX
  8
0
  6
CONTINUOUS
 10
4.491520
 20
3.070760
  0
VERTEX
  8
0
  6
CONTINUOUS
 10
4.482720
 20
3.042600
  0
VERTEX
  8
0
  6
CONTINUOUS
 10
3.743520
 20
3.054040
  0
VERTEX
  8
0
  6
CONTINUOUS
 10
3.752320
 20
3.082200
  0
SEQEND
  8
0
  0
SOLID
  8
0
 62
    15
 10
3.743520
 20
3.054040
 11
4.482720
 21
3.042600
 12
3.729880
 22
3.028520
 13
4.469080
 23
3.017080
  0
POLYLINE
  8
0
  6
CONTINUOUS
 66
     1
 40
0.000000
 41
0.000000
  0
VERTEX
  8
0
  6
CONTINUOUS
 10
3.743520
 20
3.054040
  0
VERTEX
  8
0
  6
CONTINUOUS
 10
4.482720
 20
3.042600
  0
VERTEX
  8
0
  6
CONTINUOUS
 10
4.469080
 20
3.017080
  0
VERTEX
  8
0
  6
CONTINUOUS
 10
3.729880
 20
3.028520
  0
VERTEX
  8
0
  6
CONTINUOUS
 10
3.743520
 20
3.054040
  0
SEQEND
  8
0
  0
SOLID
  8
0
 62
    15
 10
3.729880
 20
3.028520
 11
4.469080
 21
3.017080
 12
3.711840
 22
3.006520
 13
4.451040
 23
2.995080
  0
POLYLINE
  8
0
  6
CONTINUOUS
 66
     1
 40
0.000000
 41
0.000000
  0
VERTEX
  8
0
  6
CONTINUOUS
 10
3.729880
 20
3.028520
  0
VERTEX
  8
0
  6
CONTINUOUS
 10
4.469080
 20
3.017080
  0
VERTEX
  8
0
  6
CONTINUOUS
 10
4.451040
 20
2.995080
  0
VERTEX
  8
0
  6
CONTINUOUS
 10
3.711840
 20
3.006520
  0
VERTEX
  8
0
  6
CONTINUOUS
 10
3.729880
 20
3.028520
  0
SEQEND
  8
0
  0
SOLID
  8
0
 62
    15
 10
3.711840
 20
3.006520
 11
4.451040
 21
2.995080
 12
3.689400
 22
2.988480
 13
4.428600
 23
2.977040
  0
POLYLINE
  8
0
  6
CONTINUOUS
 66
     1
 40
0.000000
 41
0.000000
  0
VERTEX
  8
0
  6
CONTINUOUS
 10
3.711840
 20
3.006520
  0
VERTEX
  8
0
  6
CONTINUOUS
 10
4.451040
 20
2.995080
  0
VERTEX
  8
0
  6
CONTINUOUS
 10
4.428600
 20
2.977040
  0
VERTEX
  8
0
  6
CONTINUOUS
 10
3.689400
 20
2.988480
  0
VERTEX
  8
0
  6
CONTINUOUS
 10
3.711840
 20
3.006520
  0
SEQEND
  8
0
  0
SOLID
  8
0
 62
    15
 10
3.689400
 20
2.988480
 11
4.428600
 21
2.977040
 12
3.664320
 22
2.974400
 13
4.403520
 23
2.963400
  0
POLYLINE
  8
0
  6
CONTINUOUS
 66
     1
 40
0.000000
 41
0.000000
  0
VERTEX
  8
0
  6
CONTINUOUS
 10
3.689400
 20
2.988480
  0
VERTEX
  8
0
  6
CONTINUOUS
 10
4.428600
 20
2.977040
  0
VERTEX
  8
0
  6
CONTINUOUS
 10
4.403520
 20
2.963400
  0
VERTEX
  8
0
  6
CONTINUOUS
 10
3.664320
 20
2.974400
  0
VERTEX
  8
0
  6
CONTINUOUS
 10
3.689400
 20
2.988480
  0
SEQEND
  8
0
  0
SOLID
  8
0
 62
    15
 10
3.636160
 20
2.966040
 11
4.375360
 21
2.954600
 12
3.606240
 22
2.962960
 13
4.345440
 23
2.951520
  0
POLYLINE
  8
0
  6
CONTINUOUS
 66
     1
 40
0.000000
 41
0.000000
  0
VERTEX
  8
0
  6
CONTINUOUS
 10
3.636160
 20
2.966040
  0
VERTEX
  8
0
  6
CONTINUOUS
 10
4.375360
 20
2.954600
  0
VERTEX
  8
0
  6
CONTINUOUS
 10
4.345440
 20
2.951520
  0
VERTEX
  8
0
  6
CONTINUOUS
 10
3.606240
 20
2.962960
  0
VERTEX
  8
0
  6
CONTINUOUS
 10
3.636160
 20
2.966040
  0
SEQEND
  8
0
  0
SOLID
  8
0
 62
    15
 10
3.664320
 20
2.974400
 11
4.403520
 21
2.963400
 12
3.636160
 22
2.966040
 13
4.375360
 23
2.954600
  0
POLYLINE
  8
0
  6
CONTINUOUS
 66
     1
 40
0.000000
 41
0.000000
  0
VERTEX
  8
0
  6
CONTINUOUS
 10
3.664320
 20
2.974400
  0
VERTEX
  8
0
  6
CONTINUOUS
 10
4.403520
 20
2.963400
  0
VERTEX
  8
0
  6
CONTINUOUS
 10
4.375360
 20
2.954600
  0
VERTEX
  8
0
  6
CONTINUOUS
 10
3.636160
 20
2.966040
  0
VERTEX
  8
0
  6
CONTINUOUS
 10
3.664320
 20
2.974400
  0
SEQEND
  8
0
  0
SOLID
  8
0
 62
    15
 10
3.606240
 20
2.962960
 11
4.345440
 21
2.951520
 12
3.434200
 22
2.962960
 13
4.173400
 23
2.951520
  0
POLYLINE
  8
0
  6
CONTINUOUS
 66
     1
 40
0.000000
 41
0.000000
  0
VERTEX
  8
0
  6
CONTINUOUS
 10
3.606240
 20
2.962960
  0
VERTEX
  8
0
  6
CONTINUOUS
 10
4.345440
 20
2.951520
  0
VERTEX
  8
0
  6
CONTINUOUS
 10
4.173400
 20
2.951520
  0
VERTEX
  8
0
  6
CONTINUOUS
 10
3.434200
 20
2.962960
  0
VERTEX
  8
0
  6
CONTINUOUS
 10
3.606240
 20
2.962960
  0
SEQEND
  8
0
  0
POLYLINE
  8
0
  6
CONTINUOUS
 66
     1
 40
0.000000
 41
0.000000
  0
VERTEX
  8
0
  6
CONTINUOUS
 10
4.042720
 20
6.471080
  0
VERTEX
  8
0
  6
CONTINUOUS
 10
4.042720
 20
3.941520
  0
VERTEX
  8
0
  6
CONTINUOUS
 10
4.003560
 20
3.928320
  0
VERTEX
  8
0
  6
CONTINUOUS
 10
3.968800
 20
3.911600
  0
VERTEX
  8
0
  6
CONTINUOUS
 10
3.938440
 20
3.891800
  0
VERTEX
  8
0
  6
CONTINUOUS
 10
3.911600
 20
3.868040
  0
VERTEX
  8
0
  6
CONTINUOUS
 10
3.888720
 20
3.841200
  0
VERTEX
  8
0
  6
CONTINUOUS
 10
3.869360
 20
3.810840
  0
VERTEX
  8
0
  6
CONTINUOUS
 10
3.853080
 20
3.776960
  0
VERTEX
  8
0
  6
CONTINUOUS
 10
3.839440
 20
3.739120
  0
VERTEX
  8
0
  6
CONTINUOUS
 10
3.828440
 20
3.698200
  0
VERTEX
  8
0
  6
CONTINUOUS
 10
3.819200
 20
3.653760
  0
VERTEX
  8
0
  6
CONTINUOUS
 10
3.812160
 20
3.605800
  0
VERTEX
  8
0
  6
CONTINUOUS
 10
3.806880
 20
3.554320
  0
VERTEX
  8
0
  6
CONTINUOUS
 10
3.802920
 20
3.499320
  0
VERTEX
  8
0
  6
CONTINUOUS
 10
3.799840
 20
3.441240
  0
VERTEX
  8
0
  6
CONTINUOUS
 10
3.797200
 20
3.379200
  0
VERTEX
  8
0
  6
CONTINUOUS
 10
3.795440
 20
3.313640
  0
VERTEX
  8
0
  6
CONTINUOUS
 10
3.641440
 20
3.285040
  0
VERTEX
  8
0
  6
CONTINUOUS
 10
3.641440
 20
3.256880
  0
VERTEX
  8
0
  6
CONTINUOUS
 10
3.665200
 20
3.249400
  0
VERTEX
  8
0
  6
CONTINUOUS
 10
3.686760
 20
3.237520
  0
VERTEX
  8
0
  6
CONTINUOUS
 10
3.706120
 20
3.223000
  0
VERTEX
  8
0
  6
CONTINUOUS
 10
3.722840
 20
3.204960
  0
VERTEX
  8
0
  6
CONTINUOUS
 10
3.736480
 20
3.184720
  0
VERTEX
  8
0
  6
CONTINUOUS
 10
3.746600
 20
3.162280
  0
VERTEX
  8
0
  6
CONTINUOUS
 10
3.753200
 20
3.137640
  0
VERTEX
  8
0
  6
CONTINUOUS
 10
3.755400
 20
3.112120
  0
VERTEX
  8
0
  6
CONTINUOUS
 10
3.752320
 20
3.082200
  0
VERTEX
  8
0
  6
CONTINUOUS
 10
3.743520
 20
3.054040
  0
VERTEX
  8
0
  6
CONTINUOUS
 10
3.729880
 20
3.028520
  0
VERTEX
  8
0
  6
CONTINUOUS
 10
3.711840
 20
3.006520
  0
VERTEX
  8
0
  6
CONTINUOUS
 10
3.689400
 20
2.988480
  0
VERTEX
  8
0
  6
CONTINUOUS
 10
3.664320
 20
2.974400
  0
VERTEX
  8
0
  6
CONTINUOUS
 10
3.636160
 20
2.966040
  0
VERTEX
  8
0
  6
CONTINUOUS
 10
3.606240
 20
2.962960
  0
VERTEX
  8
0
  6
CONTINUOUS
 10
3.434200
 20
2.962960
  0
VERTEX
  8
0
  6
CONTINUOUS
 10
3.434200
 20
6.471080
  0
VERTEX
  8
0
  6
CONTINUOUS
 10
4.041840
 20
6.471080
  0
VERTEX
  8
0
  6
CONTINUOUS
 10
4.042720
 20
6.471080
  0
SEQEND
  8
0
  0
TEXT
  8
0
 10
4.898520
 20
3.160520
 40
0.138085
  1
BA  1197
 41
1.000000
  7
SN0
 71
     0
 72
     5
 11
5.580776
 21
3.160520
  0
TEXT
  8
0
 10
4.788960
 20
2.969120
 40
0.138085
  1
5/8" x 3-1/2"
 41
1.000000
  7
SN0
 71
     0
 72
     5
 11
5.689701
 21
2.969120
  0
POLYLINE
  8
0
  6
CONTINUOUS
 66
     1
 40
0.014080
 41
0.014080
  0
VERTEX
  8
0
  6
CONTINUOUS
 10
2.858680
 20
7.549080
  0
VERTEX
  8
0
  6
CONTINUOUS
 10
2.858680
 20
6.941440
  0
VERTEX
  8
0
  6
CONTINUOUS
 10
6.367240
 20
6.941440
  0
VERTEX
  8
0
  6
CONTINUOUS
 10
6.367240
 20
7.113480
  0
VERTEX
  8
0
  6
CONTINUOUS
 10
6.364160
 20
7.143400
  0
VERTEX
  8
0
  6
CONTINUOUS
 10
6.360640
 20
7.157920
  0
VERTEX
  8
0
  6
CONTINUOUS
 10
6.349200
 20
7.184320
  0
VERTEX
  8
0
  6
CONTINUOUS
 10
6.333360
 20
7.208520
  0
VERTEX
  8
0
  6
CONTINUOUS
 10
6.313120
 20
7.228760
  0
VERTEX
  8
0
  6
CONTINUOUS
 10
6.288920
 20
7.244600
  0
VERTEX
  8
0
  6
CONTINUOUS
 10
6.262520
 20
7.256040
  0
VERTEX
  8
0
  6
CONTINUOUS
 10
6.233480
 20
7.261760
  0
VERTEX
  8
0
  6
CONTINUOUS
 10
6.204880
 20
7.262200
  0
VERTEX
  8
0
  6
CONTINUOUS
 10
6.179800
 20
7.257800
  0
VERTEX
  8
0
  6
CONTINUOUS
 10
6.156480
 20
7.249440
  0
VERTEX
  8
0
  6
CONTINUOUS
 10
6.134920
 20
7.237560
  0
VERTEX
  8
0
  6
CONTINUOUS
 10
6.107200
 20
7.213800
  0
VERTEX
  8
0
  6
CONTINUOUS
 10
6.092240
 20
7.194440
  0
VERTEX
  8
0
  6
CONTINUOUS
 10
6.080800
 20
7.172880
  0
VERTEX
  8
0
  6
CONTINUOUS
 10
6.072880
 20
7.149120
  0
VERTEX
  8
0
  6
CONTINUOUS
 10
6.044720
 20
7.149120
  0
VERTEX
  8
0
  6
CONTINUOUS
 10
6.016120
 20
7.302680
  0
VERTEX
  8
0
  6
CONTINUOUS
 10
5.859040
 20
7.308400
  0
VERTEX
  8
0
  6
CONTINUOUS
 10
5.775440
 20
7.314120
  0
VERTEX
  8
0
  6
CONTINUOUS
 10
5.699760
 20
7.322920
  0
VERTEX
  8
0
  6
CONTINUOUS
 10
5.631560
 20
7.335680
  0
VERTEX
  8
0
  6
CONTINUOUS
 10
5.590640
 20
7.346680
  0
VERTEX
  8
0
  6
CONTINUOUS
 10
5.553240
 20
7.360320
  0
VERTEX
  8
0
  6
CONTINUOUS
 10
5.519360
 20
7.376600
  0
VERTEX
  8
0
  6
CONTINUOUS
 10
5.488560
 20
7.396400
  0
VERTEX
  8
0
  6
CONTINUOUS
 10
5.461720
 20
7.419280
  0
VERTEX
  8
0
  6
CONTINUOUS
 10
5.438400
 20
7.445680
  0
VERTEX
  8
0
  6
CONTINUOUS
 10
5.418160
 20
7.476040
  0
VERTEX
  8
0
  6
CONTINUOUS
 10
5.409360
 20
7.492760
  0
VERTEX
  8
0
  6
CONTINUOUS
 10
5.394840
 20
7.529720
  0
VERTEX
  8
0
  6
CONTINUOUS
 10
5.388680
 20
7.549960
  0
VERTEX
  8
0
  6
CONTINUOUS
 10
2.858680
 20
7.549960
  0
SEQEND
  8
0
  0
TEXT
  8
0
 10
3.206280
 20
7.242840
 40
0.138085
  1
BA  1197
 41
1.000000
  7
SN0
 71
     0
 72
     5
 11
3.888536
 21
7.242840
  0
TEXT
  8
0
 10
3.096280
 20
7.051000
 40
0.138085
  1
5/8" x 3-1/2"
 41
1.000000
  7
SN0
 71
     0
 72
     5
 11
3.997021
 21
7.051000
  0
ENDSEC
  0
EOF
