  0
SECTION
  2
HEADER
  9
$ACADVER
  1
AC1006
  9
$EXTMIN
 10
2.502720
 20
1.749880
  9
$EXTMAX
 10
6.281880
 20
8.089400
  9
$LTSCALE
 40
0.044000
  9
$PDMODE
 70
    35
  9
$PDSIZE
 40
0.035200
  0
ENDSEC
  0
SECTION
  2
TABLES
  0
TABLE
  2
LTYPE
 70
     9
  0
LTYPE
  2
CONTINUOUS
 70
    64
  3
Solid line
 72
    65
 73
     0
 40
0.000000
  0
LTYPE
  2
DASHED
 70
    64
  3
__ __ __ __ __ __ __ __ __ __ __ __ __ __ __
 72
    65
 73
     2
 40
0.000330
 49
0.000220
 49
-0.000110
  0
LTYPE
  2
HIDDEN
 70
    64
  3
 _ _ _ _ _ _ _ _ _ _ _ _ _ _ _ _ _ _ _ _ _ _
 72
    65
 73
     2
 40
0.000165
 49
0.000110
 49
-0.000055
  0
LTYPE
  2
CENTER
 70
    64
  3
____ _ ____ _ ____ _ ____ _ ____ _ ____ _ ____
 72
    65
 73
     4
 40
0.000880
 49
0.000550
 49
-0.000110
 49
0.000110
 49
-0.000110
  0
LTYPE
  2
PHANTOM
 70
    64
  3
_____ _ _ _____ _ _ _____ _ _ _____ _ _ ____
 72
    65
 73
     6
 40
0.001100
 49
0.000550
 49
-0.000110
 49
0.000110
 49
-0.000110
 49
0.000110
 49
-0.000110
  0
LTYPE
  2
DOT
 70
    64
  3
...............................................
 72
    65
 73
     2
 40
0.000110
 49
0.000000
 49
-0.000110
  0
LTYPE
  2
DASHDOT
 70
    64
  3
__ . __ . __ . __ . __ . __ . __ . __ . __ . __
 72
    65
 73
     4
 40
0.000440
 49
0.000220
 49
-0.000110
 49
0.000000
 49
-0.000110
  0
LTYPE
  2
BORDER
 70
    64
  3
__ __ . __ __ . __ __ . __ __ . __ __ . __ __
 72
    65
 73
     6
 40
0.000770
 49
0.000220
 49
-0.000110
 49
0.000220
 49
-0.000110
 49
0.000000
 49
-0.000110
  0
LTYPE
  2
DIVIDE
 70
    64
  3
__ . . __ . . __ . . __ . . __ . . __ . . __
 72
    65
 73
     6
 40
0.000550
 49
0.000220
 49
-0.000110
 49
0.000000
 49
-0.000110
 49
0.000000
 49
-0.000110
  0
LTYPE
  2
DOTDOT
 70
    64
  3
 . .  . .  . .  . .  . .  . . 
 72
    65
 73
     5
 40
0.000242
 49
-0.000110
 49
0.000000
 49
-0.000110
 49
0.000000
 49
-0.000110
  0
ENDTAB
  0
TABLE
  2
STYLE
 70
     2
  0
STYLE
 70
     0
  2
SN0
 40
0.000000
 41
0.000440
 50
0.000000
 71
     0
 42
0.000000
  3
ROMAND
  0
STYLE
 70
    68
  2
SV0
 40
0.000000
 41
0.000440
 50
0.000000
 71
     0
 42
0.000000
  3
ROMAND
  0
ENDTAB
  0
TABLE
  2
LAYER
 70
     3
  0
LAYER
  2
FOREGROUND
 70
    64
 62
     7
  6
CONTINUOUS
  0
LAYER
  2
BACKGROUND
 70
    65
 62
    -7
  6
CONTINUOUS
  0
LAYER
  2
0
 70
    64
 62
     7
  6
CONTINUOUS
  0
ENDTAB
  0
ENDSEC
  0
SECTION
  2
ENTITIES
  0
POLYLINE
  8
FOREGROUND
  6
CONTINUOUS
 66
     1
 40
0.000000
 41
0.000000
  0
VERTEX
  8
FOREGROUND
  6
CONTINUOUS
 10
0.000000
 20
9.839280
  0
VERTEX
  8
FOREGROUND
  6
CONTINUOUS
 10
8.499920
 20
9.839280
  0
VERTEX
  8
FOREGROUND
  6
CONTINUOUS
 10
8.499920
 20
-1.160720
  0
VERTEX
  8
FOREGROUND
  6
CONTINUOUS
 10
0.000000
 20
-1.160720
  0
VERTEX
  8
FOREGROUND
  6
CONTINUOUS
 10
0.000000
 20
9.839280
  0
SEQEND
  8
0
  0
POLYLINE
  8
FOREGROUND
  6
CONTINUOUS
 66
     1
 40
0.000000
 41
0.000000
  0
VERTEX
  8
FOREGROUND
  6
CONTINUOUS
 10
0.000000
 20
9.839280
  0
VERTEX
  8
FOREGROUND
  6
CONTINUOUS
 10
8.499920
 20
9.839280
  0
VERTEX
  8
FOREGROUND
  6
CONTINUOUS
 10
8.499920
 20
-1.160720
  0
VERTEX
  8
FOREGROUND
  6
CONTINUOUS
 10
0.000000
 20
-1.160720
  0
VERTEX
  8
FOREGROUND
  6
CONTINUOUS
 10
0.000000
 20
9.839280
  0
SEQEND
  8
0
  0
POLYLINE
  8
0
  6
CONTINUOUS
 66
     1
 40
0.000000
 41
0.000000
  0
VERTEX
  8
0
  6
CONTINUOUS
 10
2.510200
 20
2.005520
  0
VERTEX
  8
0
  6
CONTINUOUS
 10
2.513280
 20
2.035000
  0
VERTEX
  8
0
  6
CONTINUOUS
 10
2.521640
 20
2.062720
  0
VERTEX
  8
0
  6
CONTINUOUS
 10
2.535280
 20
2.087360
  0
VERTEX
  8
0
  6
CONTINUOUS
 10
2.543640
 20
2.098800
  0
VERTEX
  8
0
  6
CONTINUOUS
 10
2.563440
 20
2.118600
  0
VERTEX
  8
0
  6
CONTINUOUS
 10
2.587200
 20
2.134440
  0
VERTEX
  8
0
  6
CONTINUOUS
 10
2.613160
 20
2.145440
  0
VERTEX
  8
0
  6
CONTINUOUS
 10
2.642200
 20
2.151160
  0
VERTEX
  8
0
  6
CONTINUOUS
 10
2.669040
 20
2.151600
  0
VERTEX
  8
0
  6
CONTINUOUS
 10
2.691920
 20
2.147640
  0
VERTEX
  8
0
  6
CONTINUOUS
 10
2.713480
 20
2.140600
  0
VERTEX
  8
0
  6
CONTINUOUS
 10
2.742960
 20
2.124320
  0
VERTEX
  8
0
  6
CONTINUOUS
 10
2.767600
 20
2.101880
  0
VERTEX
  8
0
  6
CONTINUOUS
 10
2.786520
 20
2.074160
  0
VERTEX
  8
0
  6
CONTINUOUS
 10
2.795760
 20
2.053480
  0
VERTEX
  8
0
  6
CONTINUOUS
 10
2.813800
 20
2.053920
  0
VERTEX
  8
0
  6
CONTINUOUS
 10
2.847240
 20
2.158200
  0
VERTEX
  8
0
  6
CONTINUOUS
 10
4.764320
 20
2.158200
  0
VERTEX
  8
0
  6
CONTINUOUS
 10
4.791160
 20
2.225520
  0
VERTEX
  8
0
  6
CONTINUOUS
 10
4.834720
 20
2.230800
  0
VERTEX
  8
0
  6
CONTINUOUS
 10
4.876080
 20
2.238280
  0
VERTEX
  8
0
  6
CONTINUOUS
 10
4.933720
 20
2.253680
  0
VERTEX
  8
0
  6
CONTINUOUS
 10
4.968920
 20
2.266880
  0
VERTEX
  8
0
  6
CONTINUOUS
 10
5.016440
 20
2.290200
  0
VERTEX
  8
0
  6
CONTINUOUS
 10
5.044160
 20
2.308680
  0
VERTEX
  8
0
  6
CONTINUOUS
 10
5.100920
 20
2.355760
  0
VERTEX
  8
0
  6
CONTINUOUS
 10
5.148880
 20
2.387000
  0
VERTEX
  8
0
  6
CONTINUOUS
 10
5.206960
 20
2.417800
  0
VERTEX
  8
0
  6
CONTINUOUS
 10
5.254920
 20
2.437600
  0
VERTEX
  8
0
  6
CONTINUOUS
 10
5.303320
 20
2.451680
  0
VERTEX
  8
0
  6
CONTINUOUS
 10
5.319600
 20
2.455200
  0
VERTEX
  8
0
  6
CONTINUOUS
 10
5.350840
 20
2.458280
  0
VERTEX
  8
0
  6
CONTINUOUS
 10
5.366240
 20
2.458280
  0
VERTEX
  8
0
  6
CONTINUOUS
 10
5.395280
 20
2.454760
  0
VERTEX
  8
0
  6
CONTINUOUS
 10
5.422120
 20
2.445520
  0
VERTEX
  8
0
  6
CONTINUOUS
 10
5.434440
 20
2.438920
  0
VERTEX
  8
0
  6
CONTINUOUS
 10
5.456880
 20
2.420000
  0
VERTEX
  8
0
  6
CONTINUOUS
 10
5.474920
 20
2.394480
  0
VERTEX
  8
0
  6
CONTINUOUS
 10
5.482400
 20
2.378640
  0
VERTEX
  8
0
  6
CONTINUOUS
 10
5.499120
 20
2.378200
  0
VERTEX
  8
0
  6
CONTINUOUS
 10
5.509240
 20
2.504040
  0
VERTEX
  8
0
  6
CONTINUOUS
 10
6.274400
 20
2.504040
  0
VERTEX
  8
0
  6
CONTINUOUS
 10
6.274400
 20
1.750320
  0
VERTEX
  8
0
  6
CONTINUOUS
 10
2.510640
 20
1.750320
  0
VERTEX
  8
0
  6
CONTINUOUS
 10
2.510640
 20
2.005520
  0
SEQEND
  8
0
  0
POLYLINE
  8
0
  6
CONTINUOUS
 66
     1
 40
0.000000
 41
0.000000
  0
VERTEX
  8
0
  6
CONTINUOUS
 10
6.274400
 20
3.434640
  0
VERTEX
  8
0
  6
CONTINUOUS
 10
6.271320
 20
3.464120
  0
VERTEX
  8
0
  6
CONTINUOUS
 10
6.262960
 20
3.491840
  0
VERTEX
  8
0
  6
CONTINUOUS
 10
6.249320
 20
3.516480
  0
VERTEX
  8
0
  6
CONTINUOUS
 10
6.231720
 20
3.538040
  0
VERTEX
  8
0
  6
CONTINUOUS
 10
6.209720
 20
3.556080
  0
VERTEX
  8
0
  6
CONTINUOUS
 10
6.185080
 20
3.569720
  0
VERTEX
  8
0
  6
CONTINUOUS
 10
6.157360
 20
3.578080
  0
VERTEX
  8
0
  6
CONTINUOUS
 10
6.127880
 20
3.581160
  0
VERTEX
  8
0
  6
CONTINUOUS
 10
6.104120
 20
3.579400
  0
VERTEX
  8
0
  6
CONTINUOUS
 10
6.082120
 20
3.573680
  0
VERTEX
  8
0
  6
CONTINUOUS
 10
6.061000
 20
3.565320
  0
VERTEX
  8
0
  6
CONTINUOUS
 10
6.033280
 20
3.546840
  0
VERTEX
  8
0
  6
CONTINUOUS
 10
6.010400
 20
3.522200
  0
VERTEX
  8
0
  6
CONTINUOUS
 10
5.998080
 20
3.503280
  0
VERTEX
  8
0
  6
CONTINUOUS
 10
5.989280
 20
3.482600
  0
VERTEX
  8
0
  6
CONTINUOUS
 10
5.970800
 20
3.483480
  0
VERTEX
  8
0
  6
CONTINUOUS
 10
5.937360
 20
3.587320
  0
VERTEX
  8
0
  6
CONTINUOUS
 10
4.020720
 20
3.587320
  0
VERTEX
  8
0
  6
CONTINUOUS
 10
3.993880
 20
3.655080
  0
VERTEX
  8
0
  6
CONTINUOUS
 10
3.950320
 20
3.660360
  0
VERTEX
  8
0
  6
CONTINUOUS
 10
3.889160
 20
3.672240
  0
VERTEX
  8
0
  6
CONTINUOUS
 10
3.833280
 20
3.689400
  0
VERTEX
  8
0
  6
CONTINUOUS
 10
3.799400
 20
3.703480
  0
VERTEX
  8
0
  6
CONTINUOUS
 10
3.754520
 20
3.728560
  0
VERTEX
  8
0
  6
CONTINUOUS
 10
3.716240
 20
3.758920
  0
VERTEX
  8
0
  6
CONTINUOUS
 10
3.684120
 20
3.785320
  0
VERTEX
  8
0
  6
CONTINUOUS
 10
3.636160
 20
3.816560
  0
VERTEX
  8
0
  6
CONTINUOUS
 10
3.608000
 20
3.832400
  0
VERTEX
  8
0
  6
CONTINUOUS
 10
3.546400
 20
3.861000
  0
VERTEX
  8
0
  6
CONTINUOUS
 10
3.497560
 20
3.877280
  0
VERTEX
  8
0
  6
CONTINUOUS
 10
3.465440
 20
3.884760
  0
VERTEX
  8
0
  6
CONTINUOUS
 10
3.433760
 20
3.887840
  0
VERTEX
  8
0
  6
CONTINUOUS
 10
3.403840
 20
3.886520
  0
VERTEX
  8
0
  6
CONTINUOUS
 10
3.389320
 20
3.884320
  0
VERTEX
  8
0
  6
CONTINUOUS
 10
3.362480
 20
3.875080
  0
VERTEX
  8
0
  6
CONTINUOUS
 10
3.350160
 20
3.868480
  0
VERTEX
  8
0
  6
CONTINUOUS
 10
3.328160
 20
3.849560
  0
VERTEX
  8
0
  6
CONTINUOUS
 10
3.318480
 20
3.837680
  0
VERTEX
  8
0
  6
CONTINUOUS
 10
3.310120
 20
3.824040
  0
VERTEX
  8
0
  6
CONTINUOUS
 10
3.302640
 20
3.808200
  0
VERTEX
  8
0
  6
CONTINUOUS
 10
3.285480
 20
3.807320
  0
VERTEX
  8
0
  6
CONTINUOUS
 10
3.275360
 20
3.933160
  0
VERTEX
  8
0
  6
CONTINUOUS
 10
2.510200
 20
3.933160
  0
VERTEX
  8
0
  6
CONTINUOUS
 10
2.510200
 20
3.179440
  0
VERTEX
  8
0
  6
CONTINUOUS
 10
6.274400
 20
3.179440
  0
VERTEX
  8
0
  6
CONTINUOUS
 10
6.274400
 20
3.434640
  0
SEQEND
  8
0
  0
SOLID
  8
0
 62
    15
 10
3.834600
 20
5.653120
 11
3.831960
 21
6.401560
 12
3.909840
 22
5.631560
 13
3.907200
 23
6.380440
  0
POLYLINE
  8
0
  6
CONTINUOUS
 66
     1
 40
0.000000
 41
0.000000
  0
VERTEX
  8
0
  6
CONTINUOUS
 10
3.834600
 20
5.653120
  0
VERTEX
  8
0
  6
CONTINUOUS
 10
3.831960
 20
6.401560
  0
VERTEX
  8
0
  6
CONTINUOUS
 10
3.907200
 20
6.380440
  0
VERTEX
  8
0
  6
CONTINUOUS
 10
3.909840
 20
5.631560
  0
VERTEX
  8
0
  6
CONTINUOUS
 10
3.834600
 20
5.653120
  0
SEQEND
  8
0
  0
SOLID
  8
0
 62
    15
 10
2.511520
 20
5.143600
 11
2.508880
 21
5.892040
 12
2.511520
 22
5.897320
 13
2.508880
 23
6.645760
  0
POLYLINE
  8
0
  6
CONTINUOUS
 66
     1
 40
0.000000
 41
0.000000
  0
VERTEX
  8
0
  6
CONTINUOUS
 10
2.511520
 20
5.143600
  0
VERTEX
  8
0
  6
CONTINUOUS
 10
2.508880
 20
5.892040
  0
VERTEX
  8
0
  6
CONTINUOUS
 10
2.508880
 20
6.645760
  0
VERTEX
  8
0
  6
CONTINUOUS
 10
2.511520
 20
5.897320
  0
VERTEX
  8
0
  6
CONTINUOUS
 10
2.511520
 20
5.143600
  0
SEQEND
  8
0
  0
SOLID
  8
0
 62
    15
 10
3.276680
 20
5.897320
 11
3.274040
 21
6.645760
 12
3.286800
 22
5.771040
 13
3.284160
 23
6.519920
  0
POLYLINE
  8
0
  6
CONTINUOUS
 66
     1
 40
0.000000
 41
0.000000
  0
VERTEX
  8
0
  6
CONTINUOUS
 10
3.276680
 20
5.897320
  0
VERTEX
  8
0
  6
CONTINUOUS
 10
3.274040
 20
6.645760
  0
VERTEX
  8
0
  6
CONTINUOUS
 10
3.284160
 20
6.519920
  0
VERTEX
  8
0
  6
CONTINUOUS
 10
3.286800
 20
5.771040
  0
VERTEX
  8
0
  6
CONTINUOUS
 10
3.276680
 20
5.897320
  0
SEQEND
  8
0
  0
SOLID
  8
0
 62
    15
 10
3.286800
 20
5.771040
 11
3.284160
 21
6.519920
 12
3.303960
 22
5.771920
 13
3.301320
 23
6.520360
  0
POLYLINE
  8
0
  6
CONTINUOUS
 66
     1
 40
0.000000
 41
0.000000
  0
VERTEX
  8
0
  6
CONTINUOUS
 10
3.286800
 20
5.771040
  0
VERTEX
  8
0
  6
CONTINUOUS
 10
3.284160
 20
6.519920
  0
VERTEX
  8
0
  6
CONTINUOUS
 10
3.301320
 20
6.520360
  0
VERTEX
  8
0
  6
CONTINUOUS
 10
3.303960
 20
5.771920
  0
VERTEX
  8
0
  6
CONTINUOUS
 10
3.286800
 20
5.771040
  0
SEQEND
  8
0
  0
SOLID
  8
0
 62
    15
 10
3.303960
 20
5.771920
 11
3.301320
 21
6.520360
 12
3.319800
 22
5.801400
 13
3.317160
 23
6.549840
  0
POLYLINE
  8
0
  6
CONTINUOUS
 66
     1
 40
0.000000
 41
0.000000
  0
VERTEX
  8
0
  6
CONTINUOUS
 10
3.303960
 20
5.771920
  0
VERTEX
  8
0
  6
CONTINUOUS
 10
3.301320
 20
6.520360
  0
VERTEX
  8
0
  6
CONTINUOUS
 10
3.317160
 20
6.549840
  0
VERTEX
  8
0
  6
CONTINUOUS
 10
3.319800
 20
5.801400
  0
VERTEX
  8
0
  6
CONTINUOUS
 10
3.303960
 20
5.771920
  0
SEQEND
  8
0
  0
SOLID
  8
0
 62
    15
 10
3.319800
 20
5.801400
 11
3.317160
 21
6.549840
 12
3.340040
 22
5.823400
 13
3.337400
 23
6.572280
  0
POLYLINE
  8
0
  6
CONTINUOUS
 66
     1
 40
0.000000
 41
0.000000
  0
VERTEX
  8
0
  6
CONTINUOUS
 10
3.319800
 20
5.801400
  0
VERTEX
  8
0
  6
CONTINUOUS
 10
3.317160
 20
6.549840
  0
VERTEX
  8
0
  6
CONTINUOUS
 10
3.337400
 20
6.572280
  0
VERTEX
  8
0
  6
CONTINUOUS
 10
3.340040
 20
5.823400
  0
VERTEX
  8
0
  6
CONTINUOUS
 10
3.319800
 20
5.801400
  0
SEQEND
  8
0
  0
SOLID
  8
0
 62
    15
 10
3.340040
 20
5.823400
 11
3.337400
 21
6.572280
 12
3.363800
 22
5.838800
 13
3.361160
 23
6.587240
  0
POLYLINE
  8
0
  6
CONTINUOUS
 66
     1
 40
0.000000
 41
0.000000
  0
VERTEX
  8
0
  6
CONTINUOUS
 10
3.340040
 20
5.823400
  0
VERTEX
  8
0
  6
CONTINUOUS
 10
3.337400
 20
6.572280
  0
VERTEX
  8
0
  6
CONTINUOUS
 10
3.361160
 20
6.587240
  0
VERTEX
  8
0
  6
CONTINUOUS
 10
3.363800
 20
5.838800
  0
VERTEX
  8
0
  6
CONTINUOUS
 10
3.340040
 20
5.823400
  0
SEQEND
  8
0
  0
SOLID
  8
0
 62
    15
 10
3.363800
 20
5.838800
 11
3.361160
 21
6.587240
 12
3.390640
 22
5.848040
 13
3.388000
 23
6.596480
  0
POLYLINE
  8
0
  6
CONTINUOUS
 66
     1
 40
0.000000
 41
0.000000
  0
VERTEX
  8
0
  6
CONTINUOUS
 10
3.363800
 20
5.838800
  0
VERTEX
  8
0
  6
CONTINUOUS
 10
3.361160
 20
6.587240
  0
VERTEX
  8
0
  6
CONTINUOUS
 10
3.388000
 20
6.596480
  0
VERTEX
  8
0
  6
CONTINUOUS
 10
3.390640
 20
5.848040
  0
VERTEX
  8
0
  6
CONTINUOUS
 10
3.363800
 20
5.838800
  0
SEQEND
  8
0
  0
SOLID
  8
0
 62
    15
 10
3.390640
 20
5.848040
 11
3.388000
 21
6.596480
 12
3.420120
 22
5.851560
 13
3.417040
 23
6.600000
  0
POLYLINE
  8
0
  6
CONTINUOUS
 66
     1
 40
0.000000
 41
0.000000
  0
VERTEX
  8
0
  6
CONTINUOUS
 10
3.390640
 20
5.848040
  0
VERTEX
  8
0
  6
CONTINUOUS
 10
3.388000
 20
6.596480
  0
VERTEX
  8
0
  6
CONTINUOUS
 10
3.417040
 20
6.600000
  0
VERTEX
  8
0
  6
CONTINUOUS
 10
3.420120
 20
5.851560
  0
VERTEX
  8
0
  6
CONTINUOUS
 10
3.390640
 20
5.848040
  0
SEQEND
  8
0
  0
SOLID
  8
0
 62
    15
 10
3.420120
 20
5.851560
 11
3.417040
 21
6.600000
 12
3.450920
 22
5.850680
 13
3.448280
 23
6.599120
  0
POLYLINE
  8
0
  6
CONTINUOUS
 66
     1
 40
0.000000
 41
0.000000
  0
VERTEX
  8
0
  6
CONTINUOUS
 10
3.420120
 20
5.851560
  0
VERTEX
  8
0
  6
CONTINUOUS
 10
3.417040
 20
6.600000
  0
VERTEX
  8
0
  6
CONTINUOUS
 10
3.448280
 20
6.599120
  0
VERTEX
  8
0
  6
CONTINUOUS
 10
3.450920
 20
5.850680
  0
VERTEX
  8
0
  6
CONTINUOUS
 10
3.420120
 20
5.851560
  0
SEQEND
  8
0
  0
SOLID
  8
0
 62
    15
 10
3.450920
 20
5.850680
 11
3.448280
 21
6.599120
 12
3.515160
 22
5.836600
 13
3.512520
 23
6.585040
  0
POLYLINE
  8
0
  6
CONTINUOUS
 66
     1
 40
0.000000
 41
0.000000
  0
VERTEX
  8
0
  6
CONTINUOUS
 10
3.450920
 20
5.850680
  0
VERTEX
  8
0
  6
CONTINUOUS
 10
3.448280
 20
6.599120
  0
VERTEX
  8
0
  6
CONTINUOUS
 10
3.512520
 20
6.585040
  0
VERTEX
  8
0
  6
CONTINUOUS
 10
3.515160
 20
5.836600
  0
VERTEX
  8
0
  6
CONTINUOUS
 10
3.450920
 20
5.850680
  0
SEQEND
  8
0
  0
SOLID
  8
0
 62
    15
 10
3.515160
 20
5.836600
 11
3.512520
 21
6.585040
 12
3.578960
 22
5.811080
 13
3.576320
 23
6.559520
  0
POLYLINE
  8
0
  6
CONTINUOUS
 66
     1
 40
0.000000
 41
0.000000
  0
VERTEX
  8
0
  6
CONTINUOUS
 10
3.515160
 20
5.836600
  0
VERTEX
  8
0
  6
CONTINUOUS
 10
3.512520
 20
6.585040
  0
VERTEX
  8
0
  6
CONTINUOUS
 10
3.576320
 20
6.559520
  0
VERTEX
  8
0
  6
CONTINUOUS
 10
3.578960
 20
5.811080
  0
VERTEX
  8
0
  6
CONTINUOUS
 10
3.515160
 20
5.836600
  0
SEQEND
  8
0
  0
SOLID
  8
0
 62
    15
 10
3.578960
 20
5.811080
 11
3.576320
 21
6.559520
 12
3.637480
 22
5.780280
 13
3.634400
 23
6.528720
  0
POLYLINE
  8
0
  6
CONTINUOUS
 66
     1
 40
0.000000
 41
0.000000
  0
VERTEX
  8
0
  6
CONTINUOUS
 10
3.578960
 20
5.811080
  0
VERTEX
  8
0
  6
CONTINUOUS
 10
3.576320
 20
6.559520
  0
VERTEX
  8
0
  6
CONTINUOUS
 10
3.634400
 20
6.528720
  0
VERTEX
  8
0
  6
CONTINUOUS
 10
3.637480
 20
5.780280
  0
VERTEX
  8
0
  6
CONTINUOUS
 10
3.578960
 20
5.811080
  0
SEQEND
  8
0
  0
SOLID
  8
0
 62
    15
 10
3.637480
 20
5.780280
 11
3.634400
 21
6.528720
 12
3.685000
 22
5.749040
 13
3.682360
 23
6.497480
  0
POLYLINE
  8
0
  6
CONTINUOUS
 66
     1
 40
0.000000
 41
0.000000
  0
VERTEX
  8
0
  6
CONTINUOUS
 10
3.637480
 20
5.780280
  0
VERTEX
  8
0
  6
CONTINUOUS
 10
3.634400
 20
6.528720
  0
VERTEX
  8
0
  6
CONTINUOUS
 10
3.682360
 20
6.497480
  0
VERTEX
  8
0
  6
CONTINUOUS
 10
3.685000
 20
5.749040
  0
VERTEX
  8
0
  6
CONTINUOUS
 10
3.637480
 20
5.780280
  0
SEQEND
  8
0
  0
SOLID
  8
0
 62
    15
 10
3.685000
 20
5.749040
 11
3.682360
 21
6.497480
 12
3.703480
 22
5.734960
 13
3.700840
 23
6.483400
  0
POLYLINE
  8
0
  6
CONTINUOUS
 66
     1
 40
0.000000
 41
0.000000
  0
VERTEX
  8
0
  6
CONTINUOUS
 10
3.685000
 20
5.749040
  0
VERTEX
  8
0
  6
CONTINUOUS
 10
3.682360
 20
6.497480
  0
VERTEX
  8
0
  6
CONTINUOUS
 10
3.700840
 20
6.483400
  0
VERTEX
  8
0
  6
CONTINUOUS
 10
3.703480
 20
5.734960
  0
VERTEX
  8
0
  6
CONTINUOUS
 10
3.685000
 20
5.749040
  0
SEQEND
  8
0
  0
SOLID
  8
0
 62
    15
 10
3.703480
 20
5.734960
 11
3.700840
 21
6.483400
 12
3.717560
 22
5.722640
 13
3.714920
 23
6.471080
  0
POLYLINE
  8
0
  6
CONTINUOUS
 66
     1
 40
0.000000
 41
0.000000
  0
VERTEX
  8
0
  6
CONTINUOUS
 10
3.703480
 20
5.734960
  0
VERTEX
  8
0
  6
CONTINUOUS
 10
3.700840
 20
6.483400
  0
VERTEX
  8
0
  6
CONTINUOUS
 10
3.714920
 20
6.471080
  0
VERTEX
  8
0
  6
CONTINUOUS
 10
3.717560
 20
5.722640
  0
VERTEX
  8
0
  6
CONTINUOUS
 10
3.703480
 20
5.734960
  0
SEQEND
  8
0
  0
SOLID
  8
0
 62
    15
 10
3.717560
 20
5.722640
 11
3.714920
 21
6.471080
 12
3.742200
 22
5.701960
 13
3.739120
 23
6.450400
  0
POLYLINE
  8
0
  6
CONTINUOUS
 66
     1
 40
0.000000
 41
0.000000
  0
VERTEX
  8
0
  6
CONTINUOUS
 10
3.717560
 20
5.722640
  0
VERTEX
  8
0
  6
CONTINUOUS
 10
3.714920
 20
6.471080
  0
VERTEX
  8
0
  6
CONTINUOUS
 10
3.739120
 20
6.450400
  0
VERTEX
  8
0
  6
CONTINUOUS
 10
3.742200
 20
5.701960
  0
VERTEX
  8
0
  6
CONTINUOUS
 10
3.717560
 20
5.722640
  0
SEQEND
  8
0
  0
SOLID
  8
0
 62
    15
 10
3.742200
 20
5.701960
 11
3.739120
 21
6.450400
 12
3.769920
 22
5.683480
 13
3.767280
 23
6.431920
  0
POLYLINE
  8
0
  6
CONTINUOUS
 66
     1
 40
0.000000
 41
0.000000
  0
VERTEX
  8
0
  6
CONTINUOUS
 10
3.742200
 20
5.701960
  0
VERTEX
  8
0
  6
CONTINUOUS
 10
3.739120
 20
6.450400
  0
VERTEX
  8
0
  6
CONTINUOUS
 10
3.767280
 20
6.431920
  0
VERTEX
  8
0
  6
CONTINUOUS
 10
3.769920
 20
5.683480
  0
VERTEX
  8
0
  6
CONTINUOUS
 10
3.742200
 20
5.701960
  0
SEQEND
  8
0
  0
SOLID
  8
0
 62
    15
 10
3.769920
 20
5.683480
 11
3.767280
 21
6.431920
 12
3.800720
 22
5.667200
 13
3.798080
 23
6.415640
  0
POLYLINE
  8
0
  6
CONTINUOUS
 66
     1
 40
0.000000
 41
0.000000
  0
VERTEX
  8
0
  6
CONTINUOUS
 10
3.769920
 20
5.683480
  0
VERTEX
  8
0
  6
CONTINUOUS
 10
3.767280
 20
6.431920
  0
VERTEX
  8
0
  6
CONTINUOUS
 10
3.798080
 20
6.415640
  0
VERTEX
  8
0
  6
CONTINUOUS
 10
3.800720
 20
5.667200
  0
VERTEX
  8
0
  6
CONTINUOUS
 10
3.769920
 20
5.683480
  0
SEQEND
  8
0
  0
SOLID
  8
0
 62
    15
 10
3.800720
 20
5.667200
 11
3.798080
 21
6.415640
 12
3.834600
 22
5.653120
 13
3.831960
 23
6.401560
  0
POLYLINE
  8
0
  6
CONTINUOUS
 66
     1
 40
0.000000
 41
0.000000
  0
VERTEX
  8
0
  6
CONTINUOUS
 10
3.800720
 20
5.667200
  0
VERTEX
  8
0
  6
CONTINUOUS
 10
3.798080
 20
6.415640
  0
VERTEX
  8
0
  6
CONTINUOUS
 10
3.831960
 20
6.401560
  0
VERTEX
  8
0
  6
CONTINUOUS
 10
3.834600
 20
5.653120
  0
VERTEX
  8
0
  6
CONTINUOUS
 10
3.800720
 20
5.667200
  0
SEQEND
  8
0
  0
SOLID
  8
0
 62
    15
 10
2.511520
 20
5.897320
 11
2.508880
 21
6.645760
 12
3.276680
 22
5.897320
 13
3.274040
 23
6.645760
  0
POLYLINE
  8
0
  6
CONTINUOUS
 66
     1
 40
0.000000
 41
0.000000
  0
VERTEX
  8
0
  6
CONTINUOUS
 10
2.511520
 20
5.897320
  0
VERTEX
  8
0
  6
CONTINUOUS
 10
2.508880
 20
6.645760
  0
VERTEX
  8
0
  6
CONTINUOUS
 10
3.274040
 20
6.645760
  0
VERTEX
  8
0
  6
CONTINUOUS
 10
3.276680
 20
5.897320
  0
VERTEX
  8
0
  6
CONTINUOUS
 10
2.511520
 20
5.897320
  0
SEQEND
  8
0
  0
SOLID
  8
0
 62
    15
 10
3.909840
 20
5.631560
 11
3.907200
 21
6.380440
 12
3.995200
 22
5.618800
 13
3.992120
 23
6.367240
  0
POLYLINE
  8
0
  6
CONTINUOUS
 66
     1
 40
0.000000
 41
0.000000
  0
VERTEX
  8
0
  6
CONTINUOUS
 10
3.909840
 20
5.631560
  0
VERTEX
  8
0
  6
CONTINUOUS
 10
3.907200
 20
6.380440
  0
VERTEX
  8
0
  6
CONTINUOUS
 10
3.992120
 20
6.367240
  0
VERTEX
  8
0
  6
CONTINUOUS
 10
3.995200
 20
5.618800
  0
VERTEX
  8
0
  6
CONTINUOUS
 10
3.909840
 20
5.631560
  0
SEQEND
  8
0
  0
SOLID
  8
0
 62
    15
 10
3.995200
 20
5.618800
 11
3.992120
 21
6.367240
 12
4.022040
 22
5.551040
 13
4.019400
 23
6.299920
  0
POLYLINE
  8
0
  6
CONTINUOUS
 66
     1
 40
0.000000
 41
0.000000
  0
VERTEX
  8
0
  6
CONTINUOUS
 10
3.995200
 20
5.618800
  0
VERTEX
  8
0
  6
CONTINUOUS
 10
3.992120
 20
6.367240
  0
VERTEX
  8
0
  6
CONTINUOUS
 10
4.019400
 20
6.299920
  0
VERTEX
  8
0
  6
CONTINUOUS
 10
4.022040
 20
5.551040
  0
VERTEX
  8
0
  6
CONTINUOUS
 10
3.995200
 20
5.618800
  0
SEQEND
  8
0
  0
SOLID
  8
0
 62
    15
 10
4.022040
 20
5.551040
 11
4.019400
 21
6.299920
 12
5.938680
 22
5.551040
 13
5.936040
 23
6.299920
  0
POLYLINE
  8
0
  6
CONTINUOUS
 66
     1
 40
0.000000
 41
0.000000
  0
VERTEX
  8
0
  6
CONTINUOUS
 10
4.022040
 20
5.551040
  0
VERTEX
  8
0
  6
CONTINUOUS
 10
4.019400
 20
6.299920
  0
VERTEX
  8
0
  6
CONTINUOUS
 10
5.936040
 20
6.299920
  0
VERTEX
  8
0
  6
CONTINUOUS
 10
5.938680
 20
5.551040
  0
VERTEX
  8
0
  6
CONTINUOUS
 10
4.022040
 20
5.551040
  0
SEQEND
  8
0
  0
SOLID
  8
0
 62
    15
 10
5.938680
 20
5.551040
 11
5.936040
 21
6.299920
 12
5.972120
 22
5.447200
 13
5.969480
 23
6.195640
  0
POLYLINE
  8
0
  6
CONTINUOUS
 66
     1
 40
0.000000
 41
0.000000
  0
VERTEX
  8
0
  6
CONTINUOUS
 10
5.938680
 20
5.551040
  0
VERTEX
  8
0
  6
CONTINUOUS
 10
5.936040
 20
6.299920
  0
VERTEX
  8
0
  6
CONTINUOUS
 10
5.969480
 20
6.195640
  0
VERTEX
  8
0
  6
CONTINUOUS
 10
5.972120
 20
5.447200
  0
VERTEX
  8
0
  6
CONTINUOUS
 10
5.938680
 20
5.551040
  0
SEQEND
  8
0
  0
SOLID
  8
0
 62
    15
 10
5.972120
 20
5.447200
 11
5.969480
 21
6.195640
 12
5.990600
 22
5.446760
 13
5.987960
 23
6.195200
  0
POLYLINE
  8
0
  6
CONTINUOUS
 66
     1
 40
0.000000
 41
0.000000
  0
VERTEX
  8
0
  6
CONTINUOUS
 10
5.972120
 20
5.447200
  0
VERTEX
  8
0
  6
CONTINUOUS
 10
5.969480
 20
6.195640
  0
VERTEX
  8
0
  6
CONTINUOUS
 10
5.987960
 20
6.195200
  0
VERTEX
  8
0
  6
CONTINUOUS
 10
5.990600
 20
5.446760
  0
VERTEX
  8
0
  6
CONTINUOUS
 10
5.972120
 20
5.447200
  0
SEQEND
  8
0
  0
SOLID
  8
0
 62
    15
 10
5.990600
 20
5.446760
 11
5.987960
 21
6.195200
 12
5.999400
 22
5.467440
 13
5.996760
 23
6.215880
  0
POLYLINE
  8
0
  6
CONTINUOUS
 66
     1
 40
0.000000
 41
0.000000
  0
VERTEX
  8
0
  6
CONTINUOUS
 10
5.990600
 20
5.446760
  0
VERTEX
  8
0
  6
CONTINUOUS
 10
5.987960
 20
6.195200
  0
VERTEX
  8
0
  6
CONTINUOUS
 10
5.996760
 20
6.215880
  0
VERTEX
  8
0
  6
CONTINUOUS
 10
5.999400
 20
5.467440
  0
VERTEX
  8
0
  6
CONTINUOUS
 10
5.990600
 20
5.446760
  0
SEQEND
  8
0
  0
SOLID
  8
0
 62
    15
 10
5.999400
 20
5.467440
 11
5.996760
 21
6.215880
 12
6.011280
 22
5.486360
 13
6.008640
 23
6.234800
  0
POLYLINE
  8
0
  6
CONTINUOUS
 66
     1
 40
0.000000
 41
0.000000
  0
VERTEX
  8
0
  6
CONTINUOUS
 10
5.999400
 20
5.467440
  0
VERTEX
  8
0
  6
CONTINUOUS
 10
5.996760
 20
6.215880
  0
VERTEX
  8
0
  6
CONTINUOUS
 10
6.008640
 20
6.234800
  0
VERTEX
  8
0
  6
CONTINUOUS
 10
6.011280
 20
5.486360
  0
VERTEX
  8
0
  6
CONTINUOUS
 10
5.999400
 20
5.467440
  0
SEQEND
  8
0
  0
SOLID
  8
0
 62
    15
 10
6.011280
 20
5.486360
 11
6.008640
 21
6.234800
 12
6.042960
 22
5.517600
 13
6.040320
 23
6.266040
  0
POLYLINE
  8
0
  6
CONTINUOUS
 66
     1
 40
0.000000
 41
0.000000
  0
VERTEX
  8
0
  6
CONTINUOUS
 10
6.011280
 20
5.486360
  0
VERTEX
  8
0
  6
CONTINUOUS
 10
6.008640
 20
6.234800
  0
VERTEX
  8
0
  6
CONTINUOUS
 10
6.040320
 20
6.266040
  0
VERTEX
  8
0
  6
CONTINUOUS
 10
6.042960
 20
5.517600
  0
VERTEX
  8
0
  6
CONTINUOUS
 10
6.011280
 20
5.486360
  0
SEQEND
  8
0
  0
SOLID
  8
0
 62
    15
 10
6.042960
 20
5.517600
 11
6.040320
 21
6.266040
 12
6.062320
 22
5.529480
 13
6.059680
 23
6.277920
  0
POLYLINE
  8
0
  6
CONTINUOUS
 66
     1
 40
0.000000
 41
0.000000
  0
VERTEX
  8
0
  6
CONTINUOUS
 10
6.042960
 20
5.517600
  0
VERTEX
  8
0
  6
CONTINUOUS
 10
6.040320
 20
6.266040
  0
VERTEX
  8
0
  6
CONTINUOUS
 10
6.059680
 20
6.277920
  0
VERTEX
  8
0
  6
CONTINUOUS
 10
6.062320
 20
5.529480
  0
VERTEX
  8
0
  6
CONTINUOUS
 10
6.042960
 20
5.517600
  0
SEQEND
  8
0
  0
SOLID
  8
0
 62
    15
 10
6.062320
 20
5.529480
 11
6.059680
 21
6.277920
 12
6.083000
 22
5.537840
 13
6.080360
 23
6.286280
  0
POLYLINE
  8
0
  6
CONTINUOUS
 66
     1
 40
0.000000
 41
0.000000
  0
VERTEX
  8
0
  6
CONTINUOUS
 10
6.062320
 20
5.529480
  0
VERTEX
  8
0
  6
CONTINUOUS
 10
6.059680
 20
6.277920
  0
VERTEX
  8
0
  6
CONTINUOUS
 10
6.080360
 20
6.286280
  0
VERTEX
  8
0
  6
CONTINUOUS
 10
6.083000
 20
5.537840
  0
VERTEX
  8
0
  6
CONTINUOUS
 10
6.062320
 20
5.529480
  0
SEQEND
  8
0
  0
SOLID
  8
0
 62
    15
 10
6.083000
 20
5.537840
 11
6.080360
 21
6.286280
 12
6.105440
 22
5.543560
 13
6.102800
 23
6.292000
  0
POLYLINE
  8
0
  6
CONTINUOUS
 66
     1
 40
0.000000
 41
0.000000
  0
VERTEX
  8
0
  6
CONTINUOUS
 10
6.083000
 20
5.537840
  0
VERTEX
  8
0
  6
CONTINUOUS
 10
6.080360
 20
6.286280
  0
VERTEX
  8
0
  6
CONTINUOUS
 10
6.102800
 20
6.292000
  0
VERTEX
  8
0
  6
CONTINUOUS
 10
6.105440
 20
5.543560
  0
VERTEX
  8
0
  6
CONTINUOUS
 10
6.083000
 20
5.537840
  0
SEQEND
  8
0
  0
SOLID
  8
0
 62
    15
 10
6.105440
 20
5.543560
 11
6.102800
 21
6.292000
 12
6.129200
 22
5.545320
 13
6.126560
 23
6.293760
  0
POLYLINE
  8
0
  6
CONTINUOUS
 66
     1
 40
0.000000
 41
0.000000
  0
VERTEX
  8
0
  6
CONTINUOUS
 10
6.105440
 20
5.543560
  0
VERTEX
  8
0
  6
CONTINUOUS
 10
6.102800
 20
6.292000
  0
VERTEX
  8
0
  6
CONTINUOUS
 10
6.126560
 20
6.293760
  0
VERTEX
  8
0
  6
CONTINUOUS
 10
6.129200
 20
5.545320
  0
VERTEX
  8
0
  6
CONTINUOUS
 10
6.105440
 20
5.543560
  0
SEQEND
  8
0
  0
SOLID
  8
0
 62
    15
 10
6.129200
 20
5.545320
 11
6.126560
 21
6.293760
 12
6.158680
 22
5.542240
 13
6.156040
 23
6.290680
  0
POLYLINE
  8
0
  6
CONTINUOUS
 66
     1
 40
0.000000
 41
0.000000
  0
VERTEX
  8
0
  6
CONTINUOUS
 10
6.129200
 20
5.545320
  0
VERTEX
  8
0
  6
CONTINUOUS
 10
6.126560
 20
6.293760
  0
VERTEX
  8
0
  6
CONTINUOUS
 10
6.156040
 20
6.290680
  0
VERTEX
  8
0
  6
CONTINUOUS
 10
6.158680
 20
5.542240
  0
VERTEX
  8
0
  6
CONTINUOUS
 10
6.129200
 20
5.545320
  0
SEQEND
  8
0
  0
SOLID
  8
0
 62
    15
 10
6.158680
 20
5.542240
 11
6.156040
 21
6.290680
 12
6.185960
 22
5.533880
 13
6.183320
 23
6.282320
  0
POLYLINE
  8
0
  6
CONTINUOUS
 66
     1
 40
0.000000
 41
0.000000
  0
VERTEX
  8
0
  6
CONTINUOUS
 10
6.158680
 20
5.542240
  0
VERTEX
  8
0
  6
CONTINUOUS
 10
6.156040
 20
6.290680
  0
VERTEX
  8
0
  6
CONTINUOUS
 10
6.183320
 20
6.282320
  0
VERTEX
  8
0
  6
CONTINUOUS
 10
6.185960
 20
5.533880
  0
VERTEX
  8
0
  6
CONTINUOUS
 10
6.158680
 20
5.542240
  0
SEQEND
  8
0
  0
SOLID
  8
0
 62
    15
 10
6.185960
 20
5.533880
 11
6.183320
 21
6.282320
 12
6.211040
 22
5.520240
 13
6.208400
 23
6.268680
  0
POLYLINE
  8
0
  6
CONTINUOUS
 66
     1
 40
0.000000
 41
0.000000
  0
VERTEX
  8
0
  6
CONTINUOUS
 10
6.185960
 20
5.533880
  0
VERTEX
  8
0
  6
CONTINUOUS
 10
6.183320
 20
6.282320
  0
VERTEX
  8
0
  6
CONTINUOUS
 10
6.208400
 20
6.268680
  0
VERTEX
  8
0
  6
CONTINUOUS
 10
6.211040
 20
5.520240
  0
VERTEX
  8
0
  6
CONTINUOUS
 10
6.185960
 20
5.533880
  0
SEQEND
  8
0
  0
SOLID
  8
0
 62
    15
 10
6.211040
 20
5.520240
 11
6.208400
 21
6.268680
 12
6.232600
 22
5.502200
 13
6.229960
 23
6.250640
  0
POLYLINE
  8
0
  6
CONTINUOUS
 66
     1
 40
0.000000
 41
0.000000
  0
VERTEX
  8
0
  6
CONTINUOUS
 10
6.211040
 20
5.520240
  0
VERTEX
  8
0
  6
CONTINUOUS
 10
6.208400
 20
6.268680
  0
VERTEX
  8
0
  6
CONTINUOUS
 10
6.229960
 20
6.250640
  0
VERTEX
  8
0
  6
CONTINUOUS
 10
6.232600
 20
5.502200
  0
VERTEX
  8
0
  6
CONTINUOUS
 10
6.211040
 20
5.520240
  0
SEQEND
  8
0
  0
SOLID
  8
0
 62
    15
 10
6.232600
 20
5.502200
 11
6.229960
 21
6.250640
 12
6.250640
 22
5.480640
 13
6.248000
 23
6.229080
  0
POLYLINE
  8
0
  6
CONTINUOUS
 66
     1
 40
0.000000
 41
0.000000
  0
VERTEX
  8
0
  6
CONTINUOUS
 10
6.232600
 20
5.502200
  0
VERTEX
  8
0
  6
CONTINUOUS
 10
6.229960
 20
6.250640
  0
VERTEX
  8
0
  6
CONTINUOUS
 10
6.248000
 20
6.229080
  0
VERTEX
  8
0
  6
CONTINUOUS
 10
6.250640
 20
5.480640
  0
VERTEX
  8
0
  6
CONTINUOUS
 10
6.232600
 20
5.502200
  0
SEQEND
  8
0
  0
SOLID
  8
0
 62
    15
 10
6.250640
 20
5.480640
 11
6.248000
 21
6.229080
 12
6.264280
 22
5.455560
 13
6.261640
 23
6.204000
  0
POLYLINE
  8
0
  6
CONTINUOUS
 66
     1
 40
0.000000
 41
0.000000
  0
VERTEX
  8
0
  6
CONTINUOUS
 10
6.250640
 20
5.480640
  0
VERTEX
  8
0
  6
CONTINUOUS
 10
6.248000
 20
6.229080
  0
VERTEX
  8
0
  6
CONTINUOUS
 10
6.261640
 20
6.204000
  0
VERTEX
  8
0
  6
CONTINUOUS
 10
6.264280
 20
5.455560
  0
VERTEX
  8
0
  6
CONTINUOUS
 10
6.250640
 20
5.480640
  0
SEQEND
  8
0
  0
SOLID
  8
0
 62
    15
 10
6.272640
 20
5.428280
 11
6.270000
 21
6.176720
 12
6.275720
 22
5.398360
 13
6.273080
 23
6.147240
  0
POLYLINE
  8
0
  6
CONTINUOUS
 66
     1
 40
0.000000
 41
0.000000
  0
VERTEX
  8
0
  6
CONTINUOUS
 10
6.272640
 20
5.428280
  0
VERTEX
  8
0
  6
CONTINUOUS
 10
6.270000
 20
6.176720
  0
VERTEX
  8
0
  6
CONTINUOUS
 10
6.273080
 20
6.147240
  0
VERTEX
  8
0
  6
CONTINUOUS
 10
6.275720
 20
5.398360
  0
VERTEX
  8
0
  6
CONTINUOUS
 10
6.272640
 20
5.428280
  0
SEQEND
  8
0
  0
SOLID
  8
0
 62
    15
 10
6.264280
 20
5.455560
 11
6.261640
 21
6.204000
 12
6.272640
 22
5.428280
 13
6.270000
 23
6.176720
  0
POLYLINE
  8
0
  6
CONTINUOUS
 66
     1
 40
0.000000
 41
0.000000
  0
VERTEX
  8
0
  6
CONTINUOUS
 10
6.264280
 20
5.455560
  0
VERTEX
  8
0
  6
CONTINUOUS
 10
6.261640
 20
6.204000
  0
VERTEX
  8
0
  6
CONTINUOUS
 10
6.270000
 20
6.176720
  0
VERTEX
  8
0
  6
CONTINUOUS
 10
6.272640
 20
5.428280
  0
VERTEX
  8
0
  6
CONTINUOUS
 10
6.264280
 20
5.455560
  0
SEQEND
  8
0
  0
POLYLINE
  8
0
  6
CONTINUOUS
 66
     1
 40
0.000000
 41
0.000000
  0
VERTEX
  8
0
  6
CONTINUOUS
 10
6.275720
 20
5.398360
  0
VERTEX
  8
0
  6
CONTINUOUS
 10
6.275720
 20
5.143600
  0
VERTEX
  8
0
  6
CONTINUOUS
 10
2.511520
 20
5.143600
  0
VERTEX
  8
0
  6
CONTINUOUS
 10
2.511520
 20
5.897320
  0
VERTEX
  8
0
  6
CONTINUOUS
 10
3.276680
 20
5.897320
  0
VERTEX
  8
0
  6
CONTINUOUS
 10
3.286800
 20
5.771040
  0
VERTEX
  8
0
  6
CONTINUOUS
 10
3.303960
 20
5.771920
  0
VERTEX
  8
0
  6
CONTINUOUS
 10
3.319800
 20
5.801400
  0
VERTEX
  8
0
  6
CONTINUOUS
 10
3.340040
 20
5.823400
  0
VERTEX
  8
0
  6
CONTINUOUS
 10
3.363800
 20
5.838800
  0
VERTEX
  8
0
  6
CONTINUOUS
 10
3.390640
 20
5.848040
  0
VERTEX
  8
0
  6
CONTINUOUS
 10
3.420120
 20
5.851560
  0
VERTEX
  8
0
  6
CONTINUOUS
 10
3.450920
 20
5.850680
  0
VERTEX
  8
0
  6
CONTINUOUS
 10
3.515160
 20
5.836600
  0
VERTEX
  8
0
  6
CONTINUOUS
 10
3.578960
 20
5.811080
  0
VERTEX
  8
0
  6
CONTINUOUS
 10
3.637480
 20
5.780280
  0
VERTEX
  8
0
  6
CONTINUOUS
 10
3.685000
 20
5.749040
  0
VERTEX
  8
0
  6
CONTINUOUS
 10
3.703480
 20
5.734960
  0
VERTEX
  8
0
  6
CONTINUOUS
 10
3.717560
 20
5.722640
  0
VERTEX
  8
0
  6
CONTINUOUS
 10
3.742200
 20
5.701960
  0
VERTEX
  8
0
  6
CONTINUOUS
 10
3.769920
 20
5.683480
  0
VERTEX
  8
0
  6
CONTINUOUS
 10
3.800720
 20
5.667200
  0
VERTEX
  8
0
  6
CONTINUOUS
 10
3.834600
 20
5.653120
  0
VERTEX
  8
0
  6
CONTINUOUS
 10
3.909840
 20
5.631560
  0
VERTEX
  8
0
  6
CONTINUOUS
 10
3.995200
 20
5.618800
  0
VERTEX
  8
0
  6
CONTINUOUS
 10
4.022040
 20
5.551040
  0
VERTEX
  8
0
  6
CONTINUOUS
 10
5.938680
 20
5.551040
  0
VERTEX
  8
0
  6
CONTINUOUS
 10
5.972120
 20
5.447200
  0
VERTEX
  8
0
  6
CONTINUOUS
 10
5.990600
 20
5.446760
  0
VERTEX
  8
0
  6
CONTINUOUS
 10
5.999400
 20
5.467440
  0
VERTEX
  8
0
  6
CONTINUOUS
 10
6.011280
 20
5.486360
  0
VERTEX
  8
0
  6
CONTINUOUS
 10
6.042960
 20
5.517600
  0
VERTEX
  8
0
  6
CONTINUOUS
 10
6.062320
 20
5.529480
  0
VERTEX
  8
0
  6
CONTINUOUS
 10
6.083000
 20
5.537840
  0
VERTEX
  8
0
  6
CONTINUOUS
 10
6.105440
 20
5.543560
  0
VERTEX
  8
0
  6
CONTINUOUS
 10
6.129200
 20
5.545320
  0
VERTEX
  8
0
  6
CONTINUOUS
 10
6.158680
 20
5.542240
  0
VERTEX
  8
0
  6
CONTINUOUS
 10
6.185960
 20
5.533880
  0
VERTEX
  8
0
  6
CONTINUOUS
 10
6.211040
 20
5.520240
  0
VERTEX
  8
0
  6
CONTINUOUS
 10
6.232600
 20
5.502200
  0
VERTEX
  8
0
  6
CONTINUOUS
 10
6.250640
 20
5.480640
  0
VERTEX
  8
0
  6
CONTINUOUS
 10
6.264280
 20
5.455560
  0
VERTEX
  8
0
  6
CONTINUOUS
 10
6.272640
 20
5.428280
  0
VERTEX
  8
0
  6
CONTINUOUS
 10
6.275720
 20
5.398360
  0
SEQEND
  8
0
  0
TEXT
  8
0
 10
4.051080
 20
4.851880
 40
0.138022
  1
BA  1196
 41
1.000000
  7
SN0
 71
     0
 72
     5
 11
4.733529
 21
4.851880
  0
TEXT
  8
0
 10
3.895320
 20
4.660480
 40
0.138022
  1
3/4" x 3 - 3/4"
 41
1.000000
  7
SN0
 71
     0
 72
     5
 11
4.888089
 21
4.660480
  0
POLYLINE
  8
0
  6
CONTINUOUS
 66
     1
 40
0.014080
 41
0.014080
  0
VERTEX
  8
0
  6
CONTINUOUS
 10
6.274400
 20
7.583400
  0
VERTEX
  8
0
  6
CONTINUOUS
 10
6.271320
 20
7.612880
  0
VERTEX
  8
0
  6
CONTINUOUS
 10
6.262960
 20
7.640600
  0
VERTEX
  8
0
  6
CONTINUOUS
 10
6.249320
 20
7.665240
  0
VERTEX
  8
0
  6
CONTINUOUS
 10
6.231720
 20
7.686800
  0
VERTEX
  8
0
  6
CONTINUOUS
 10
6.209720
 20
7.704840
  0
VERTEX
  8
0
  6
CONTINUOUS
 10
6.185080
 20
7.718480
  0
VERTEX
  8
0
  6
CONTINUOUS
 10
6.157360
 20
7.726840
  0
VERTEX
  8
0
  6
CONTINUOUS
 10
6.127880
 20
7.729920
  0
VERTEX
  8
0
  6
CONTINUOUS
 10
6.104120
 20
7.728160
  0
VERTEX
  8
0
  6
CONTINUOUS
 10
6.082120
 20
7.722440
  0
VERTEX
  8
0
  6
CONTINUOUS
 10
6.061000
 20
7.714080
  0
VERTEX
  8
0
  6
CONTINUOUS
 10
6.033280
 20
7.695600
  0
VERTEX
  8
0
  6
CONTINUOUS
 10
6.010400
 20
7.670960
  0
VERTEX
  8
0
  6
CONTINUOUS
 10
5.998080
 20
7.652040
  0
VERTEX
  8
0
  6
CONTINUOUS
 10
5.989280
 20
7.631360
  0
VERTEX
  8
0
  6
CONTINUOUS
 10
5.970800
 20
7.632240
  0
VERTEX
  8
0
  6
CONTINUOUS
 10
5.937360
 20
7.736080
  0
VERTEX
  8
0
  6
CONTINUOUS
 10
4.020720
 20
7.736080
  0
VERTEX
  8
0
  6
CONTINUOUS
 10
3.993880
 20
7.803840
  0
VERTEX
  8
0
  6
CONTINUOUS
 10
3.950320
 20
7.809120
  0
VERTEX
  8
0
  6
CONTINUOUS
 10
3.889160
 20
7.821000
  0
VERTEX
  8
0
  6
CONTINUOUS
 10
3.833280
 20
7.837720
  0
VERTEX
  8
0
  6
CONTINUOUS
 10
3.783560
 20
7.859720
  0
VERTEX
  8
0
  6
CONTINUOUS
 10
3.740880
 20
7.887000
  0
VERTEX
  8
0
  6
CONTINUOUS
 10
3.684120
 20
7.933640
  0
VERTEX
  8
0
  6
CONTINUOUS
 10
3.636160
 20
7.964880
  0
VERTEX
  8
0
  6
CONTINUOUS
 10
3.608000
 20
7.980720
  0
VERTEX
  8
0
  6
CONTINUOUS
 10
3.546400
 20
8.009320
  0
VERTEX
  8
0
  6
CONTINUOUS
 10
3.513840
 20
8.021200
  0
VERTEX
  8
0
  6
CONTINUOUS
 10
3.465440
 20
8.033080
  0
VERTEX
  8
0
  6
CONTINUOUS
 10
3.433760
 20
8.036160
  0
VERTEX
  8
0
  6
CONTINUOUS
 10
3.403840
 20
8.035280
  0
VERTEX
  8
0
  6
CONTINUOUS
 10
3.375680
 20
8.028680
  0
VERTEX
  8
0
  6
CONTINUOUS
 10
3.350160
 20
8.016800
  0
VERTEX
  8
0
  6
CONTINUOUS
 10
3.328160
 20
7.997880
  0
VERTEX
  8
0
  6
CONTINUOUS
 10
3.318480
 20
7.986000
  0
VERTEX
  8
0
  6
CONTINUOUS
 10
3.310120
 20
7.972360
  0
VERTEX
  8
0
  6
CONTINUOUS
 10
3.302640
 20
7.956520
  0
VERTEX
  8
0
  6
CONTINUOUS
 10
3.285480
 20
7.956080
  0
VERTEX
  8
0
  6
CONTINUOUS
 10
3.275360
 20
8.081920
  0
VERTEX
  8
0
  6
CONTINUOUS
 10
2.510200
 20
8.081920
  0
VERTEX
  8
0
  6
CONTINUOUS
 10
2.510200
 20
7.328200
  0
VERTEX
  8
0
  6
CONTINUOUS
 10
6.274400
 20
7.328200
  0
VERTEX
  8
0
  6
CONTINUOUS
 10
6.274400
 20
7.583400
  0
SEQEND
  8
0
  0
TEXT
  8
0
 10
2.926440
 20
7.619040
 40
0.138022
  1
BA  1196
 41
1.000000
  7
SN0
 71
     0
 72
     5
 11
3.608889
 21
7.619040
  0
TEXT
  8
0
 10
2.770680
 20
7.427200
 40
0.138022
  1
3/4" x 3 - 3/4"
 41
1.000000
  7
SN0
 71
     0
 72
     5
 11
3.763449
 21
7.427200
  0
ENDSEC
  0
EOF
