  0
SECTION
  2
HEADER
  9
$ACADVER
  1
AC1006
  9
$EXTMIN
 10
2.333320
 20
1.473120
  9
$EXTMAX
 10
6.510680
 20
8.924520
  9
$LTSCALE
 40
0.044000
  9
$PDMODE
 70
    35
  9
$PDSIZE
 40
0.035200
  0
ENDSEC
  0
SECTION
  2
TABLES
  0
TABLE
  2
LTYPE
 70
     9
  0
LTYPE
  2
CONTINUOUS
 70
    64
  3
Solid line
 72
    65
 73
     0
 40
0.000000
  0
LTYPE
  2
DASHED
 70
    64
  3
__ __ __ __ __ __ __ __ __ __ __ __ __ __ __
 72
    65
 73
     2
 40
0.000330
 49
0.000220
 49
-0.000110
  0
LTYPE
  2
HIDDEN
 70
    64
  3
 _ _ _ _ _ _ _ _ _ _ _ _ _ _ _ _ _ _ _ _ _ _
 72
    65
 73
     2
 40
0.000165
 49
0.000110
 49
-0.000055
  0
LTYPE
  2
CENTER
 70
    64
  3
____ _ ____ _ ____ _ ____ _ ____ _ ____ _ ____
 72
    65
 73
     4
 40
0.000880
 49
0.000550
 49
-0.000110
 49
0.000110
 49
-0.000110
  0
LTYPE
  2
PHANTOM
 70
    64
  3
_____ _ _ _____ _ _ _____ _ _ _____ _ _ ____
 72
    65
 73
     6
 40
0.001100
 49
0.000550
 49
-0.000110
 49
0.000110
 49
-0.000110
 49
0.000110
 49
-0.000110
  0
LTYPE
  2
DOT
 70
    64
  3
...............................................
 72
    65
 73
     2
 40
0.000110
 49
0.000000
 49
-0.000110
  0
LTYPE
  2
DASHDOT
 70
    64
  3
__ . __ . __ . __ . __ . __ . __ . __ . __ . __
 72
    65
 73
     4
 40
0.000440
 49
0.000220
 49
-0.000110
 49
0.000000
 49
-0.000110
  0
LTYPE
  2
BORDER
 70
    64
  3
__ __ . __ __ . __ __ . __ __ . __ __ . __ __
 72
    65
 73
     6
 40
0.000770
 49
0.000220
 49
-0.000110
 49
0.000220
 49
-0.000110
 49
0.000000
 49
-0.000110
  0
LTYPE
  2
DIVIDE
 70
    64
  3
__ . . __ . . __ . . __ . . __ . . __ . . __
 72
    65
 73
     6
 40
0.000550
 49
0.000220
 49
-0.000110
 49
0.000000
 49
-0.000110
 49
0.000000
 49
-0.000110
  0
LTYPE
  2
DOTDOT
 70
    64
  3
 . .  . .  . .  . .  . .  . . 
 72
    65
 73
     5
 40
0.000242
 49
-0.000110
 49
0.000000
 49
-0.000110
 49
0.000000
 49
-0.000110
  0
ENDTAB
  0
TABLE
  2
STYLE
 70
     2
  0
STYLE
 70
     0
  2
SN0
 40
0.000000
 41
0.000440
 50
0.000000
 71
     0
 42
0.000000
  3
ROMAND
  0
STYLE
 70
    68
  2
SV0
 40
0.000000
 41
0.000440
 50
0.000000
 71
     0
 42
0.000000
  3
ROMAND
  0
ENDTAB
  0
TABLE
  2
LAYER
 70
     3
  0
LAYER
  2
FOREGROUND
 70
    64
 62
     7
  6
CONTINUOUS
  0
LAYER
  2
BACKGROUND
 70
    65
 62
    -7
  6
CONTINUOUS
  0
LAYER
  2
0
 70
    64
 62
     7
  6
CONTINUOUS
  0
ENDTAB
  0
ENDSEC
  0
SECTION
  2
ENTITIES
  0
POLYLINE
  8
FOREGROUND
  6
CONTINUOUS
 66
     1
 40
0.000000
 41
0.000000
  0
VERTEX
  8
FOREGROUND
  6
CONTINUOUS
 10
0.000000
 20
10.397640
  0
VERTEX
  8
FOREGROUND
  6
CONTINUOUS
 10
8.499920
 20
10.397640
  0
VERTEX
  8
FOREGROUND
  6
CONTINUOUS
 10
8.499920
 20
-0.602360
  0
VERTEX
  8
FOREGROUND
  6
CONTINUOUS
 10
0.000000
 20
-0.602360
  0
VERTEX
  8
FOREGROUND
  6
CONTINUOUS
 10
0.000000
 20
10.397640
  0
SEQEND
  8
0
  0
POLYLINE
  8
FOREGROUND
  6
CONTINUOUS
 66
     1
 40
0.000000
 41
0.000000
  0
VERTEX
  8
FOREGROUND
  6
CONTINUOUS
 10
0.000000
 20
10.397640
  0
VERTEX
  8
FOREGROUND
  6
CONTINUOUS
 10
8.499920
 20
10.397640
  0
VERTEX
  8
FOREGROUND
  6
CONTINUOUS
 10
8.499920
 20
-0.602360
  0
VERTEX
  8
FOREGROUND
  6
CONTINUOUS
 10
0.000000
 20
-0.602360
  0
VERTEX
  8
FOREGROUND
  6
CONTINUOUS
 10
0.000000
 20
10.397640
  0
SEQEND
  8
0
  0
POLYLINE
  8
0
  6
CONTINUOUS
 66
     1
 40
0.000000
 41
0.000000
  0
VERTEX
  8
0
  6
CONTINUOUS
 10
2.340800
 20
3.182520
  0
VERTEX
  8
0
  6
CONTINUOUS
 10
6.503200
 20
3.182520
  0
VERTEX
  8
0
  6
CONTINUOUS
 10
6.502760
 20
3.897960
  0
VERTEX
  8
0
  6
CONTINUOUS
 10
6.498800
 20
3.935360
  0
VERTEX
  8
0
  6
CONTINUOUS
 10
6.491320
 20
3.971880
  0
VERTEX
  8
0
  6
CONTINUOUS
 10
6.480320
 20
4.007080
  0
VERTEX
  8
0
  6
CONTINUOUS
 10
6.458320
 20
4.056360
  0
VERTEX
  8
0
  6
CONTINUOUS
 10
6.428840
 20
4.102120
  0
VERTEX
  8
0
  6
CONTINUOUS
 10
6.405960
 20
4.129400
  0
VERTEX
  8
0
  6
CONTINUOUS
 10
6.380880
 20
4.154920
  0
VERTEX
  8
0
  6
CONTINUOUS
 10
6.338640
 20
4.188360
  0
VERTEX
  8
0
  6
CONTINUOUS
 10
6.291560
 20
4.215200
  0
VERTEX
  8
0
  6
CONTINUOUS
 10
6.258120
 20
4.229280
  0
VERTEX
  8
0
  6
CONTINUOUS
 10
6.222920
 20
4.240280
  0
VERTEX
  8
0
  6
CONTINUOUS
 10
6.186400
 20
4.247760
  0
VERTEX
  8
0
  6
CONTINUOUS
 10
6.149000
 20
4.251720
  0
VERTEX
  8
0
  6
CONTINUOUS
 10
6.110280
 20
4.251720
  0
VERTEX
  8
0
  6
CONTINUOUS
 10
6.072880
 20
4.247760
  0
VERTEX
  8
0
  6
CONTINUOUS
 10
6.036360
 20
4.240280
  0
VERTEX
  8
0
  6
CONTINUOUS
 10
6.001160
 20
4.229280
  0
VERTEX
  8
0
  6
CONTINUOUS
 10
5.967720
 20
4.215200
  0
VERTEX
  8
0
  6
CONTINUOUS
 10
5.920640
 20
4.188360
  0
VERTEX
  8
0
  6
CONTINUOUS
 10
5.878400
 20
4.154920
  0
VERTEX
  8
0
  6
CONTINUOUS
 10
5.841440
 20
4.116200
  0
VERTEX
  8
0
  6
CONTINUOUS
 10
5.810200
 20
4.072200
  0
VERTEX
  8
0
  6
CONTINUOUS
 10
5.793040
 20
4.040520
  0
VERTEX
  8
0
  6
CONTINUOUS
 10
5.772800
 20
3.989480
  0
VERTEX
  8
0
  6
CONTINUOUS
 10
5.763560
 20
3.953840
  0
VERTEX
  8
0
  6
CONTINUOUS
 10
5.757840
 20
3.916880
  0
VERTEX
  8
0
  6
CONTINUOUS
 10
5.756080
 20
3.878600
  0
VERTEX
  8
0
  6
CONTINUOUS
 10
5.639920
 20
3.878600
  0
VERTEX
  8
0
  6
CONTINUOUS
 10
5.639920
 20
4.047560
  0
VERTEX
  8
0
  6
CONTINUOUS
 10
3.840320
 20
4.047560
  0
VERTEX
  8
0
  6
CONTINUOUS
 10
3.833280
 20
4.018080
  0
VERTEX
  8
0
  6
CONTINUOUS
 10
3.811280
 20
3.958680
  0
VERTEX
  8
0
  6
CONTINUOUS
 10
3.779600
 20
3.899280
  0
VERTEX
  8
0
  6
CONTINUOUS
 10
3.738680
 20
3.840320
  0
VERTEX
  8
0
  6
CONTINUOUS
 10
3.688960
 20
3.783120
  0
VERTEX
  8
0
  6
CONTINUOUS
 10
3.661240
 20
3.754960
  0
VERTEX
  8
0
  6
CONTINUOUS
 10
3.631320
 20
3.727680
  0
VERTEX
  8
0
  6
CONTINUOUS
 10
3.565760
 20
3.675760
  0
VERTEX
  8
0
  6
CONTINUOUS
 10
3.530120
 20
3.650680
  0
VERTEX
  8
0
  6
CONTINUOUS
 10
3.454000
 20
3.604040
  0
VERTEX
  8
0
  6
CONTINUOUS
 10
3.371280
 20
3.562240
  0
VERTEX
  8
0
  6
CONTINUOUS
 10
3.282400
 20
3.525720
  0
VERTEX
  8
0
  6
CONTINUOUS
 10
3.235760
 20
3.509880
  0
VERTEX
  8
0
  6
CONTINUOUS
 10
3.138960
 20
3.483040
  0
VERTEX
  8
0
  6
CONTINUOUS
 10
3.088360
 20
3.472480
  0
VERTEX
  8
0
  6
CONTINUOUS
 10
3.036880
 20
3.463680
  0
VERTEX
  8
0
  6
CONTINUOUS
 10
2.984520
 20
3.456640
  0
VERTEX
  8
0
  6
CONTINUOUS
 10
2.930840
 20
3.451800
  0
VERTEX
  8
0
  6
CONTINUOUS
 10
2.848560
 20
3.449160
  0
VERTEX
  8
0
  6
CONTINUOUS
 10
2.792680
 20
3.450040
  0
VERTEX
  8
0
  6
CONTINUOUS
 10
2.736360
 20
3.453560
  0
VERTEX
  8
0
  6
CONTINUOUS
 10
2.649680
 20
3.463240
  0
VERTEX
  8
0
  6
CONTINUOUS
 10
2.649680
 20
3.486560
  0
VERTEX
  8
0
  6
CONTINUOUS
 10
2.647480
 20
3.508560
  0
VERTEX
  8
0
  6
CONTINUOUS
 10
2.639120
 20
3.547720
  0
VERTEX
  8
0
  6
CONTINUOUS
 10
2.624600
 20
3.580720
  0
VERTEX
  8
0
  6
CONTINUOUS
 10
2.605240
 20
3.608000
  0
VERTEX
  8
0
  6
CONTINUOUS
 10
2.581920
 20
3.629120
  0
VERTEX
  8
0
  6
CONTINUOUS
 10
2.555960
 20
3.644520
  0
VERTEX
  8
0
  6
CONTINUOUS
 10
2.541880
 20
3.649800
  0
VERTEX
  8
0
  6
CONTINUOUS
 10
2.513280
 20
3.655960
  0
VERTEX
  8
0
  6
CONTINUOUS
 10
2.498760
 20
3.656840
  0
VERTEX
  8
0
  6
CONTINUOUS
 10
2.469280
 20
3.653760
  0
VERTEX
  8
0
  6
CONTINUOUS
 10
2.454760
 20
3.650240
  0
VERTEX
  8
0
  6
CONTINUOUS
 10
2.427040
 20
3.638360
  0
VERTEX
  8
0
  6
CONTINUOUS
 10
2.401960
 20
3.620320
  0
VERTEX
  8
0
  6
CONTINUOUS
 10
2.379520
 20
3.596560
  0
VERTEX
  8
0
  6
CONTINUOUS
 10
2.361480
 20
3.567080
  0
VERTEX
  8
0
  6
CONTINUOUS
 10
2.354440
 20
3.549920
  0
VERTEX
  8
0
  6
CONTINUOUS
 10
2.344320
 20
3.511200
  0
VERTEX
  8
0
  6
CONTINUOUS
 10
2.341680
 20
3.489200
  0
VERTEX
  8
0
  6
CONTINUOUS
 10
2.340800
 20
3.466320
  0
VERTEX
  8
0
  6
CONTINUOUS
 10
2.340800
 20
3.182520
  0
SEQEND
  8
0
  0
POLYLINE
  8
0
  6
CONTINUOUS
 66
     1
 40
0.000000
 41
0.000000
  0
VERTEX
  8
0
  6
CONTINUOUS
 10
6.503200
 20
1.473560
  0
VERTEX
  8
0
  6
CONTINUOUS
 10
2.340800
 20
1.473560
  0
VERTEX
  8
0
  6
CONTINUOUS
 10
2.341240
 20
2.188560
  0
VERTEX
  8
0
  6
CONTINUOUS
 10
2.345200
 20
2.225960
  0
VERTEX
  8
0
  6
CONTINUOUS
 10
2.352680
 20
2.262480
  0
VERTEX
  8
0
  6
CONTINUOUS
 10
2.363680
 20
2.297680
  0
VERTEX
  8
0
  6
CONTINUOUS
 10
2.377760
 20
2.331120
  0
VERTEX
  8
0
  6
CONTINUOUS
 10
2.404600
 20
2.378200
  0
VERTEX
  8
0
  6
CONTINUOUS
 10
2.438040
 20
2.420440
  0
VERTEX
  8
0
  6
CONTINUOUS
 10
2.476760
 20
2.457400
  0
VERTEX
  8
0
  6
CONTINUOUS
 10
2.520760
 20
2.488640
  0
VERTEX
  8
0
  6
CONTINUOUS
 10
2.552440
 20
2.505800
  0
VERTEX
  8
0
  6
CONTINUOUS
 10
2.603480
 20
2.526040
  0
VERTEX
  8
0
  6
CONTINUOUS
 10
2.639120
 20
2.535280
  0
VERTEX
  8
0
  6
CONTINUOUS
 10
2.676080
 20
2.541000
  0
VERTEX
  8
0
  6
CONTINUOUS
 10
2.714360
 20
2.542760
  0
VERTEX
  8
0
  6
CONTINUOUS
 10
2.752640
 20
2.541000
  0
VERTEX
  8
0
  6
CONTINUOUS
 10
2.789600
 20
2.535280
  0
VERTEX
  8
0
  6
CONTINUOUS
 10
2.825680
 20
2.526040
  0
VERTEX
  8
0
  6
CONTINUOUS
 10
2.860000
 20
2.513280
  0
VERTEX
  8
0
  6
CONTINUOUS
 10
2.892560
 20
2.497880
  0
VERTEX
  8
0
  6
CONTINUOUS
 10
2.923360
 20
2.478960
  0
VERTEX
  8
0
  6
CONTINUOUS
 10
2.965600
 20
2.445520
  0
VERTEX
  8
0
  6
CONTINUOUS
 10
2.991120
 20
2.420440
  0
VERTEX
  8
0
  6
CONTINUOUS
 10
3.024560
 20
2.378200
  0
VERTEX
  8
0
  6
CONTINUOUS
 10
3.051400
 20
2.331120
  0
VERTEX
  8
0
  6
CONTINUOUS
 10
3.065480
 20
2.297680
  0
VERTEX
  8
0
  6
CONTINUOUS
 10
3.076480
 20
2.262480
  0
VERTEX
  8
0
  6
CONTINUOUS
 10
3.083960
 20
2.225960
  0
VERTEX
  8
0
  6
CONTINUOUS
 10
3.087920
 20
2.188560
  0
VERTEX
  8
0
  6
CONTINUOUS
 10
3.088360
 20
2.169200
  0
VERTEX
  8
0
  6
CONTINUOUS
 10
3.204520
 20
2.169200
  0
VERTEX
  8
0
  6
CONTINUOUS
 10
3.204520
 20
2.338160
  0
VERTEX
  8
0
  6
CONTINUOUS
 10
5.004120
 20
2.338160
  0
VERTEX
  8
0
  6
CONTINUOUS
 10
5.011160
 20
2.308680
  0
VERTEX
  8
0
  6
CONTINUOUS
 10
5.020840
 20
2.279200
  0
VERTEX
  8
0
  6
CONTINUOUS
 10
5.033160
 20
2.249280
  0
VERTEX
  8
0
  6
CONTINUOUS
 10
5.047680
 20
2.219800
  0
VERTEX
  8
0
  6
CONTINUOUS
 10
5.064840
 20
2.189880
  0
VERTEX
  8
0
  6
CONTINUOUS
 10
5.084200
 20
2.160400
  0
VERTEX
  8
0
  6
CONTINUOUS
 10
5.129520
 20
2.102320
  0
VERTEX
  8
0
  6
CONTINUOUS
 10
5.183200
 20
2.046000
  0
VERTEX
  8
0
  6
CONTINUOUS
 10
5.244800
 20
1.992320
  0
VERTEX
  8
0
  6
CONTINUOUS
 10
5.278680
 20
1.966360
  0
VERTEX
  8
0
  6
CONTINUOUS
 10
5.351280
 20
1.917960
  0
VERTEX
  8
0
  6
CONTINUOUS
 10
5.430920
 20
1.873520
  0
VERTEX
  8
0
  6
CONTINUOUS
 10
5.516720
 20
1.834360
  0
VERTEX
  8
0
  6
CONTINUOUS
 10
5.562040
 20
1.816760
  0
VERTEX
  8
0
  6
CONTINUOUS
 10
5.656200
 20
1.786400
  0
VERTEX
  8
0
  6
CONTINUOUS
 10
5.705480
 20
1.774080
  0
VERTEX
  8
0
  6
CONTINUOUS
 10
5.755640
 20
1.763520
  0
VERTEX
  8
0
  6
CONTINUOUS
 10
5.807120
 20
1.754720
  0
VERTEX
  8
0
  6
CONTINUOUS
 10
5.859920
 20
1.747680
  0
VERTEX
  8
0
  6
CONTINUOUS
 10
5.913600
 20
1.742840
  0
VERTEX
  8
0
  6
CONTINUOUS
 10
5.995880
 20
1.740200
  0
VERTEX
  8
0
  6
CONTINUOUS
 10
6.051760
 20
1.741080
  0
VERTEX
  8
0
  6
CONTINUOUS
 10
6.108080
 20
1.744600
  0
VERTEX
  8
0
  6
CONTINUOUS
 10
6.194760
 20
1.754280
  0
VERTEX
  8
0
  6
CONTINUOUS
 10
6.194760
 20
1.777600
  0
VERTEX
  8
0
  6
CONTINUOUS
 10
6.196960
 20
1.799600
  0
VERTEX
  8
0
  6
CONTINUOUS
 10
6.200480
 20
1.819840
  0
VERTEX
  8
0
  6
CONTINUOUS
 10
6.205320
 20
1.838760
  0
VERTEX
  8
0
  6
CONTINUOUS
 10
6.211920
 20
1.855920
  0
VERTEX
  8
0
  6
CONTINUOUS
 10
6.219840
 20
1.871760
  0
VERTEX
  8
0
  6
CONTINUOUS
 10
6.239200
 20
1.899040
  0
VERTEX
  8
0
  6
CONTINUOUS
 10
6.250200
 20
1.910480
  0
VERTEX
  8
0
  6
CONTINUOUS
 10
6.275280
 20
1.928520
  0
VERTEX
  8
0
  6
CONTINUOUS
 10
6.288480
 20
1.935560
  0
VERTEX
  8
0
  6
CONTINUOUS
 10
6.302120
 20
1.940840
  0
VERTEX
  8
0
  6
CONTINUOUS
 10
6.331160
 20
1.947000
  0
VERTEX
  8
0
  6
CONTINUOUS
 10
6.345680
 20
1.947880
  0
VERTEX
  8
0
  6
CONTINUOUS
 10
6.374720
 20
1.944800
  0
VERTEX
  8
0
  6
CONTINUOUS
 10
6.389240
 20
1.941280
  0
VERTEX
  8
0
  6
CONTINUOUS
 10
6.416960
 20
1.929400
  0
VERTEX
  8
0
  6
CONTINUOUS
 10
6.442040
 20
1.911360
  0
VERTEX
  8
0
  6
CONTINUOUS
 10
6.453920
 20
1.900360
  0
VERTEX
  8
0
  6
CONTINUOUS
 10
6.474160
 20
1.873520
  0
VERTEX
  8
0
  6
CONTINUOUS
 10
6.482520
 20
1.858120
  0
VERTEX
  8
0
  6
CONTINUOUS
 10
6.489560
 20
1.840960
  0
VERTEX
  8
0
  6
CONTINUOUS
 10
6.499680
 20
1.802240
  0
VERTEX
  8
0
  6
CONTINUOUS
 10
6.502320
 20
1.780240
  0
VERTEX
  8
0
  6
CONTINUOUS
 10
6.503200
 20
1.757360
  0
VERTEX
  8
0
  6
CONTINUOUS
 10
6.503200
 20
1.473560
  0
SEQEND
  8
0
  0
SOLID
  8
0
 62
    15
 10
5.388680
 20
5.793920
 11
5.392200
 21
6.552920
 12
5.471400
 22
5.752120
 13
5.474920
 23
6.511120
  0
POLYLINE
  8
0
  6
CONTINUOUS
 66
     1
 40
0.000000
 41
0.000000
  0
VERTEX
  8
0
  6
CONTINUOUS
 10
5.388680
 20
5.793920
  0
VERTEX
  8
0
  6
CONTINUOUS
 10
5.392200
 20
6.552920
  0
VERTEX
  8
0
  6
CONTINUOUS
 10
5.474920
 20
6.511120
  0
VERTEX
  8
0
  6
CONTINUOUS
 10
5.471400
 20
5.752120
  0
VERTEX
  8
0
  6
CONTINUOUS
 10
5.388680
 20
5.793920
  0
SEQEND
  8
0
  0
SOLID
  8
0
 62
    15
 10
2.346960
 20
6.143720
 11
2.350040
 21
6.902280
 12
2.368520
 22
6.213680
 13
2.372040
 23
6.972680
  0
POLYLINE
  8
0
  6
CONTINUOUS
 66
     1
 40
0.000000
 41
0.000000
  0
VERTEX
  8
0
  6
CONTINUOUS
 10
2.346960
 20
6.143720
  0
VERTEX
  8
0
  6
CONTINUOUS
 10
2.350040
 20
6.902280
  0
VERTEX
  8
0
  6
CONTINUOUS
 10
2.372040
 20
6.972680
  0
VERTEX
  8
0
  6
CONTINUOUS
 10
2.368520
 20
6.213680
  0
VERTEX
  8
0
  6
CONTINUOUS
 10
2.346960
 20
6.143720
  0
SEQEND
  8
0
  0
SOLID
  8
0
 62
    15
 10
2.368520
 20
6.213680
 11
2.372040
 21
6.972680
 12
2.403280
 22
6.277480
 13
2.406360
 23
7.036040
  0
POLYLINE
  8
0
  6
CONTINUOUS
 66
     1
 40
0.000000
 41
0.000000
  0
VERTEX
  8
0
  6
CONTINUOUS
 10
2.368520
 20
6.213680
  0
VERTEX
  8
0
  6
CONTINUOUS
 10
2.372040
 20
6.972680
  0
VERTEX
  8
0
  6
CONTINUOUS
 10
2.406360
 20
7.036040
  0
VERTEX
  8
0
  6
CONTINUOUS
 10
2.403280
 20
6.277480
  0
VERTEX
  8
0
  6
CONTINUOUS
 10
2.368520
 20
6.213680
  0
SEQEND
  8
0
  0
SOLID
  8
0
 62
    15
 10
2.403280
 20
6.277480
 11
2.406360
 21
7.036040
 12
2.448600
 22
6.332480
 13
2.452120
 23
7.091480
  0
POLYLINE
  8
0
  6
CONTINUOUS
 66
     1
 40
0.000000
 41
0.000000
  0
VERTEX
  8
0
  6
CONTINUOUS
 10
2.403280
 20
6.277480
  0
VERTEX
  8
0
  6
CONTINUOUS
 10
2.406360
 20
7.036040
  0
VERTEX
  8
0
  6
CONTINUOUS
 10
2.452120
 20
7.091480
  0
VERTEX
  8
0
  6
CONTINUOUS
 10
2.448600
 20
6.332480
  0
VERTEX
  8
0
  6
CONTINUOUS
 10
2.403280
 20
6.277480
  0
SEQEND
  8
0
  0
SOLID
  8
0
 62
    15
 10
2.448600
 20
6.332480
 11
2.452120
 21
7.091480
 12
2.504040
 22
6.378240
 13
2.507120
 23
7.136800
  0
POLYLINE
  8
0
  6
CONTINUOUS
 66
     1
 40
0.000000
 41
0.000000
  0
VERTEX
  8
0
  6
CONTINUOUS
 10
2.448600
 20
6.332480
  0
VERTEX
  8
0
  6
CONTINUOUS
 10
2.452120
 20
7.091480
  0
VERTEX
  8
0
  6
CONTINUOUS
 10
2.507120
 20
7.136800
  0
VERTEX
  8
0
  6
CONTINUOUS
 10
2.504040
 20
6.378240
  0
VERTEX
  8
0
  6
CONTINUOUS
 10
2.448600
 20
6.332480
  0
SEQEND
  8
0
  0
SOLID
  8
0
 62
    15
 10
2.504040
 20
6.378240
 11
2.507120
 21
7.136800
 12
2.567400
 22
6.412560
 13
2.570920
 23
7.171560
  0
POLYLINE
  8
0
  6
CONTINUOUS
 66
     1
 40
0.000000
 41
0.000000
  0
VERTEX
  8
0
  6
CONTINUOUS
 10
2.504040
 20
6.378240
  0
VERTEX
  8
0
  6
CONTINUOUS
 10
2.507120
 20
7.136800
  0
VERTEX
  8
0
  6
CONTINUOUS
 10
2.570920
 20
7.171560
  0
VERTEX
  8
0
  6
CONTINUOUS
 10
2.567400
 20
6.412560
  0
VERTEX
  8
0
  6
CONTINUOUS
 10
2.504040
 20
6.378240
  0
SEQEND
  8
0
  0
SOLID
  8
0
 62
    15
 10
2.567400
 20
6.412560
 11
2.570920
 21
7.171560
 12
2.637800
 22
6.434560
 13
2.640880
 23
7.193120
  0
POLYLINE
  8
0
  6
CONTINUOUS
 66
     1
 40
0.000000
 41
0.000000
  0
VERTEX
  8
0
  6
CONTINUOUS
 10
2.567400
 20
6.412560
  0
VERTEX
  8
0
  6
CONTINUOUS
 10
2.570920
 20
7.171560
  0
VERTEX
  8
0
  6
CONTINUOUS
 10
2.640880
 20
7.193120
  0
VERTEX
  8
0
  6
CONTINUOUS
 10
2.637800
 20
6.434560
  0
VERTEX
  8
0
  6
CONTINUOUS
 10
2.567400
 20
6.412560
  0
SEQEND
  8
0
  0
SOLID
  8
0
 62
    15
 10
2.637800
 20
6.434560
 11
2.640880
 21
7.193120
 12
2.713040
 22
6.442040
 13
2.716120
 23
7.200600
  0
POLYLINE
  8
0
  6
CONTINUOUS
 66
     1
 40
0.000000
 41
0.000000
  0
VERTEX
  8
0
  6
CONTINUOUS
 10
2.637800
 20
6.434560
  0
VERTEX
  8
0
  6
CONTINUOUS
 10
2.640880
 20
7.193120
  0
VERTEX
  8
0
  6
CONTINUOUS
 10
2.716120
 20
7.200600
  0
VERTEX
  8
0
  6
CONTINUOUS
 10
2.713040
 20
6.442040
  0
VERTEX
  8
0
  6
CONTINUOUS
 10
2.637800
 20
6.434560
  0
SEQEND
  8
0
  0
SOLID
  8
0
 62
    15
 10
2.713040
 20
6.442040
 11
2.716120
 21
7.200600
 12
2.788280
 22
6.434560
 13
2.791360
 23
7.193120
  0
POLYLINE
  8
0
  6
CONTINUOUS
 66
     1
 40
0.000000
 41
0.000000
  0
VERTEX
  8
0
  6
CONTINUOUS
 10
2.713040
 20
6.442040
  0
VERTEX
  8
0
  6
CONTINUOUS
 10
2.716120
 20
7.200600
  0
VERTEX
  8
0
  6
CONTINUOUS
 10
2.791360
 20
7.193120
  0
VERTEX
  8
0
  6
CONTINUOUS
 10
2.788280
 20
6.434560
  0
VERTEX
  8
0
  6
CONTINUOUS
 10
2.713040
 20
6.442040
  0
SEQEND
  8
0
  0
SOLID
  8
0
 62
    15
 10
2.788280
 20
6.434560
 11
2.791360
 21
7.193120
 12
2.858240
 22
6.412560
 13
2.861760
 23
7.171560
  0
POLYLINE
  8
0
  6
CONTINUOUS
 66
     1
 40
0.000000
 41
0.000000
  0
VERTEX
  8
0
  6
CONTINUOUS
 10
2.788280
 20
6.434560
  0
VERTEX
  8
0
  6
CONTINUOUS
 10
2.791360
 20
7.193120
  0
VERTEX
  8
0
  6
CONTINUOUS
 10
2.861760
 20
7.171560
  0
VERTEX
  8
0
  6
CONTINUOUS
 10
2.858240
 20
6.412560
  0
VERTEX
  8
0
  6
CONTINUOUS
 10
2.788280
 20
6.434560
  0
SEQEND
  8
0
  0
SOLID
  8
0
 62
    15
 10
2.858240
 20
6.412560
 11
2.861760
 21
7.171560
 12
2.921600
 22
6.378240
 13
2.925120
 23
7.136800
  0
POLYLINE
  8
0
  6
CONTINUOUS
 66
     1
 40
0.000000
 41
0.000000
  0
VERTEX
  8
0
  6
CONTINUOUS
 10
2.858240
 20
6.412560
  0
VERTEX
  8
0
  6
CONTINUOUS
 10
2.861760
 20
7.171560
  0
VERTEX
  8
0
  6
CONTINUOUS
 10
2.925120
 20
7.136800
  0
VERTEX
  8
0
  6
CONTINUOUS
 10
2.921600
 20
6.378240
  0
VERTEX
  8
0
  6
CONTINUOUS
 10
2.858240
 20
6.412560
  0
SEQEND
  8
0
  0
SOLID
  8
0
 62
    15
 10
2.921600
 20
6.378240
 11
2.925120
 21
7.136800
 12
2.977040
 22
6.332480
 13
2.980560
 23
7.091480
  0
POLYLINE
  8
0
  6
CONTINUOUS
 66
     1
 40
0.000000
 41
0.000000
  0
VERTEX
  8
0
  6
CONTINUOUS
 10
2.921600
 20
6.378240
  0
VERTEX
  8
0
  6
CONTINUOUS
 10
2.925120
 20
7.136800
  0
VERTEX
  8
0
  6
CONTINUOUS
 10
2.980560
 20
7.091480
  0
VERTEX
  8
0
  6
CONTINUOUS
 10
2.977040
 20
6.332480
  0
VERTEX
  8
0
  6
CONTINUOUS
 10
2.921600
 20
6.378240
  0
SEQEND
  8
0
  0
SOLID
  8
0
 62
    15
 10
2.977040
 20
6.332480
 11
2.980560
 21
7.091480
 12
3.022800
 22
6.277480
 13
3.025880
 23
7.036040
  0
POLYLINE
  8
0
  6
CONTINUOUS
 66
     1
 40
0.000000
 41
0.000000
  0
VERTEX
  8
0
  6
CONTINUOUS
 10
2.977040
 20
6.332480
  0
VERTEX
  8
0
  6
CONTINUOUS
 10
2.980560
 20
7.091480
  0
VERTEX
  8
0
  6
CONTINUOUS
 10
3.025880
 20
7.036040
  0
VERTEX
  8
0
  6
CONTINUOUS
 10
3.022800
 20
6.277480
  0
VERTEX
  8
0
  6
CONTINUOUS
 10
2.977040
 20
6.332480
  0
SEQEND
  8
0
  0
SOLID
  8
0
 62
    15
 10
3.022800
 20
6.277480
 11
3.025880
 21
7.036040
 12
3.057120
 22
6.213680
 13
3.060200
 23
6.972680
  0
POLYLINE
  8
0
  6
CONTINUOUS
 66
     1
 40
0.000000
 41
0.000000
  0
VERTEX
  8
0
  6
CONTINUOUS
 10
3.022800
 20
6.277480
  0
VERTEX
  8
0
  6
CONTINUOUS
 10
3.025880
 20
7.036040
  0
VERTEX
  8
0
  6
CONTINUOUS
 10
3.060200
 20
6.972680
  0
VERTEX
  8
0
  6
CONTINUOUS
 10
3.057120
 20
6.213680
  0
VERTEX
  8
0
  6
CONTINUOUS
 10
3.022800
 20
6.277480
  0
SEQEND
  8
0
  0
SOLID
  8
0
 62
    15
 10
3.057120
 20
6.213680
 11
3.060200
 21
6.972680
 12
3.078680
 22
6.143720
 13
3.082200
 23
6.902280
  0
POLYLINE
  8
0
  6
CONTINUOUS
 66
     1
 40
0.000000
 41
0.000000
  0
VERTEX
  8
0
  6
CONTINUOUS
 10
3.057120
 20
6.213680
  0
VERTEX
  8
0
  6
CONTINUOUS
 10
3.060200
 20
6.972680
  0
VERTEX
  8
0
  6
CONTINUOUS
 10
3.082200
 20
6.902280
  0
VERTEX
  8
0
  6
CONTINUOUS
 10
3.078680
 20
6.143720
  0
VERTEX
  8
0
  6
CONTINUOUS
 10
3.057120
 20
6.213680
  0
SEQEND
  8
0
  0
SOLID
  8
0
 62
    15
 10
3.078680
 20
6.143720
 11
3.082200
 21
6.902280
 12
3.086600
 22
6.068480
 13
3.089680
 23
6.827040
  0
POLYLINE
  8
0
  6
CONTINUOUS
 66
     1
 40
0.000000
 41
0.000000
  0
VERTEX
  8
0
  6
CONTINUOUS
 10
3.078680
 20
6.143720
  0
VERTEX
  8
0
  6
CONTINUOUS
 10
3.082200
 20
6.902280
  0
VERTEX
  8
0
  6
CONTINUOUS
 10
3.089680
 20
6.827040
  0
VERTEX
  8
0
  6
CONTINUOUS
 10
3.086600
 20
6.068480
  0
VERTEX
  8
0
  6
CONTINUOUS
 10
3.078680
 20
6.143720
  0
SEQEND
  8
0
  0
SOLID
  8
0
 62
    15
 10
3.086600
 20
6.068480
 11
3.089680
 21
6.827040
 12
3.202760
 22
6.068480
 13
3.206280
 23
6.827040
  0
POLYLINE
  8
0
  6
CONTINUOUS
 66
     1
 40
0.000000
 41
0.000000
  0
VERTEX
  8
0
  6
CONTINUOUS
 10
3.086600
 20
6.068480
  0
VERTEX
  8
0
  6
CONTINUOUS
 10
3.089680
 20
6.827040
  0
VERTEX
  8
0
  6
CONTINUOUS
 10
3.206280
 20
6.827040
  0
VERTEX
  8
0
  6
CONTINUOUS
 10
3.202760
 20
6.068480
  0
VERTEX
  8
0
  6
CONTINUOUS
 10
3.086600
 20
6.068480
  0
SEQEND
  8
0
  0
SOLID
  8
0
 62
    15
 10
3.202760
 20
6.237440
 11
3.206280
 21
6.996000
 12
5.002360
 22
6.237440
 13
5.005880
 23
6.996000
  0
POLYLINE
  8
0
  6
CONTINUOUS
 66
     1
 40
0.000000
 41
0.000000
  0
VERTEX
  8
0
  6
CONTINUOUS
 10
3.202760
 20
6.237440
  0
VERTEX
  8
0
  6
CONTINUOUS
 10
3.206280
 20
6.996000
  0
VERTEX
  8
0
  6
CONTINUOUS
 10
5.005880
 20
6.996000
  0
VERTEX
  8
0
  6
CONTINUOUS
 10
5.002360
 20
6.237440
  0
VERTEX
  8
0
  6
CONTINUOUS
 10
3.202760
 20
6.237440
  0
SEQEND
  8
0
  0
SOLID
  8
0
 62
    15
 10
5.002360
 20
6.237440
 11
5.005880
 21
6.996000
 12
5.019520
 22
6.178480
 13
5.022600
 23
6.937040
  0
POLYLINE
  8
0
  6
CONTINUOUS
 66
     1
 40
0.000000
 41
0.000000
  0
VERTEX
  8
0
  6
CONTINUOUS
 10
5.002360
 20
6.237440
  0
VERTEX
  8
0
  6
CONTINUOUS
 10
5.005880
 20
6.996000
  0
VERTEX
  8
0
  6
CONTINUOUS
 10
5.022600
 20
6.937040
  0
VERTEX
  8
0
  6
CONTINUOUS
 10
5.019520
 20
6.178480
  0
VERTEX
  8
0
  6
CONTINUOUS
 10
5.002360
 20
6.237440
  0
SEQEND
  8
0
  0
SOLID
  8
0
 62
    15
 10
5.019520
 20
6.178480
 11
5.022600
 21
6.937040
 12
5.046360
 22
6.119080
 13
5.049440
 23
6.877640
  0
POLYLINE
  8
0
  6
CONTINUOUS
 66
     1
 40
0.000000
 41
0.000000
  0
VERTEX
  8
0
  6
CONTINUOUS
 10
5.019520
 20
6.178480
  0
VERTEX
  8
0
  6
CONTINUOUS
 10
5.022600
 20
6.937040
  0
VERTEX
  8
0
  6
CONTINUOUS
 10
5.049440
 20
6.877640
  0
VERTEX
  8
0
  6
CONTINUOUS
 10
5.046360
 20
6.119080
  0
VERTEX
  8
0
  6
CONTINUOUS
 10
5.019520
 20
6.178480
  0
SEQEND
  8
0
  0
SOLID
  8
0
 62
    15
 10
5.046360
 20
6.119080
 11
5.049440
 21
6.877640
 12
5.082440
 22
6.059680
 13
5.085960
 23
6.818680
  0
POLYLINE
  8
0
  6
CONTINUOUS
 66
     1
 40
0.000000
 41
0.000000
  0
VERTEX
  8
0
  6
CONTINUOUS
 10
5.046360
 20
6.119080
  0
VERTEX
  8
0
  6
CONTINUOUS
 10
5.049440
 20
6.877640
  0
VERTEX
  8
0
  6
CONTINUOUS
 10
5.085960
 20
6.818680
  0
VERTEX
  8
0
  6
CONTINUOUS
 10
5.082440
 20
6.059680
  0
VERTEX
  8
0
  6
CONTINUOUS
 10
5.046360
 20
6.119080
  0
SEQEND
  8
0
  0
SOLID
  8
0
 62
    15
 10
5.082440
 20
6.059680
 11
5.085960
 21
6.818680
 12
5.127760
 22
6.001600
 13
5.131280
 23
6.760160
  0
POLYLINE
  8
0
  6
CONTINUOUS
 66
     1
 40
0.000000
 41
0.000000
  0
VERTEX
  8
0
  6
CONTINUOUS
 10
5.082440
 20
6.059680
  0
VERTEX
  8
0
  6
CONTINUOUS
 10
5.085960
 20
6.818680
  0
VERTEX
  8
0
  6
CONTINUOUS
 10
5.131280
 20
6.760160
  0
VERTEX
  8
0
  6
CONTINUOUS
 10
5.127760
 20
6.001600
  0
VERTEX
  8
0
  6
CONTINUOUS
 10
5.082440
 20
6.059680
  0
SEQEND
  8
0
  0
SOLID
  8
0
 62
    15
 10
5.127760
 20
6.001600
 11
5.131280
 21
6.760160
 12
5.181440
 22
5.945280
 13
5.184960
 23
6.703840
  0
POLYLINE
  8
0
  6
CONTINUOUS
 66
     1
 40
0.000000
 41
0.000000
  0
VERTEX
  8
0
  6
CONTINUOUS
 10
5.127760
 20
6.001600
  0
VERTEX
  8
0
  6
CONTINUOUS
 10
5.131280
 20
6.760160
  0
VERTEX
  8
0
  6
CONTINUOUS
 10
5.184960
 20
6.703840
  0
VERTEX
  8
0
  6
CONTINUOUS
 10
5.181440
 20
5.945280
  0
VERTEX
  8
0
  6
CONTINUOUS
 10
5.127760
 20
6.001600
  0
SEQEND
  8
0
  0
SOLID
  8
0
 62
    15
 10
5.181440
 20
5.945280
 11
5.184960
 21
6.703840
 12
5.243480
 22
5.891600
 13
5.246560
 23
6.650160
  0
POLYLINE
  8
0
  6
CONTINUOUS
 66
     1
 40
0.000000
 41
0.000000
  0
VERTEX
  8
0
  6
CONTINUOUS
 10
5.181440
 20
5.945280
  0
VERTEX
  8
0
  6
CONTINUOUS
 10
5.184960
 20
6.703840
  0
VERTEX
  8
0
  6
CONTINUOUS
 10
5.246560
 20
6.650160
  0
VERTEX
  8
0
  6
CONTINUOUS
 10
5.243480
 20
5.891600
  0
VERTEX
  8
0
  6
CONTINUOUS
 10
5.181440
 20
5.945280
  0
SEQEND
  8
0
  0
SOLID
  8
0
 62
    15
 10
5.243480
 20
5.891600
 11
5.246560
 21
6.650160
 12
5.312560
 22
5.840560
 13
5.315640
 23
6.599560
  0
POLYLINE
  8
0
  6
CONTINUOUS
 66
     1
 40
0.000000
 41
0.000000
  0
VERTEX
  8
0
  6
CONTINUOUS
 10
5.243480
 20
5.891600
  0
VERTEX
  8
0
  6
CONTINUOUS
 10
5.246560
 20
6.650160
  0
VERTEX
  8
0
  6
CONTINUOUS
 10
5.315640
 20
6.599560
  0
VERTEX
  8
0
  6
CONTINUOUS
 10
5.312560
 20
5.840560
  0
VERTEX
  8
0
  6
CONTINUOUS
 10
5.243480
 20
5.891600
  0
SEQEND
  8
0
  0
SOLID
  8
0
 62
    15
 10
5.312560
 20
5.840560
 11
5.315640
 21
6.599560
 12
5.388680
 22
5.793920
 13
5.392200
 23
6.552920
  0
POLYLINE
  8
0
  6
CONTINUOUS
 66
     1
 40
0.000000
 41
0.000000
  0
VERTEX
  8
0
  6
CONTINUOUS
 10
5.312560
 20
5.840560
  0
VERTEX
  8
0
  6
CONTINUOUS
 10
5.315640
 20
6.599560
  0
VERTEX
  8
0
  6
CONTINUOUS
 10
5.392200
 20
6.552920
  0
VERTEX
  8
0
  6
CONTINUOUS
 10
5.388680
 20
5.793920
  0
VERTEX
  8
0
  6
CONTINUOUS
 10
5.312560
 20
5.840560
  0
SEQEND
  8
0
  0
SOLID
  8
0
 62
    15
 10
2.339480
 20
6.068480
 11
2.342560
 21
6.827040
 12
2.346960
 22
6.143720
 13
2.350040
 23
6.902280
  0
POLYLINE
  8
0
  6
CONTINUOUS
 66
     1
 40
0.000000
 41
0.000000
  0
VERTEX
  8
0
  6
CONTINUOUS
 10
2.339480
 20
6.068480
  0
VERTEX
  8
0
  6
CONTINUOUS
 10
2.342560
 20
6.827040
  0
VERTEX
  8
0
  6
CONTINUOUS
 10
2.350040
 20
6.902280
  0
VERTEX
  8
0
  6
CONTINUOUS
 10
2.346960
 20
6.143720
  0
VERTEX
  8
0
  6
CONTINUOUS
 10
2.339480
 20
6.068480
  0
SEQEND
  8
0
  0
SOLID
  8
0
 62
    15
 10
5.471400
 20
5.752120
 11
5.474920
 21
6.511120
 12
5.560280
 22
5.716040
 13
5.563800
 23
6.474600
  0
POLYLINE
  8
0
  6
CONTINUOUS
 66
     1
 40
0.000000
 41
0.000000
  0
VERTEX
  8
0
  6
CONTINUOUS
 10
5.471400
 20
5.752120
  0
VERTEX
  8
0
  6
CONTINUOUS
 10
5.474920
 20
6.511120
  0
VERTEX
  8
0
  6
CONTINUOUS
 10
5.563800
 20
6.474600
  0
VERTEX
  8
0
  6
CONTINUOUS
 10
5.560280
 20
5.716040
  0
VERTEX
  8
0
  6
CONTINUOUS
 10
5.471400
 20
5.752120
  0
SEQEND
  8
0
  0
SOLID
  8
0
 62
    15
 10
5.560280
 20
5.716040
 11
5.563800
 21
6.474600
 12
5.654880
 22
5.685680
 13
5.657960
 23
6.444680
  0
POLYLINE
  8
0
  6
CONTINUOUS
 66
     1
 40
0.000000
 41
0.000000
  0
VERTEX
  8
0
  6
CONTINUOUS
 10
5.560280
 20
5.716040
  0
VERTEX
  8
0
  6
CONTINUOUS
 10
5.563800
 20
6.474600
  0
VERTEX
  8
0
  6
CONTINUOUS
 10
5.657960
 20
6.444680
  0
VERTEX
  8
0
  6
CONTINUOUS
 10
5.654880
 20
5.685680
  0
VERTEX
  8
0
  6
CONTINUOUS
 10
5.560280
 20
5.716040
  0
SEQEND
  8
0
  0
SOLID
  8
0
 62
    15
 10
5.654880
 20
5.685680
 11
5.657960
 21
6.444680
 12
5.754320
 22
5.662360
 13
5.757400
 23
6.421360
  0
POLYLINE
  8
0
  6
CONTINUOUS
 66
     1
 40
0.000000
 41
0.000000
  0
VERTEX
  8
0
  6
CONTINUOUS
 10
5.654880
 20
5.685680
  0
VERTEX
  8
0
  6
CONTINUOUS
 10
5.657960
 20
6.444680
  0
VERTEX
  8
0
  6
CONTINUOUS
 10
5.757400
 20
6.421360
  0
VERTEX
  8
0
  6
CONTINUOUS
 10
5.754320
 20
5.662360
  0
VERTEX
  8
0
  6
CONTINUOUS
 10
5.654880
 20
5.685680
  0
SEQEND
  8
0
  0
SOLID
  8
0
 62
    15
 10
5.754320
 20
5.662360
 11
5.757400
 21
6.421360
 12
5.858160
 22
5.646520
 13
5.861680
 23
6.405520
  0
POLYLINE
  8
0
  6
CONTINUOUS
 66
     1
 40
0.000000
 41
0.000000
  0
VERTEX
  8
0
  6
CONTINUOUS
 10
5.754320
 20
5.662360
  0
VERTEX
  8
0
  6
CONTINUOUS
 10
5.757400
 20
6.421360
  0
VERTEX
  8
0
  6
CONTINUOUS
 10
5.861680
 20
6.405520
  0
VERTEX
  8
0
  6
CONTINUOUS
 10
5.858160
 20
5.646520
  0
VERTEX
  8
0
  6
CONTINUOUS
 10
5.754320
 20
5.662360
  0
SEQEND
  8
0
  0
SOLID
  8
0
 62
    15
 10
5.858160
 20
5.646520
 11
5.861680
 21
6.405520
 12
5.966400
 22
5.639480
 13
5.969920
 23
6.398480
  0
POLYLINE
  8
0
  6
CONTINUOUS
 66
     1
 40
0.000000
 41
0.000000
  0
VERTEX
  8
0
  6
CONTINUOUS
 10
5.858160
 20
5.646520
  0
VERTEX
  8
0
  6
CONTINUOUS
 10
5.861680
 20
6.405520
  0
VERTEX
  8
0
  6
CONTINUOUS
 10
5.969920
 20
6.398480
  0
VERTEX
  8
0
  6
CONTINUOUS
 10
5.966400
 20
5.639480
  0
VERTEX
  8
0
  6
CONTINUOUS
 10
5.858160
 20
5.646520
  0
SEQEND
  8
0
  0
SOLID
  8
0
 62
    15
 10
5.966400
 20
5.639480
 11
5.969920
 21
6.398480
 12
6.078160
 22
5.641240
 13
6.081680
 23
6.400240
  0
POLYLINE
  8
0
  6
CONTINUOUS
 66
     1
 40
0.000000
 41
0.000000
  0
VERTEX
  8
0
  6
CONTINUOUS
 10
5.966400
 20
5.639480
  0
VERTEX
  8
0
  6
CONTINUOUS
 10
5.969920
 20
6.398480
  0
VERTEX
  8
0
  6
CONTINUOUS
 10
6.081680
 20
6.400240
  0
VERTEX
  8
0
  6
CONTINUOUS
 10
6.078160
 20
5.641240
  0
VERTEX
  8
0
  6
CONTINUOUS
 10
5.966400
 20
5.639480
  0
SEQEND
  8
0
  0
SOLID
  8
0
 62
    15
 10
6.078160
 20
5.641240
 11
6.081680
 21
6.400240
 12
6.193000
 22
5.653120
 13
6.196520
 23
6.412120
  0
POLYLINE
  8
0
  6
CONTINUOUS
 66
     1
 40
0.000000
 41
0.000000
  0
VERTEX
  8
0
  6
CONTINUOUS
 10
6.078160
 20
5.641240
  0
VERTEX
  8
0
  6
CONTINUOUS
 10
6.081680
 20
6.400240
  0
VERTEX
  8
0
  6
CONTINUOUS
 10
6.196520
 20
6.412120
  0
VERTEX
  8
0
  6
CONTINUOUS
 10
6.193000
 20
5.653120
  0
VERTEX
  8
0
  6
CONTINUOUS
 10
6.078160
 20
5.641240
  0
SEQEND
  8
0
  0
SOLID
  8
0
 62
    15
 10
6.193000
 20
5.653120
 11
6.196520
 21
6.412120
 12
6.195200
 22
5.698440
 13
6.198280
 23
6.457440
  0
POLYLINE
  8
0
  6
CONTINUOUS
 66
     1
 40
0.000000
 41
0.000000
  0
VERTEX
  8
0
  6
CONTINUOUS
 10
6.193000
 20
5.653120
  0
VERTEX
  8
0
  6
CONTINUOUS
 10
6.196520
 20
6.412120
  0
VERTEX
  8
0
  6
CONTINUOUS
 10
6.198280
 20
6.457440
  0
VERTEX
  8
0
  6
CONTINUOUS
 10
6.195200
 20
5.698440
  0
VERTEX
  8
0
  6
CONTINUOUS
 10
6.193000
 20
5.653120
  0
SEQEND
  8
0
  0
SOLID
  8
0
 62
    15
 10
6.195200
 20
5.698440
 11
6.198280
 21
6.457440
 12
6.204000
 22
5.737600
 13
6.207080
 23
6.496600
  0
POLYLINE
  8
0
  6
CONTINUOUS
 66
     1
 40
0.000000
 41
0.000000
  0
VERTEX
  8
0
  6
CONTINUOUS
 10
6.195200
 20
5.698440
  0
VERTEX
  8
0
  6
CONTINUOUS
 10
6.198280
 20
6.457440
  0
VERTEX
  8
0
  6
CONTINUOUS
 10
6.207080
 20
6.496600
  0
VERTEX
  8
0
  6
CONTINUOUS
 10
6.204000
 20
5.737600
  0
VERTEX
  8
0
  6
CONTINUOUS
 10
6.195200
 20
5.698440
  0
SEQEND
  8
0
  0
SOLID
  8
0
 62
    15
 10
6.204000
 20
5.737600
 11
6.207080
 21
6.496600
 12
6.218520
 22
5.771040
 13
6.221600
 23
6.529600
  0
POLYLINE
  8
0
  6
CONTINUOUS
 66
     1
 40
0.000000
 41
0.000000
  0
VERTEX
  8
0
  6
CONTINUOUS
 10
6.204000
 20
5.737600
  0
VERTEX
  8
0
  6
CONTINUOUS
 10
6.207080
 20
6.496600
  0
VERTEX
  8
0
  6
CONTINUOUS
 10
6.221600
 20
6.529600
  0
VERTEX
  8
0
  6
CONTINUOUS
 10
6.218520
 20
5.771040
  0
VERTEX
  8
0
  6
CONTINUOUS
 10
6.204000
 20
5.737600
  0
SEQEND
  8
0
  0
SOLID
  8
0
 62
    15
 10
6.218520
 20
5.771040
 11
6.221600
 21
6.529600
 12
6.237880
 22
5.797880
 13
6.240960
 23
6.556880
  0
POLYLINE
  8
0
  6
CONTINUOUS
 66
     1
 40
0.000000
 41
0.000000
  0
VERTEX
  8
0
  6
CONTINUOUS
 10
6.218520
 20
5.771040
  0
VERTEX
  8
0
  6
CONTINUOUS
 10
6.221600
 20
6.529600
  0
VERTEX
  8
0
  6
CONTINUOUS
 10
6.240960
 20
6.556880
  0
VERTEX
  8
0
  6
CONTINUOUS
 10
6.237880
 20
5.797880
  0
VERTEX
  8
0
  6
CONTINUOUS
 10
6.218520
 20
5.771040
  0
SEQEND
  8
0
  0
SOLID
  8
0
 62
    15
 10
6.237880
 20
5.797880
 11
6.240960
 21
6.556880
 12
6.260760
 22
5.819440
 13
6.263840
 23
6.578000
  0
POLYLINE
  8
0
  6
CONTINUOUS
 66
     1
 40
0.000000
 41
0.000000
  0
VERTEX
  8
0
  6
CONTINUOUS
 10
6.237880
 20
5.797880
  0
VERTEX
  8
0
  6
CONTINUOUS
 10
6.240960
 20
6.556880
  0
VERTEX
  8
0
  6
CONTINUOUS
 10
6.263840
 20
6.578000
  0
VERTEX
  8
0
  6
CONTINUOUS
 10
6.260760
 20
5.819440
  0
VERTEX
  8
0
  6
CONTINUOUS
 10
6.237880
 20
5.797880
  0
SEQEND
  8
0
  0
SOLID
  8
0
 62
    15
 10
6.260760
 20
5.819440
 11
6.263840
 21
6.578000
 12
6.286720
 22
5.834400
 13
6.290240
 23
6.593400
  0
POLYLINE
  8
0
  6
CONTINUOUS
 66
     1
 40
0.000000
 41
0.000000
  0
VERTEX
  8
0
  6
CONTINUOUS
 10
6.260760
 20
5.819440
  0
VERTEX
  8
0
  6
CONTINUOUS
 10
6.263840
 20
6.578000
  0
VERTEX
  8
0
  6
CONTINUOUS
 10
6.290240
 20
6.593400
  0
VERTEX
  8
0
  6
CONTINUOUS
 10
6.286720
 20
5.834400
  0
VERTEX
  8
0
  6
CONTINUOUS
 10
6.260760
 20
5.819440
  0
SEQEND
  8
0
  0
SOLID
  8
0
 62
    15
 10
6.286720
 20
5.834400
 11
6.290240
 21
6.593400
 12
6.314880
 22
5.843640
 13
6.318400
 23
6.602200
  0
POLYLINE
  8
0
  6
CONTINUOUS
 66
     1
 40
0.000000
 41
0.000000
  0
VERTEX
  8
0
  6
CONTINUOUS
 10
6.286720
 20
5.834400
  0
VERTEX
  8
0
  6
CONTINUOUS
 10
6.290240
 20
6.593400
  0
VERTEX
  8
0
  6
CONTINUOUS
 10
6.318400
 20
6.602200
  0
VERTEX
  8
0
  6
CONTINUOUS
 10
6.314880
 20
5.843640
  0
VERTEX
  8
0
  6
CONTINUOUS
 10
6.286720
 20
5.834400
  0
SEQEND
  8
0
  0
SOLID
  8
0
 62
    15
 10
6.314880
 20
5.843640
 11
6.318400
 21
6.602200
 12
6.344360
 22
5.846720
 13
6.347440
 23
6.605720
  0
POLYLINE
  8
0
  6
CONTINUOUS
 66
     1
 40
0.000000
 41
0.000000
  0
VERTEX
  8
0
  6
CONTINUOUS
 10
6.314880
 20
5.843640
  0
VERTEX
  8
0
  6
CONTINUOUS
 10
6.318400
 20
6.602200
  0
VERTEX
  8
0
  6
CONTINUOUS
 10
6.347440
 20
6.605720
  0
VERTEX
  8
0
  6
CONTINUOUS
 10
6.344360
 20
5.846720
  0
VERTEX
  8
0
  6
CONTINUOUS
 10
6.314880
 20
5.843640
  0
SEQEND
  8
0
  0
SOLID
  8
0
 62
    15
 10
6.344360
 20
5.846720
 11
6.347440
 21
6.605720
 12
6.373400
 22
5.844080
 13
6.376480
 23
6.602640
  0
POLYLINE
  8
0
  6
CONTINUOUS
 66
     1
 40
0.000000
 41
0.000000
  0
VERTEX
  8
0
  6
CONTINUOUS
 10
6.344360
 20
5.846720
  0
VERTEX
  8
0
  6
CONTINUOUS
 10
6.347440
 20
6.605720
  0
VERTEX
  8
0
  6
CONTINUOUS
 10
6.376480
 20
6.602640
  0
VERTEX
  8
0
  6
CONTINUOUS
 10
6.373400
 20
5.844080
  0
VERTEX
  8
0
  6
CONTINUOUS
 10
6.344360
 20
5.846720
  0
SEQEND
  8
0
  0
SOLID
  8
0
 62
    15
 10
6.373400
 20
5.844080
 11
6.376480
 21
6.602640
 12
6.401560
 22
5.834840
 13
6.405080
 23
6.593840
  0
POLYLINE
  8
0
  6
CONTINUOUS
 66
     1
 40
0.000000
 41
0.000000
  0
VERTEX
  8
0
  6
CONTINUOUS
 10
6.373400
 20
5.844080
  0
VERTEX
  8
0
  6
CONTINUOUS
 10
6.376480
 20
6.602640
  0
VERTEX
  8
0
  6
CONTINUOUS
 10
6.405080
 20
6.593840
  0
VERTEX
  8
0
  6
CONTINUOUS
 10
6.401560
 20
5.834840
  0
VERTEX
  8
0
  6
CONTINUOUS
 10
6.373400
 20
5.844080
  0
SEQEND
  8
0
  0
SOLID
  8
0
 62
    15
 10
6.401560
 20
5.834840
 11
6.405080
 21
6.593840
 12
6.428400
 22
5.820320
 13
6.431480
 23
6.578880
  0
POLYLINE
  8
0
  6
CONTINUOUS
 66
     1
 40
0.000000
 41
0.000000
  0
VERTEX
  8
0
  6
CONTINUOUS
 10
6.401560
 20
5.834840
  0
VERTEX
  8
0
  6
CONTINUOUS
 10
6.405080
 20
6.593840
  0
VERTEX
  8
0
  6
CONTINUOUS
 10
6.431480
 20
6.578880
  0
VERTEX
  8
0
  6
CONTINUOUS
 10
6.428400
 20
5.820320
  0
VERTEX
  8
0
  6
CONTINUOUS
 10
6.401560
 20
5.834840
  0
SEQEND
  8
0
  0
SOLID
  8
0
 62
    15
 10
6.428400
 20
5.820320
 11
6.431480
 21
6.578880
 12
6.452160
 22
5.799200
 13
6.455680
 23
6.558200
  0
POLYLINE
  8
0
  6
CONTINUOUS
 66
     1
 40
0.000000
 41
0.000000
  0
VERTEX
  8
0
  6
CONTINUOUS
 10
6.428400
 20
5.820320
  0
VERTEX
  8
0
  6
CONTINUOUS
 10
6.431480
 20
6.578880
  0
VERTEX
  8
0
  6
CONTINUOUS
 10
6.455680
 20
6.558200
  0
VERTEX
  8
0
  6
CONTINUOUS
 10
6.452160
 20
5.799200
  0
VERTEX
  8
0
  6
CONTINUOUS
 10
6.428400
 20
5.820320
  0
SEQEND
  8
0
  0
SOLID
  8
0
 62
    15
 10
6.452160
 20
5.799200
 11
6.455680
 21
6.558200
 12
6.472400
 22
5.772800
 13
6.475920
 23
6.531360
  0
POLYLINE
  8
0
  6
CONTINUOUS
 66
     1
 40
0.000000
 41
0.000000
  0
VERTEX
  8
0
  6
CONTINUOUS
 10
6.452160
 20
5.799200
  0
VERTEX
  8
0
  6
CONTINUOUS
 10
6.455680
 20
6.558200
  0
VERTEX
  8
0
  6
CONTINUOUS
 10
6.475920
 20
6.531360
  0
VERTEX
  8
0
  6
CONTINUOUS
 10
6.472400
 20
5.772800
  0
VERTEX
  8
0
  6
CONTINUOUS
 10
6.452160
 20
5.799200
  0
SEQEND
  8
0
  0
SOLID
  8
0
 62
    15
 10
6.488240
 20
5.739800
 11
6.491320
 21
6.498800
 12
6.498360
 22
5.701080
 13
6.501440
 23
6.460080
  0
POLYLINE
  8
0
  6
CONTINUOUS
 66
     1
 40
0.000000
 41
0.000000
  0
VERTEX
  8
0
  6
CONTINUOUS
 10
6.488240
 20
5.739800
  0
VERTEX
  8
0
  6
CONTINUOUS
 10
6.491320
 20
6.498800
  0
VERTEX
  8
0
  6
CONTINUOUS
 10
6.501440
 20
6.460080
  0
VERTEX
  8
0
  6
CONTINUOUS
 10
6.498360
 20
5.701080
  0
VERTEX
  8
0
  6
CONTINUOUS
 10
6.488240
 20
5.739800
  0
SEQEND
  8
0
  0
SOLID
  8
0
 62
    15
 10
6.472400
 20
5.772800
 11
6.475920
 21
6.531360
 12
6.488240
 22
5.739800
 13
6.491320
 23
6.498800
  0
POLYLINE
  8
0
  6
CONTINUOUS
 66
     1
 40
0.000000
 41
0.000000
  0
VERTEX
  8
0
  6
CONTINUOUS
 10
6.472400
 20
5.772800
  0
VERTEX
  8
0
  6
CONTINUOUS
 10
6.475920
 20
6.531360
  0
VERTEX
  8
0
  6
CONTINUOUS
 10
6.491320
 20
6.498800
  0
VERTEX
  8
0
  6
CONTINUOUS
 10
6.488240
 20
5.739800
  0
VERTEX
  8
0
  6
CONTINUOUS
 10
6.472400
 20
5.772800
  0
SEQEND
  8
0
  0
SOLID
  8
0
 62
    15
 10
6.498360
 20
5.701080
 11
6.501440
 21
6.460080
 12
6.501880
 22
5.656200
 13
6.504960
 23
6.415200
  0
POLYLINE
  8
0
  6
CONTINUOUS
 66
     1
 40
0.000000
 41
0.000000
  0
VERTEX
  8
0
  6
CONTINUOUS
 10
6.498360
 20
5.701080
  0
VERTEX
  8
0
  6
CONTINUOUS
 10
6.501440
 20
6.460080
  0
VERTEX
  8
0
  6
CONTINUOUS
 10
6.504960
 20
6.415200
  0
VERTEX
  8
0
  6
CONTINUOUS
 10
6.501880
 20
5.656200
  0
VERTEX
  8
0
  6
CONTINUOUS
 10
6.498360
 20
5.701080
  0
SEQEND
  8
0
  0
SOLID
  8
0
 62
    15
 10
6.501880
 20
5.656200
 11
6.504960
 21
6.415200
 12
6.501880
 22
5.372840
 13
6.504960
 23
6.131840
  0
POLYLINE
  8
0
  6
CONTINUOUS
 66
     1
 40
0.000000
 41
0.000000
  0
VERTEX
  8
0
  6
CONTINUOUS
 10
6.501880
 20
5.656200
  0
VERTEX
  8
0
  6
CONTINUOUS
 10
6.504960
 20
6.415200
  0
VERTEX
  8
0
  6
CONTINUOUS
 10
6.504960
 20
6.131840
  0
VERTEX
  8
0
  6
CONTINUOUS
 10
6.501880
 20
5.372840
  0
VERTEX
  8
0
  6
CONTINUOUS
 10
6.501880
 20
5.656200
  0
SEQEND
  8
0
  0
SOLID
  8
0
 62
    15
 10
6.501880
 20
5.372840
 11
6.504960
 21
6.131840
 12
6.501880
 22
5.372400
 13
6.504960
 23
6.130960
  0
POLYLINE
  8
0
  6
CONTINUOUS
 66
     1
 40
0.000000
 41
0.000000
  0
VERTEX
  8
0
  6
CONTINUOUS
 10
6.501880
 20
5.372840
  0
VERTEX
  8
0
  6
CONTINUOUS
 10
6.504960
 20
6.131840
  0
VERTEX
  8
0
  6
CONTINUOUS
 10
6.504960
 20
6.130960
  0
VERTEX
  8
0
  6
CONTINUOUS
 10
6.501880
 20
5.372400
  0
VERTEX
  8
0
  6
CONTINUOUS
 10
6.501880
 20
5.372840
  0
SEQEND
  8
0
  0
POLYLINE
  8
0
  6
CONTINUOUS
 66
     1
 40
0.000000
 41
0.000000
  0
VERTEX
  8
0
  6
CONTINUOUS
 10
6.501880
 20
5.372400
  0
VERTEX
  8
0
  6
CONTINUOUS
 10
2.339480
 20
5.372400
  0
VERTEX
  8
0
  6
CONTINUOUS
 10
2.339480
 20
6.068480
  0
VERTEX
  8
0
  6
CONTINUOUS
 10
2.346960
 20
6.143720
  0
VERTEX
  8
0
  6
CONTINUOUS
 10
2.368520
 20
6.213680
  0
VERTEX
  8
0
  6
CONTINUOUS
 10
2.403280
 20
6.277480
  0
VERTEX
  8
0
  6
CONTINUOUS
 10
2.448600
 20
6.332480
  0
VERTEX
  8
0
  6
CONTINUOUS
 10
2.504040
 20
6.378240
  0
VERTEX
  8
0
  6
CONTINUOUS
 10
2.567400
 20
6.412560
  0
VERTEX
  8
0
  6
CONTINUOUS
 10
2.637800
 20
6.434560
  0
VERTEX
  8
0
  6
CONTINUOUS
 10
2.713040
 20
6.442040
  0
VERTEX
  8
0
  6
CONTINUOUS
 10
2.788280
 20
6.434560
  0
VERTEX
  8
0
  6
CONTINUOUS
 10
2.858240
 20
6.412560
  0
VERTEX
  8
0
  6
CONTINUOUS
 10
2.921600
 20
6.378240
  0
VERTEX
  8
0
  6
CONTINUOUS
 10
2.977040
 20
6.332480
  0
VERTEX
  8
0
  6
CONTINUOUS
 10
3.022800
 20
6.277480
  0
VERTEX
  8
0
  6
CONTINUOUS
 10
3.057120
 20
6.213680
  0
VERTEX
  8
0
  6
CONTINUOUS
 10
3.078680
 20
6.143720
  0
VERTEX
  8
0
  6
CONTINUOUS
 10
3.086600
 20
6.068480
  0
VERTEX
  8
0
  6
CONTINUOUS
 10
3.202760
 20
6.068480
  0
VERTEX
  8
0
  6
CONTINUOUS
 10
3.202760
 20
6.237440
  0
VERTEX
  8
0
  6
CONTINUOUS
 10
5.002360
 20
6.237440
  0
VERTEX
  8
0
  6
CONTINUOUS
 10
5.019520
 20
6.178480
  0
VERTEX
  8
0
  6
CONTINUOUS
 10
5.046360
 20
6.119080
  0
VERTEX
  8
0
  6
CONTINUOUS
 10
5.082440
 20
6.059680
  0
VERTEX
  8
0
  6
CONTINUOUS
 10
5.127760
 20
6.001600
  0
VERTEX
  8
0
  6
CONTINUOUS
 10
5.181440
 20
5.945280
  0
VERTEX
  8
0
  6
CONTINUOUS
 10
5.243480
 20
5.891600
  0
VERTEX
  8
0
  6
CONTINUOUS
 10
5.312560
 20
5.840560
  0
VERTEX
  8
0
  6
CONTINUOUS
 10
5.388680
 20
5.793920
  0
VERTEX
  8
0
  6
CONTINUOUS
 10
5.471400
 20
5.752120
  0
VERTEX
  8
0
  6
CONTINUOUS
 10
5.560280
 20
5.716040
  0
VERTEX
  8
0
  6
CONTINUOUS
 10
5.654880
 20
5.685680
  0
VERTEX
  8
0
  6
CONTINUOUS
 10
5.754320
 20
5.662360
  0
VERTEX
  8
0
  6
CONTINUOUS
 10
5.858160
 20
5.646520
  0
VERTEX
  8
0
  6
CONTINUOUS
 10
5.966400
 20
5.639480
  0
VERTEX
  8
0
  6
CONTINUOUS
 10
6.078160
 20
5.641240
  0
VERTEX
  8
0
  6
CONTINUOUS
 10
6.193000
 20
5.653120
  0
VERTEX
  8
0
  6
CONTINUOUS
 10
6.195200
 20
5.698440
  0
VERTEX
  8
0
  6
CONTINUOUS
 10
6.204000
 20
5.737600
  0
VERTEX
  8
0
  6
CONTINUOUS
 10
6.218520
 20
5.771040
  0
VERTEX
  8
0
  6
CONTINUOUS
 10
6.237880
 20
5.797880
  0
VERTEX
  8
0
  6
CONTINUOUS
 10
6.260760
 20
5.819440
  0
VERTEX
  8
0
  6
CONTINUOUS
 10
6.286720
 20
5.834400
  0
VERTEX
  8
0
  6
CONTINUOUS
 10
6.314880
 20
5.843640
  0
VERTEX
  8
0
  6
CONTINUOUS
 10
6.344360
 20
5.846720
  0
VERTEX
  8
0
  6
CONTINUOUS
 10
6.373400
 20
5.844080
  0
VERTEX
  8
0
  6
CONTINUOUS
 10
6.401560
 20
5.834840
  0
VERTEX
  8
0
  6
CONTINUOUS
 10
6.428400
 20
5.820320
  0
VERTEX
  8
0
  6
CONTINUOUS
 10
6.452160
 20
5.799200
  0
VERTEX
  8
0
  6
CONTINUOUS
 10
6.472400
 20
5.772800
  0
VERTEX
  8
0
  6
CONTINUOUS
 10
6.488240
 20
5.739800
  0
VERTEX
  8
0
  6
CONTINUOUS
 10
6.498360
 20
5.701080
  0
VERTEX
  8
0
  6
CONTINUOUS
 10
6.501880
 20
5.656200
  0
VERTEX
  8
0
  6
CONTINUOUS
 10
6.501880
 20
5.372400
  0
SEQEND
  8
0
  0
TEXT
  8
0
 10
4.080560
 20
5.134360
 40
0.138322
  1
BA  1195
 41
1.000000
  7
SN0
 71
     0
 72
     5
 11
4.763481
 21
5.134360
  0
TEXT
  8
0
 10
3.850880
 20
4.942960
 40
0.138322
  1
1-1/16" x 4-1/8"
 41
1.000000
  7
SN0
 71
     0
 72
     5
 11
4.992434
 21
4.942960
  0
POLYLINE
  8
0
  6
CONTINUOUS
 66
     1
 40
0.014080
 41
0.014080
  0
VERTEX
  8
0
  6
CONTINUOUS
 10
6.503200
 20
7.846960
  0
VERTEX
  8
0
  6
CONTINUOUS
 10
2.340800
 20
7.846960
  0
VERTEX
  8
0
  6
CONTINUOUS
 10
2.341240
 20
8.562400
  0
VERTEX
  8
0
  6
CONTINUOUS
 10
2.345200
 20
8.599800
  0
VERTEX
  8
0
  6
CONTINUOUS
 10
2.352680
 20
8.636320
  0
VERTEX
  8
0
  6
CONTINUOUS
 10
2.363680
 20
8.671520
  0
VERTEX
  8
0
  6
CONTINUOUS
 10
2.377760
 20
8.704960
  0
VERTEX
  8
0
  6
CONTINUOUS
 10
2.404600
 20
8.752040
  0
VERTEX
  8
0
  6
CONTINUOUS
 10
2.438040
 20
8.794280
  0
VERTEX
  8
0
  6
CONTINUOUS
 10
2.476760
 20
8.831240
  0
VERTEX
  8
0
  6
CONTINUOUS
 10
2.520760
 20
8.862480
  0
VERTEX
  8
0
  6
CONTINUOUS
 10
2.552440
 20
8.879640
  0
VERTEX
  8
0
  6
CONTINUOUS
 10
2.603480
 20
8.899880
  0
VERTEX
  8
0
  6
CONTINUOUS
 10
2.639120
 20
8.909120
  0
VERTEX
  8
0
  6
CONTINUOUS
 10
2.676080
 20
8.914840
  0
VERTEX
  8
0
  6
CONTINUOUS
 10
2.714360
 20
8.916600
  0
VERTEX
  8
0
  6
CONTINUOUS
 10
2.752640
 20
8.914840
  0
VERTEX
  8
0
  6
CONTINUOUS
 10
2.789600
 20
8.909120
  0
VERTEX
  8
0
  6
CONTINUOUS
 10
2.825680
 20
8.899880
  0
VERTEX
  8
0
  6
CONTINUOUS
 10
2.860000
 20
8.887120
  0
VERTEX
  8
0
  6
CONTINUOUS
 10
2.892560
 20
8.871720
  0
VERTEX
  8
0
  6
CONTINUOUS
 10
2.923360
 20
8.852800
  0
VERTEX
  8
0
  6
CONTINUOUS
 10
2.965600
 20
8.819360
  0
VERTEX
  8
0
  6
CONTINUOUS
 10
2.991120
 20
8.794280
  0
VERTEX
  8
0
  6
CONTINUOUS
 10
3.024560
 20
8.752040
  0
VERTEX
  8
0
  6
CONTINUOUS
 10
3.051400
 20
8.704960
  0
VERTEX
  8
0
  6
CONTINUOUS
 10
3.065480
 20
8.671520
  0
VERTEX
  8
0
  6
CONTINUOUS
 10
3.076480
 20
8.636320
  0
VERTEX
  8
0
  6
CONTINUOUS
 10
3.083960
 20
8.599800
  0
VERTEX
  8
0
  6
CONTINUOUS
 10
3.087920
 20
8.562400
  0
VERTEX
  8
0
  6
CONTINUOUS
 10
3.088360
 20
8.543040
  0
VERTEX
  8
0
  6
CONTINUOUS
 10
3.204520
 20
8.543040
  0
VERTEX
  8
0
  6
CONTINUOUS
 10
3.204520
 20
8.712000
  0
VERTEX
  8
0
  6
CONTINUOUS
 10
5.004120
 20
8.712000
  0
VERTEX
  8
0
  6
CONTINUOUS
 10
5.011160
 20
8.682520
  0
VERTEX
  8
0
  6
CONTINUOUS
 10
5.020840
 20
8.653040
  0
VERTEX
  8
0
  6
CONTINUOUS
 10
5.033160
 20
8.623120
  0
VERTEX
  8
0
  6
CONTINUOUS
 10
5.047680
 20
8.593640
  0
VERTEX
  8
0
  6
CONTINUOUS
 10
5.064840
 20
8.563720
  0
VERTEX
  8
0
  6
CONTINUOUS
 10
5.084200
 20
8.534240
  0
VERTEX
  8
0
  6
CONTINUOUS
 10
5.129520
 20
8.476160
  0
VERTEX
  8
0
  6
CONTINUOUS
 10
5.183200
 20
8.419840
  0
VERTEX
  8
0
  6
CONTINUOUS
 10
5.244800
 20
8.366160
  0
VERTEX
  8
0
  6
CONTINUOUS
 10
5.278680
 20
8.340200
  0
VERTEX
  8
0
  6
CONTINUOUS
 10
5.351280
 20
8.291800
  0
VERTEX
  8
0
  6
CONTINUOUS
 10
5.430920
 20
8.247360
  0
VERTEX
  8
0
  6
CONTINUOUS
 10
5.516720
 20
8.208200
  0
VERTEX
  8
0
  6
CONTINUOUS
 10
5.562040
 20
8.190600
  0
VERTEX
  8
0
  6
CONTINUOUS
 10
5.656200
 20
8.160240
  0
VERTEX
  8
0
  6
CONTINUOUS
 10
5.705480
 20
8.147920
  0
VERTEX
  8
0
  6
CONTINUOUS
 10
5.755640
 20
8.137360
  0
VERTEX
  8
0
  6
CONTINUOUS
 10
5.807120
 20
8.128560
  0
VERTEX
  8
0
  6
CONTINUOUS
 10
5.859920
 20
8.121520
  0
VERTEX
  8
0
  6
CONTINUOUS
 10
5.913600
 20
8.116680
  0
VERTEX
  8
0
  6
CONTINUOUS
 10
5.995880
 20
8.114040
  0
VERTEX
  8
0
  6
CONTINUOUS
 10
6.051760
 20
8.114920
  0
VERTEX
  8
0
  6
CONTINUOUS
 10
6.108080
 20
8.118440
  0
VERTEX
  8
0
  6
CONTINUOUS
 10
6.194760
 20
8.128120
  0
VERTEX
  8
0
  6
CONTINUOUS
 10
6.194760
 20
8.151440
  0
VERTEX
  8
0
  6
CONTINUOUS
 10
6.196960
 20
8.173440
  0
VERTEX
  8
0
  6
CONTINUOUS
 10
6.200480
 20
8.193680
  0
VERTEX
  8
0
  6
CONTINUOUS
 10
6.205320
 20
8.212600
  0
VERTEX
  8
0
  6
CONTINUOUS
 10
6.211920
 20
8.229760
  0
VERTEX
  8
0
  6
CONTINUOUS
 10
6.219840
 20
8.245600
  0
VERTEX
  8
0
  6
CONTINUOUS
 10
6.239200
 20
8.272880
  0
VERTEX
  8
0
  6
CONTINUOUS
 10
6.250200
 20
8.284320
  0
VERTEX
  8
0
  6
CONTINUOUS
 10
6.275280
 20
8.302360
  0
VERTEX
  8
0
  6
CONTINUOUS
 10
6.288480
 20
8.309400
  0
VERTEX
  8
0
  6
CONTINUOUS
 10
6.302120
 20
8.314680
  0
VERTEX
  8
0
  6
CONTINUOUS
 10
6.331160
 20
8.320840
  0
VERTEX
  8
0
  6
CONTINUOUS
 10
6.345680
 20
8.321720
  0
VERTEX
  8
0
  6
CONTINUOUS
 10
6.374720
 20
8.318640
  0
VERTEX
  8
0
  6
CONTINUOUS
 10
6.389240
 20
8.315120
  0
VERTEX
  8
0
  6
CONTINUOUS
 10
6.416960
 20
8.303240
  0
VERTEX
  8
0
  6
CONTINUOUS
 10
6.442040
 20
8.285200
  0
VERTEX
  8
0
  6
CONTINUOUS
 10
6.453920
 20
8.274200
  0
VERTEX
  8
0
  6
CONTINUOUS
 10
6.474160
 20
8.247360
  0
VERTEX
  8
0
  6
CONTINUOUS
 10
6.482520
 20
8.231960
  0
VERTEX
  8
0
  6
CONTINUOUS
 10
6.489560
 20
8.214800
  0
VERTEX
  8
0
  6
CONTINUOUS
 10
6.499680
 20
8.176080
  0
VERTEX
  8
0
  6
CONTINUOUS
 10
6.502320
 20
8.154080
  0
VERTEX
  8
0
  6
CONTINUOUS
 10
6.503200
 20
8.131200
  0
VERTEX
  8
0
  6
CONTINUOUS
 10
6.503200
 20
7.846960
  0
SEQEND
  8
0
  0
TEXT
  8
0
 10
3.915560
 20
8.250000
 40
0.138322
  1
BA  1195
 41
1.000000
  7
SN0
 71
     0
 72
     5
 11
4.598481
 21
8.250000
  0
TEXT
  8
0
 10
3.685880
 20
8.058160
 40
0.138322
  1
1-1/16" x 4-1/8"
 41
1.000000
  7
SN0
 71
     0
 72
     5
 11
4.827434
 21
8.058160
  0
ENDSEC
  0
EOF
