  0
SECTION
  2
HEADER
  9
$ACADVER
  1
AC1006
  9
$EXTMIN
 10
3.070320
 20
2.311320
  9
$EXTMAX
 10
5.583600
 20
5.357440
  9
$LTSCALE
 40
0.044000
  9
$PDMODE
 70
    35
  9
$PDSIZE
 40
0.035200
  0
ENDSEC
  0
SECTION
  2
TABLES
  0
TABLE
  2
LTYPE
 70
     9
  0
LTYPE
  2
CONTINUOUS
 70
    64
  3
Solid line
 72
    65
 73
     0
 40
0.000000
  0
LTYPE
  2
DASHED
 70
    64
  3
__ __ __ __ __ __ __ __ __ __ __ __ __ __ __
 72
    65
 73
     2
 40
0.000330
 49
0.000220
 49
-0.000110
  0
LTYPE
  2
HIDDEN
 70
    64
  3
 _ _ _ _ _ _ _ _ _ _ _ _ _ _ _ _ _ _ _ _ _ _
 72
    65
 73
     2
 40
0.000165
 49
0.000110
 49
-0.000055
  0
LTYPE
  2
CENTER
 70
    64
  3
____ _ ____ _ ____ _ ____ _ ____ _ ____ _ ____
 72
    65
 73
     4
 40
0.000880
 49
0.000550
 49
-0.000110
 49
0.000110
 49
-0.000110
  0
LTYPE
  2
PHANTOM
 70
    64
  3
_____ _ _ _____ _ _ _____ _ _ _____ _ _ ____
 72
    65
 73
     6
 40
0.001100
 49
0.000550
 49
-0.000110
 49
0.000110
 49
-0.000110
 49
0.000110
 49
-0.000110
  0
LTYPE
  2
DOT
 70
    64
  3
...............................................
 72
    65
 73
     2
 40
0.000110
 49
0.000000
 49
-0.000110
  0
LTYPE
  2
DASHDOT
 70
    64
  3
__ . __ . __ . __ . __ . __ . __ . __ . __ . __
 72
    65
 73
     4
 40
0.000440
 49
0.000220
 49
-0.000110
 49
0.000000
 49
-0.000110
  0
LTYPE
  2
BORDER
 70
    64
  3
__ __ . __ __ . __ __ . __ __ . __ __ . __ __
 72
    65
 73
     6
 40
0.000770
 49
0.000220
 49
-0.000110
 49
0.000220
 49
-0.000110
 49
0.000000
 49
-0.000110
  0
LTYPE
  2
DIVIDE
 70
    64
  3
__ . . __ . . __ . . __ . . __ . . __ . . __
 72
    65
 73
     6
 40
0.000550
 49
0.000220
 49
-0.000110
 49
0.000000
 49
-0.000110
 49
0.000000
 49
-0.000110
  0
LTYPE
  2
DOTDOT
 70
    64
  3
 . .  . .  . .  . .  . .  . . 
 72
    65
 73
     5
 40
0.000242
 49
-0.000110
 49
0.000000
 49
-0.000110
 49
0.000000
 49
-0.000110
  0
ENDTAB
  0
TABLE
  2
STYLE
 70
     2
  0
STYLE
 70
     0
  2
SN0
 40
0.000000
 41
0.000440
 50
0.000000
 71
     0
 42
0.000000
  3
ROMAND
  0
STYLE
 70
    68
  2
SV0
 40
0.000000
 41
0.000440
 50
0.000000
 71
     0
 42
0.000000
  3
ROMAND
  0
ENDTAB
  0
TABLE
  2
LAYER
 70
     3
  0
LAYER
  2
FOREGROUND
 70
    64
 62
     7
  6
CONTINUOUS
  0
LAYER
  2
BACKGROUND
 70
    65
 62
    -7
  6
CONTINUOUS
  0
LAYER
  2
0
 70
    64
 62
     7
  6
CONTINUOUS
  0
ENDTAB
  0
ENDSEC
  0
SECTION
  2
ENTITIES
  0
POLYLINE
  8
FOREGROUND
  6
CONTINUOUS
 66
     1
 40
0.000000
 41
0.000000
  0
VERTEX
  8
FOREGROUND
  6
CONTINUOUS
 10
0.000000
 20
7.668760
  0
VERTEX
  8
FOREGROUND
  6
CONTINUOUS
 10
8.499920
 20
7.668760
  0
VERTEX
  8
FOREGROUND
  6
CONTINUOUS
 10
8.499920
 20
-3.331240
  0
VERTEX
  8
FOREGROUND
  6
CONTINUOUS
 10
0.000000
 20
-3.331240
  0
VERTEX
  8
FOREGROUND
  6
CONTINUOUS
 10
0.000000
 20
7.668760
  0
SEQEND
  8
0
  0
POLYLINE
  8
FOREGROUND
  6
CONTINUOUS
 66
     1
 40
0.000000
 41
0.000000
  0
VERTEX
  8
FOREGROUND
  6
CONTINUOUS
 10
0.000000
 20
7.668760
  0
VERTEX
  8
FOREGROUND
  6
CONTINUOUS
 10
8.499920
 20
7.668760
  0
VERTEX
  8
FOREGROUND
  6
CONTINUOUS
 10
8.499920
 20
-3.331240
  0
VERTEX
  8
FOREGROUND
  6
CONTINUOUS
 10
0.000000
 20
-3.331240
  0
VERTEX
  8
FOREGROUND
  6
CONTINUOUS
 10
0.000000
 20
7.668760
  0
SEQEND
  8
0
  0
SOLID
  8
0
 62
    15
 10
3.730320
 20
3.351480
 11
3.731200
 21
4.084960
 12
3.730320
 22
3.217720
 13
3.731200
 23
3.950760
  0
POLYLINE
  8
0
  6
CONTINUOUS
 66
     1
 40
0.000000
 41
0.000000
  0
VERTEX
  8
0
  6
CONTINUOUS
 10
3.730320
 20
3.351480
  0
VERTEX
  8
0
  6
CONTINUOUS
 10
3.731200
 20
4.084960
  0
VERTEX
  8
0
  6
CONTINUOUS
 10
3.731200
 20
3.950760
  0
VERTEX
  8
0
  6
CONTINUOUS
 10
3.730320
 20
3.217720
  0
VERTEX
  8
0
  6
CONTINUOUS
 10
3.730320
 20
3.351480
  0
SEQEND
  8
0
  0
SOLID
  8
0
 62
    15
 10
3.730320
 20
3.217720
 11
3.731200
 21
3.950760
 12
5.189360
 22
2.861320
 13
5.190240
 23
3.594800
  0
POLYLINE
  8
0
  6
CONTINUOUS
 66
     1
 40
0.000000
 41
0.000000
  0
VERTEX
  8
0
  6
CONTINUOUS
 10
3.730320
 20
3.217720
  0
VERTEX
  8
0
  6
CONTINUOUS
 10
3.731200
 20
3.950760
  0
VERTEX
  8
0
  6
CONTINUOUS
 10
5.190240
 20
3.594800
  0
VERTEX
  8
0
  6
CONTINUOUS
 10
5.189360
 20
2.861320
  0
VERTEX
  8
0
  6
CONTINUOUS
 10
3.730320
 20
3.217720
  0
SEQEND
  8
0
  0
SOLID
  8
0
 62
    15
 10
5.569080
 20
2.861320
 11
5.569960
 21
3.594800
 12
5.569080
 22
2.608320
 13
5.569960
 23
3.341800
  0
POLYLINE
  8
0
  6
CONTINUOUS
 66
     1
 40
0.000000
 41
0.000000
  0
VERTEX
  8
0
  6
CONTINUOUS
 10
5.569080
 20
2.861320
  0
VERTEX
  8
0
  6
CONTINUOUS
 10
5.569960
 20
3.594800
  0
VERTEX
  8
0
  6
CONTINUOUS
 10
5.569960
 20
3.341800
  0
VERTEX
  8
0
  6
CONTINUOUS
 10
5.569080
 20
2.608320
  0
VERTEX
  8
0
  6
CONTINUOUS
 10
5.569080
 20
2.861320
  0
SEQEND
  8
0
  0
SOLID
  8
0
 62
    15
 10
5.189360
 20
2.861320
 11
5.190240
 21
3.594800
 12
5.569080
 22
2.861320
 13
5.569960
 23
3.594800
  0
POLYLINE
  8
0
  6
CONTINUOUS
 66
     1
 40
0.000000
 41
0.000000
  0
VERTEX
  8
0
  6
CONTINUOUS
 10
5.189360
 20
2.861320
  0
VERTEX
  8
0
  6
CONTINUOUS
 10
5.190240
 20
3.594800
  0
VERTEX
  8
0
  6
CONTINUOUS
 10
5.569960
 20
3.594800
  0
VERTEX
  8
0
  6
CONTINUOUS
 10
5.569080
 20
2.861320
  0
VERTEX
  8
0
  6
CONTINUOUS
 10
5.189360
 20
2.861320
  0
SEQEND
  8
0
  0
SOLID
  8
0
 62
    15
 10
3.071200
 20
3.352360
 11
3.072080
 21
4.085840
 12
3.591280
 22
3.352360
 13
3.591720
 23
4.085840
  0
POLYLINE
  8
0
  6
CONTINUOUS
 66
     1
 40
0.000000
 41
0.000000
  0
VERTEX
  8
0
  6
CONTINUOUS
 10
3.071200
 20
3.352360
  0
VERTEX
  8
0
  6
CONTINUOUS
 10
3.072080
 20
4.085840
  0
VERTEX
  8
0
  6
CONTINUOUS
 10
3.591720
 20
4.085840
  0
VERTEX
  8
0
  6
CONTINUOUS
 10
3.591280
 20
3.352360
  0
VERTEX
  8
0
  6
CONTINUOUS
 10
3.071200
 20
3.352360
  0
SEQEND
  8
0
  0
SOLID
  8
0
 62
    15
 10
3.591280
 20
3.352360
 11
3.591720
 21
4.085840
 12
3.591280
 22
3.351480
 13
3.591720
 23
4.084960
  0
POLYLINE
  8
0
  6
CONTINUOUS
 66
     1
 40
0.000000
 41
0.000000
  0
VERTEX
  8
0
  6
CONTINUOUS
 10
3.591280
 20
3.352360
  0
VERTEX
  8
0
  6
CONTINUOUS
 10
3.591720
 20
4.085840
  0
VERTEX
  8
0
  6
CONTINUOUS
 10
3.591720
 20
4.084960
  0
VERTEX
  8
0
  6
CONTINUOUS
 10
3.591280
 20
3.351480
  0
VERTEX
  8
0
  6
CONTINUOUS
 10
3.591280
 20
3.352360
  0
SEQEND
  8
0
  0
SOLID
  8
0
 62
    15
 10
3.591280
 20
3.351480
 11
3.591720
 21
4.084960
 12
3.730320
 22
3.351480
 13
3.731200
 23
4.084960
  0
POLYLINE
  8
0
  6
CONTINUOUS
 66
     1
 40
0.000000
 41
0.000000
  0
VERTEX
  8
0
  6
CONTINUOUS
 10
3.591280
 20
3.351480
  0
VERTEX
  8
0
  6
CONTINUOUS
 10
3.591720
 20
4.084960
  0
VERTEX
  8
0
  6
CONTINUOUS
 10
3.731200
 20
4.084960
  0
VERTEX
  8
0
  6
CONTINUOUS
 10
3.730320
 20
3.351480
  0
VERTEX
  8
0
  6
CONTINUOUS
 10
3.591280
 20
3.351480
  0
SEQEND
  8
0
  0
POLYLINE
  8
0
  6
CONTINUOUS
 66
     1
 40
0.000000
 41
0.000000
  0
VERTEX
  8
0
  6
CONTINUOUS
 10
3.591280
 20
3.351480
  0
VERTEX
  8
0
  6
CONTINUOUS
 10
3.730320
 20
3.351480
  0
VERTEX
  8
0
  6
CONTINUOUS
 10
3.730320
 20
3.217720
  0
VERTEX
  8
0
  6
CONTINUOUS
 10
5.189360
 20
2.861320
  0
VERTEX
  8
0
  6
CONTINUOUS
 10
5.569080
 20
2.861320
  0
VERTEX
  8
0
  6
CONTINUOUS
 10
5.569080
 20
2.608320
  0
VERTEX
  8
0
  6
CONTINUOUS
 10
3.071200
 20
2.608320
  0
VERTEX
  8
0
  6
CONTINUOUS
 10
3.071200
 20
3.352360
  0
VERTEX
  8
0
  6
CONTINUOUS
 10
3.591280
 20
3.352360
  0
VERTEX
  8
0
  6
CONTINUOUS
 10
3.591280
 20
3.351480
  0
SEQEND
  8
0
  0
POLYLINE
  8
0
  6
CONTINUOUS
 66
     1
 40
0.000000
 41
0.000000
  0
VERTEX
  8
0
  6
CONTINUOUS
 10
4.424640
 20
2.955920
  0
VERTEX
  8
0
  6
CONTINUOUS
 10
4.804800
 20
2.862200
  0
VERTEX
  8
0
  6
CONTINUOUS
 10
4.422000
 20
2.862200
  0
SEQEND
  8
0
  0
TEXT
  8
0
 10
3.736920
 20
2.860880
 40
0.138083
  1
14 Deg.
 41
1.000000
  7
SN0
 71
     0
 72
     5
 11
4.318272
 21
2.860880
  0
TEXT
  8
0
 10
3.706560
 20
2.358400
 40
0.138083
  1
BA  1193  3/4"
 41
1.000000
  7
SN0
 71
     0
 72
     5
 11
4.770874
 21
2.358400
  0
POLYLINE
  8
0
  6
CONTINUOUS
 66
     1
 40
0.014080
 41
0.014080
  0
VERTEX
  8
0
  6
CONTINUOUS
 10
5.056480
 20
5.349960
  0
VERTEX
  8
0
  6
CONTINUOUS
 10
5.576560
 20
5.349960
  0
VERTEX
  8
0
  6
CONTINUOUS
 10
5.576560
 20
4.605480
  0
VERTEX
  8
0
  6
CONTINUOUS
 10
3.078680
 20
4.605480
  0
VERTEX
  8
0
  6
CONTINUOUS
 10
3.078680
 20
4.858920
  0
VERTEX
  8
0
  6
CONTINUOUS
 10
3.458400
 20
4.858920
  0
VERTEX
  8
0
  6
CONTINUOUS
 10
4.917440
 20
5.214880
  0
VERTEX
  8
0
  6
CONTINUOUS
 10
4.917440
 20
5.349080
  0
VERTEX
  8
0
  6
CONTINUOUS
 10
5.056480
 20
5.349080
  0
VERTEX
  8
0
  6
CONTINUOUS
 10
5.056480
 20
5.349960
  0
SEQEND
  8
0
  0
POLYLINE
  8
0
  6
CONTINUOUS
 66
     1
 40
0.000000
 41
0.000000
  0
VERTEX
  8
0
  6
CONTINUOUS
 10
4.193200
 20
4.953080
  0
VERTEX
  8
0
  6
CONTINUOUS
 10
3.813040
 20
4.859360
  0
VERTEX
  8
0
  6
CONTINUOUS
 10
4.195400
 20
4.859360
  0
SEQEND
  8
0
  0
TEXT
  8
0
 10
4.301880
 20
4.860240
 40
0.138083
  1
14 Deg.
 41
1.000000
  7
SN0
 71
     0
 72
     5
 11
4.883232
 21
4.860240
  0
TEXT
  8
0
 10
3.973640
 20
4.686000
 40
0.138083
  1
BA  1193  3/4"
 41
1.000000
  7
SN0
 71
     0
 72
     5
 11
5.037954
 21
4.686000
  0
ENDSEC
  0
EOF
