  0
SECTION
  2
HEADER
  9
$ACADVER
  1
AC1006
  9
$EXTMIN
 10
1.965920
 20
3.359400
  9
$EXTMAX
 10
5.781600
 20
6.009520
  9
$LTSCALE
 40
0.044000
  9
$PDMODE
 70
    35
  9
$PDSIZE
 40
0.035200
  0
ENDSEC
  0
SECTION
  2
TABLES
  0
TABLE
  2
LTYPE
 70
     9
  0
LTYPE
  2
CONTINUOUS
 70
    64
  3
Solid line
 72
    65
 73
     0
 40
0.000000
  0
LTYPE
  2
DASHED
 70
    64
  3
__ __ __ __ __ __ __ __ __ __ __ __ __ __ __
 72
    65
 73
     2
 40
0.000330
 49
0.000220
 49
-0.000110
  0
LTYPE
  2
HIDDEN
 70
    64
  3
 _ _ _ _ _ _ _ _ _ _ _ _ _ _ _ _ _ _ _ _ _ _
 72
    65
 73
     2
 40
0.000165
 49
0.000110
 49
-0.000055
  0
LTYPE
  2
CENTER
 70
    64
  3
____ _ ____ _ ____ _ ____ _ ____ _ ____ _ ____
 72
    65
 73
     4
 40
0.000880
 49
0.000550
 49
-0.000110
 49
0.000110
 49
-0.000110
  0
LTYPE
  2
PHANTOM
 70
    64
  3
_____ _ _ _____ _ _ _____ _ _ _____ _ _ ____
 72
    65
 73
     6
 40
0.001100
 49
0.000550
 49
-0.000110
 49
0.000110
 49
-0.000110
 49
0.000110
 49
-0.000110
  0
LTYPE
  2
DOT
 70
    64
  3
...............................................
 72
    65
 73
     2
 40
0.000110
 49
0.000000
 49
-0.000110
  0
LTYPE
  2
DASHDOT
 70
    64
  3
__ . __ . __ . __ . __ . __ . __ . __ . __ . __
 72
    65
 73
     4
 40
0.000440
 49
0.000220
 49
-0.000110
 49
0.000000
 49
-0.000110
  0
LTYPE
  2
BORDER
 70
    64
  3
__ __ . __ __ . __ __ . __ __ . __ __ . __ __
 72
    65
 73
     6
 40
0.000770
 49
0.000220
 49
-0.000110
 49
0.000220
 49
-0.000110
 49
0.000000
 49
-0.000110
  0
LTYPE
  2
DIVIDE
 70
    64
  3
__ . . __ . . __ . . __ . . __ . . __ . . __
 72
    65
 73
     6
 40
0.000550
 49
0.000220
 49
-0.000110
 49
0.000000
 49
-0.000110
 49
0.000000
 49
-0.000110
  0
LTYPE
  2
DOTDOT
 70
    64
  3
 . .  . .  . .  . .  . .  . . 
 72
    65
 73
     5
 40
0.000242
 49
-0.000110
 49
0.000000
 49
-0.000110
 49
0.000000
 49
-0.000110
  0
ENDTAB
  0
TABLE
  2
STYLE
 70
     4
  0
STYLE
 70
     0
  2
SN0
 40
0.000000
 41
0.000440
 50
0.000000
 71
     0
 42
0.000000
  3
ROMANS
  0
STYLE
 70
    68
  2
SV0
 40
0.000000
 41
0.000440
 50
0.000000
 71
     0
 42
0.000000
  3
ROMANS
  0
STYLE
 70
     0
  2
SN1
 40
0.000000
 41
0.000440
 50
0.000000
 71
     0
 42
0.000000
  3
ROMAND
  0
STYLE
 70
    68
  2
SV1
 40
0.000000
 41
0.000440
 50
0.000000
 71
     0
 42
0.000000
  3
ROMAND
  0
ENDTAB
  0
TABLE
  2
LAYER
 70
     3
  0
LAYER
  2
FOREGROUND
 70
    64
 62
     7
  6
CONTINUOUS
  0
LAYER
  2
BACKGROUND
 70
    65
 62
    -7
  6
CONTINUOUS
  0
LAYER
  2
0
 70
    64
 62
     7
  6
CONTINUOUS
  0
ENDTAB
  0
ENDSEC
  0
SECTION
  2
ENTITIES
  0
POLYLINE
  8
FOREGROUND
  6
CONTINUOUS
 66
     1
 40
0.000000
 41
0.000000
  0
VERTEX
  8
FOREGROUND
  6
CONTINUOUS
 10
0.000000
 20
9.368920
  0
VERTEX
  8
FOREGROUND
  6
CONTINUOUS
 10
8.499920
 20
9.368920
  0
VERTEX
  8
FOREGROUND
  6
CONTINUOUS
 10
8.499920
 20
-1.631080
  0
VERTEX
  8
FOREGROUND
  6
CONTINUOUS
 10
0.000000
 20
-1.631080
  0
VERTEX
  8
FOREGROUND
  6
CONTINUOUS
 10
0.000000
 20
9.368920
  0
SEQEND
  8
0
  0
POLYLINE
  8
FOREGROUND
  6
CONTINUOUS
 66
     1
 40
0.000000
 41
0.000000
  0
VERTEX
  8
FOREGROUND
  6
CONTINUOUS
 10
0.000000
 20
9.368920
  0
VERTEX
  8
FOREGROUND
  6
CONTINUOUS
 10
8.499920
 20
9.368920
  0
VERTEX
  8
FOREGROUND
  6
CONTINUOUS
 10
8.499920
 20
-1.631080
  0
VERTEX
  8
FOREGROUND
  6
CONTINUOUS
 10
0.000000
 20
-1.631080
  0
VERTEX
  8
FOREGROUND
  6
CONTINUOUS
 10
0.000000
 20
9.368920
  0
SEQEND
  8
0
  0
SOLID
  8
0
 62
    15
 10
5.139640
 20
4.354240
 11
5.781160
 21
4.719880
 12
5.139640
 22
3.604480
 13
5.781160
 23
3.970120
  0
POLYLINE
  8
0
  6
CONTINUOUS
 66
     1
 40
0.000000
 41
0.000000
  0
VERTEX
  8
0
  6
CONTINUOUS
 10
5.139640
 20
4.354240
  0
VERTEX
  8
0
  6
CONTINUOUS
 10
5.781160
 20
4.719880
  0
VERTEX
  8
0
  6
CONTINUOUS
 10
5.781160
 20
3.970120
  0
VERTEX
  8
0
  6
CONTINUOUS
 10
5.139640
 20
3.604480
  0
VERTEX
  8
0
  6
CONTINUOUS
 10
5.139640
 20
4.354240
  0
SEQEND
  8
0
  0
SOLID
  8
0
 62
    15
 10
3.894000
 20
3.854400
 11
4.535520
 21
4.220040
 12
4.389880
 22
3.854400
 13
5.031400
 23
4.220040
  0
POLYLINE
  8
0
  6
CONTINUOUS
 66
     1
 40
0.000000
 41
0.000000
  0
VERTEX
  8
0
  6
CONTINUOUS
 10
3.894000
 20
3.854400
  0
VERTEX
  8
0
  6
CONTINUOUS
 10
4.535520
 20
4.220040
  0
VERTEX
  8
0
  6
CONTINUOUS
 10
5.031400
 20
4.220040
  0
VERTEX
  8
0
  6
CONTINUOUS
 10
4.389880
 20
3.854400
  0
VERTEX
  8
0
  6
CONTINUOUS
 10
3.894000
 20
3.854400
  0
SEQEND
  8
0
  0
SOLID
  8
0
 62
    15
 10
4.040960
 20
4.354240
 11
4.682040
 21
4.719880
 12
5.139640
 22
4.354240
 13
5.781160
 23
4.719880
  0
POLYLINE
  8
0
  6
CONTINUOUS
 66
     1
 40
0.000000
 41
0.000000
  0
VERTEX
  8
0
  6
CONTINUOUS
 10
4.040960
 20
4.354240
  0
VERTEX
  8
0
  6
CONTINUOUS
 10
4.682040
 20
4.719880
  0
VERTEX
  8
0
  6
CONTINUOUS
 10
5.781160
 20
4.719880
  0
VERTEX
  8
0
  6
CONTINUOUS
 10
5.139640
 20
4.354240
  0
VERTEX
  8
0
  6
CONTINUOUS
 10
4.040960
 20
4.354240
  0
SEQEND
  8
0
  0
POLYLINE
  8
0
  6
CONTINUOUS
 66
     1
 40
0.000000
 41
0.000000
  0
VERTEX
  8
0
  6
CONTINUOUS
 10
4.040960
 20
4.354240
  0
VERTEX
  8
0
  6
CONTINUOUS
 10
5.139640
 20
4.354240
  0
VERTEX
  8
0
  6
CONTINUOUS
 10
5.139640
 20
3.604480
  0
VERTEX
  8
0
  6
CONTINUOUS
 10
3.894000
 20
3.604480
  0
VERTEX
  8
0
  6
CONTINUOUS
 10
3.894000
 20
3.854400
  0
VERTEX
  8
0
  6
CONTINUOUS
 10
4.389880
 20
3.854400
  0
VERTEX
  8
0
  6
CONTINUOUS
 10
4.389880
 20
4.099920
  0
VERTEX
  8
0
  6
CONTINUOUS
 10
3.894000
 20
4.099920
  0
VERTEX
  8
0
  6
CONTINUOUS
 10
4.040960
 20
4.354240
  0
SEQEND
  8
0
  0
SOLID
  8
0
 62
     7
 10
2.712160
 20
3.854400
 11
3.354120
 21
4.220040
 12
2.712160
 22
3.604480
 13
3.354120
 23
3.970120
  0
POLYLINE
  8
0
  6
CONTINUOUS
 66
     1
 40
0.000000
 41
0.000000
  0
VERTEX
  8
0
  6
CONTINUOUS
 10
2.712160
 20
3.854400
  0
VERTEX
  8
0
  6
CONTINUOUS
 10
3.354120
 20
4.220040
  0
VERTEX
  8
0
  6
CONTINUOUS
 10
3.354120
 20
3.970120
  0
VERTEX
  8
0
  6
CONTINUOUS
 10
2.712160
 20
3.604480
  0
VERTEX
  8
0
  6
CONTINUOUS
 10
2.712160
 20
3.854400
  0
SEQEND
  8
0
  0
SOLID
  8
0
 62
    15
 10
3.208040
 20
4.099920
 11
3.850000
 21
4.465560
 12
3.208040
 22
3.854400
 13
3.850000
 23
4.220040
  0
POLYLINE
  8
0
  6
CONTINUOUS
 66
     1
 40
0.000000
 41
0.000000
  0
VERTEX
  8
0
  6
CONTINUOUS
 10
3.208040
 20
4.099920
  0
VERTEX
  8
0
  6
CONTINUOUS
 10
3.850000
 20
4.465560
  0
VERTEX
  8
0
  6
CONTINUOUS
 10
3.850000
 20
4.220040
  0
VERTEX
  8
0
  6
CONTINUOUS
 10
3.208040
 20
3.854400
  0
VERTEX
  8
0
  6
CONTINUOUS
 10
3.208040
 20
4.099920
  0
SEQEND
  8
0
  0
SOLID
  8
0
 62
    15
 10
1.966360
 20
4.354240
 11
2.608320
 21
4.719880
 12
2.859120
 22
4.354240
 13
3.501080
 23
4.719880
  0
POLYLINE
  8
0
  6
CONTINUOUS
 66
     1
 40
0.000000
 41
0.000000
  0
VERTEX
  8
0
  6
CONTINUOUS
 10
1.966360
 20
4.354240
  0
VERTEX
  8
0
  6
CONTINUOUS
 10
2.608320
 20
4.719880
  0
VERTEX
  8
0
  6
CONTINUOUS
 10
3.501080
 20
4.719880
  0
VERTEX
  8
0
  6
CONTINUOUS
 10
2.859120
 20
4.354240
  0
VERTEX
  8
0
  6
CONTINUOUS
 10
1.966360
 20
4.354240
  0
SEQEND
  8
0
  0
SOLID
  8
0
 62
    15
 10
2.859120
 20
4.354240
 11
3.501080
 21
4.719880
 12
2.712160
 22
4.099920
 13
3.354120
 23
4.465560
  0
POLYLINE
  8
0
  6
CONTINUOUS
 66
     1
 40
0.000000
 41
0.000000
  0
VERTEX
  8
0
  6
CONTINUOUS
 10
2.859120
 20
4.354240
  0
VERTEX
  8
0
  6
CONTINUOUS
 10
3.501080
 20
4.719880
  0
VERTEX
  8
0
  6
CONTINUOUS
 10
3.354120
 20
4.465560
  0
VERTEX
  8
0
  6
CONTINUOUS
 10
2.712160
 20
4.099920
  0
VERTEX
  8
0
  6
CONTINUOUS
 10
2.859120
 20
4.354240
  0
SEQEND
  8
0
  0
SOLID
  8
0
 62
    15
 10
2.712160
 20
4.099920
 11
3.354120
 21
4.465560
 12
3.208040
 22
4.099920
 13
3.850000
 23
4.465560
  0
POLYLINE
  8
0
  6
CONTINUOUS
 66
     1
 40
0.000000
 41
0.000000
  0
VERTEX
  8
0
  6
CONTINUOUS
 10
2.712160
 20
4.099920
  0
VERTEX
  8
0
  6
CONTINUOUS
 10
3.354120
 20
4.465560
  0
VERTEX
  8
0
  6
CONTINUOUS
 10
3.850000
 20
4.465560
  0
VERTEX
  8
0
  6
CONTINUOUS
 10
3.208040
 20
4.099920
  0
VERTEX
  8
0
  6
CONTINUOUS
 10
2.712160
 20
4.099920
  0
SEQEND
  8
0
  0
POLYLINE
  8
0
  6
CONTINUOUS
 66
     1
 40
0.000000
 41
0.000000
  0
VERTEX
  8
0
  6
CONTINUOUS
 10
2.712160
 20
4.099920
  0
VERTEX
  8
0
  6
CONTINUOUS
 10
3.208040
 20
4.099920
  0
VERTEX
  8
0
  6
CONTINUOUS
 10
3.208040
 20
3.854400
  0
VERTEX
  8
0
  6
CONTINUOUS
 10
2.712160
 20
3.854400
  0
VERTEX
  8
0
  6
CONTINUOUS
 10
2.712160
 20
3.604480
  0
VERTEX
  8
0
  6
CONTINUOUS
 10
1.966360
 20
3.604480
  0
VERTEX
  8
0
  6
CONTINUOUS
 10
1.966360
 20
4.354240
  0
VERTEX
  8
0
  6
CONTINUOUS
 10
2.859120
 20
4.354240
  0
VERTEX
  8
0
  6
CONTINUOUS
 10
2.712160
 20
4.099920
  0
SEQEND
  8
0
  0
TEXT
  8
0
 10
3.145120
 20
3.384480
 40
0.096890
  1
 
 41
1.000000
  7
SN0
 71
     0
 72
     5
 11
3.177553
 21
3.384480
  0
TEXT
  8
0
 10
3.189120
 20
3.380520
 40
0.115603
  1
 1192A & B  3/4"
 41
1.000000
  7
SN1
 71
     0
 72
     5
 11
4.214393
 21
3.380520
  0
POLYLINE
  8
0
  6
CONTINUOUS
 66
     1
 40
0.014080
 41
0.014080
  0
VERTEX
  8
0
  6
CONTINUOUS
 10
4.160200
 20
6.001600
  0
VERTEX
  8
0
  6
CONTINUOUS
 10
5.258880
 20
6.001600
  0
VERTEX
  8
0
  6
CONTINUOUS
 10
5.258880
 20
5.251840
  0
VERTEX
  8
0
  6
CONTINUOUS
 10
4.013240
 20
5.251840
  0
VERTEX
  8
0
  6
CONTINUOUS
 10
4.013240
 20
5.501760
  0
VERTEX
  8
0
  6
CONTINUOUS
 10
4.509120
 20
5.501760
  0
VERTEX
  8
0
  6
CONTINUOUS
 10
4.509120
 20
5.747720
  0
VERTEX
  8
0
  6
CONTINUOUS
 10
4.013240
 20
5.747720
  0
VERTEX
  8
0
  6
CONTINUOUS
 10
4.160200
 20
6.001600
  0
SEQEND
  8
0
  0
POLYLINE
  8
0
  6
CONTINUOUS
 66
     1
 40
0.014080
 41
0.014080
  0
VERTEX
  8
0
  6
CONTINUOUS
 10
3.496240
 20
6.001600
  0
VERTEX
  8
0
  6
CONTINUOUS
 10
2.603920
 20
6.001600
  0
VERTEX
  8
0
  6
CONTINUOUS
 10
2.603920
 20
5.251840
  0
VERTEX
  8
0
  6
CONTINUOUS
 10
3.349720
 20
5.251840
  0
VERTEX
  8
0
  6
CONTINUOUS
 10
3.349720
 20
5.501760
  0
VERTEX
  8
0
  6
CONTINUOUS
 10
3.845600
 20
5.501760
  0
VERTEX
  8
0
  6
CONTINUOUS
 10
3.845600
 20
5.747720
  0
VERTEX
  8
0
  6
CONTINUOUS
 10
3.349720
 20
5.747720
  0
VERTEX
  8
0
  6
CONTINUOUS
 10
3.496240
 20
6.001600
  0
SEQEND
  8
0
  0
TEXT
  8
0
 10
3.202320
 20
5.012040
 40
0.096890
  1
 
 41
1.000000
  7
SN0
 71
     0
 72
     5
 11
3.234753
 21
5.012040
  0
TEXT
  8
0
 10
3.246760
 20
5.008520
 40
0.115603
  1
 1192A & B  3/4"
 41
1.000000
  7
SN1
 71
     0
 72
     5
 11
4.272033
 21
5.008520
  0
ENDSEC
  0
EOF
