  0
SECTION
  2
HEADER
  9
$ACADVER
  1
AC1006
  9
$EXTMIN
 10
3.281960
 20
1.183160
  9
$EXTMAX
 10
5.051640
 20
8.458120
  9
$LTSCALE
 40
0.044000
  9
$PDMODE
 70
    35
  9
$PDSIZE
 40
0.035200
  0
ENDSEC
  0
SECTION
  2
TABLES
  0
TABLE
  2
LTYPE
 70
     9
  0
LTYPE
  2
CONTINUOUS
 70
    64
  3
Solid line
 72
    65
 73
     0
 40
0.000000
  0
LTYPE
  2
DASHED
 70
    64
  3
__ __ __ __ __ __ __ __ __ __ __ __ __ __ __
 72
    65
 73
     2
 40
0.000330
 49
0.000220
 49
-0.000110
  0
LTYPE
  2
HIDDEN
 70
    64
  3
 _ _ _ _ _ _ _ _ _ _ _ _ _ _ _ _ _ _ _ _ _ _
 72
    65
 73
     2
 40
0.000165
 49
0.000110
 49
-0.000055
  0
LTYPE
  2
CENTER
 70
    64
  3
____ _ ____ _ ____ _ ____ _ ____ _ ____ _ ____
 72
    65
 73
     4
 40
0.000880
 49
0.000550
 49
-0.000110
 49
0.000110
 49
-0.000110
  0
LTYPE
  2
PHANTOM
 70
    64
  3
_____ _ _ _____ _ _ _____ _ _ _____ _ _ ____
 72
    65
 73
     6
 40
0.001100
 49
0.000550
 49
-0.000110
 49
0.000110
 49
-0.000110
 49
0.000110
 49
-0.000110
  0
LTYPE
  2
DOT
 70
    64
  3
...............................................
 72
    65
 73
     2
 40
0.000110
 49
0.000000
 49
-0.000110
  0
LTYPE
  2
DASHDOT
 70
    64
  3
__ . __ . __ . __ . __ . __ . __ . __ . __ . __
 72
    65
 73
     4
 40
0.000440
 49
0.000220
 49
-0.000110
 49
0.000000
 49
-0.000110
  0
LTYPE
  2
BORDER
 70
    64
  3
__ __ . __ __ . __ __ . __ __ . __ __ . __ __
 72
    65
 73
     6
 40
0.000770
 49
0.000220
 49
-0.000110
 49
0.000220
 49
-0.000110
 49
0.000000
 49
-0.000110
  0
LTYPE
  2
DIVIDE
 70
    64
  3
__ . . __ . . __ . . __ . . __ . . __ . . __
 72
    65
 73
     6
 40
0.000550
 49
0.000220
 49
-0.000110
 49
0.000000
 49
-0.000110
 49
0.000000
 49
-0.000110
  0
LTYPE
  2
DOTDOT
 70
    64
  3
 . .  . .  . .  . .  . .  . . 
 72
    65
 73
     5
 40
0.000242
 49
-0.000110
 49
0.000000
 49
-0.000110
 49
0.000000
 49
-0.000110
  0
ENDTAB
  0
TABLE
  2
STYLE
 70
     2
  0
STYLE
 70
     0
  2
SN0
 40
0.000000
 41
0.000440
 50
0.000000
 71
     0
 42
0.000000
  3
ROMAND
  0
STYLE
 70
    68
  2
SV0
 40
0.000000
 41
0.000440
 50
0.000000
 71
     0
 42
0.000000
  3
ROMAND
  0
ENDTAB
  0
TABLE
  2
LAYER
 70
     3
  0
LAYER
  2
FOREGROUND
 70
    64
 62
     7
  6
CONTINUOUS
  0
LAYER
  2
BACKGROUND
 70
    65
 62
    -7
  6
CONTINUOUS
  0
LAYER
  2
0
 70
    64
 62
     7
  6
CONTINUOUS
  0
ENDTAB
  0
ENDSEC
  0
SECTION
  2
ENTITIES
  0
POLYLINE
  8
FOREGROUND
  6
CONTINUOUS
 66
     1
 40
0.000000
 41
0.000000
  0
VERTEX
  8
FOREGROUND
  6
CONTINUOUS
 10
0.000000
 20
9.641280
  0
VERTEX
  8
FOREGROUND
  6
CONTINUOUS
 10
8.499920
 20
9.641280
  0
VERTEX
  8
FOREGROUND
  6
CONTINUOUS
 10
8.499920
 20
-1.358720
  0
VERTEX
  8
FOREGROUND
  6
CONTINUOUS
 10
0.000000
 20
-1.358720
  0
VERTEX
  8
FOREGROUND
  6
CONTINUOUS
 10
0.000000
 20
9.641280
  0
SEQEND
  8
0
  0
POLYLINE
  8
FOREGROUND
  6
CONTINUOUS
 66
     1
 40
0.000000
 41
0.000000
  0
VERTEX
  8
FOREGROUND
  6
CONTINUOUS
 10
0.000000
 20
9.641280
  0
VERTEX
  8
FOREGROUND
  6
CONTINUOUS
 10
8.499920
 20
9.641280
  0
VERTEX
  8
FOREGROUND
  6
CONTINUOUS
 10
8.499920
 20
-1.358720
  0
VERTEX
  8
FOREGROUND
  6
CONTINUOUS
 10
0.000000
 20
-1.358720
  0
VERTEX
  8
FOREGROUND
  6
CONTINUOUS
 10
0.000000
 20
9.641280
  0
SEQEND
  8
0
  0
POLYLINE
  8
0
  6
CONTINUOUS
 66
     1
 40
0.000000
 41
0.000000
  0
VERTEX
  8
0
  6
CONTINUOUS
 10
3.786640
 20
5.021720
  0
VERTEX
  8
0
  6
CONTINUOUS
 10
3.786640
 20
3.267000
  0
VERTEX
  8
0
  6
CONTINUOUS
 10
4.548280
 20
3.267000
  0
VERTEX
  8
0
  6
CONTINUOUS
 10
4.548280
 20
3.702600
  0
VERTEX
  8
0
  6
CONTINUOUS
 10
4.529800
 20
3.707880
  0
VERTEX
  8
0
  6
CONTINUOUS
 10
4.497240
 20
3.726800
  0
VERTEX
  8
0
  6
CONTINUOUS
 10
4.461600
 20
3.755840
  0
VERTEX
  8
0
  6
CONTINUOUS
 10
4.437840
 20
3.778280
  0
VERTEX
  8
0
  6
CONTINUOUS
 10
4.395160
 20
3.825360
  0
VERTEX
  8
0
  6
CONTINUOUS
 10
4.378000
 20
3.847360
  0
VERTEX
  8
0
  6
CONTINUOUS
 10
4.413640
 20
3.871120
  0
VERTEX
  8
0
  6
CONTINUOUS
 10
4.445320
 20
3.896640
  0
VERTEX
  8
0
  6
CONTINUOUS
 10
4.472600
 20
3.923920
  0
VERTEX
  8
0
  6
CONTINUOUS
 10
4.495040
 20
3.952520
  0
VERTEX
  8
0
  6
CONTINUOUS
 10
4.513080
 20
3.982440
  0
VERTEX
  8
0
  6
CONTINUOUS
 10
4.526280
 20
4.012800
  0
VERTEX
  8
0
  6
CONTINUOUS
 10
4.534640
 20
4.043600
  0
VERTEX
  8
0
  6
CONTINUOUS
 10
4.537280
 20
4.059000
  0
VERTEX
  8
0
  6
CONTINUOUS
 10
4.538160
 20
4.090240
  0
VERTEX
  8
0
  6
CONTINUOUS
 10
4.534200
 20
4.121040
  0
VERTEX
  8
0
  6
CONTINUOUS
 10
4.530240
 20
4.136440
  0
VERTEX
  8
0
  6
CONTINUOUS
 10
4.517920
 20
4.166800
  0
VERTEX
  8
0
  6
CONTINUOUS
 10
4.500760
 20
4.195840
  0
VERTEX
  8
0
  6
CONTINUOUS
 10
4.490200
 20
4.210360
  0
VERTEX
  8
0
  6
CONTINUOUS
 10
4.464680
 20
4.237640
  0
VERTEX
  8
0
  6
CONTINUOUS
 10
4.433440
 20
4.263600
  0
VERTEX
  8
0
  6
CONTINUOUS
 10
4.396480
 20
4.287360
  0
VERTEX
  8
0
  6
CONTINUOUS
 10
4.257000
 20
4.362600
  0
VERTEX
  8
0
  6
CONTINUOUS
 10
4.194080
 20
4.402640
  0
VERTEX
  8
0
  6
CONTINUOUS
 10
4.159760
 20
4.431240
  0
VERTEX
  8
0
  6
CONTINUOUS
 10
4.138200
 20
4.454560
  0
VERTEX
  8
0
  6
CONTINUOUS
 10
4.083640
 20
4.528040
  0
VERTEX
  8
0
  6
CONTINUOUS
 10
4.103000
 20
4.533760
  0
VERTEX
  8
0
  6
CONTINUOUS
 10
4.121920
 20
4.541240
  0
VERTEX
  8
0
  6
CONTINUOUS
 10
4.158000
 20
4.561920
  0
VERTEX
  8
0
  6
CONTINUOUS
 10
4.191880
 20
4.588320
  0
VERTEX
  8
0
  6
CONTINUOUS
 10
4.221800
 20
4.619560
  0
VERTEX
  8
0
  6
CONTINUOUS
 10
4.247320
 20
4.654760
  0
VERTEX
  8
0
  6
CONTINUOUS
 10
4.267120
 20
4.693040
  0
VERTEX
  8
0
  6
CONTINUOUS
 10
4.281200
 20
4.733520
  0
VERTEX
  8
0
  6
CONTINUOUS
 10
4.285600
 20
4.754200
  0
VERTEX
  8
0
  6
CONTINUOUS
 10
4.287800
 20
4.774880
  0
VERTEX
  8
0
  6
CONTINUOUS
 10
4.288240
 20
4.795560
  0
VERTEX
  8
0
  6
CONTINUOUS
 10
4.286040
 20
4.816240
  0
VERTEX
  8
0
  6
CONTINUOUS
 10
4.282080
 20
4.836480
  0
VERTEX
  8
0
  6
CONTINUOUS
 10
4.275920
 20
4.856720
  0
VERTEX
  8
0
  6
CONTINUOUS
 10
4.261400
 20
4.885320
  0
VERTEX
  8
0
  6
CONTINUOUS
 10
4.241160
 20
4.913040
  0
VERTEX
  8
0
  6
CONTINUOUS
 10
4.214320
 20
4.938560
  0
VERTEX
  8
0
  6
CONTINUOUS
 10
4.180880
 20
4.961440
  0
VERTEX
  8
0
  6
CONTINUOUS
 10
4.154920
 20
4.975520
  0
VERTEX
  8
0
  6
CONTINUOUS
 10
4.109600
 20
4.993560
  0
VERTEX
  8
0
  6
CONTINUOUS
 10
4.056360
 20
5.008520
  0
VERTEX
  8
0
  6
CONTINUOUS
 10
3.995200
 20
5.019080
  0
VERTEX
  8
0
  6
CONTINUOUS
 10
3.972760
 20
5.021720
  0
VERTEX
  8
0
  6
CONTINUOUS
 10
3.785760
 20
5.021720
  0
VERTEX
  8
0
  6
CONTINUOUS
 10
3.786640
 20
5.021720
  0
SEQEND
  8
0
  0
POLYLINE
  8
0
  6
CONTINUOUS
 66
     1
 40
0.000000
 41
0.000000
  0
VERTEX
  8
0
  6
CONTINUOUS
 10
4.547400
 20
2.938320
  0
VERTEX
  8
0
  6
CONTINUOUS
 10
4.547400
 20
1.183600
  0
VERTEX
  8
0
  6
CONTINUOUS
 10
3.785760
 20
1.183600
  0
VERTEX
  8
0
  6
CONTINUOUS
 10
3.785760
 20
1.619640
  0
VERTEX
  8
0
  6
CONTINUOUS
 10
3.804240
 20
1.624920
  0
VERTEX
  8
0
  6
CONTINUOUS
 10
3.825360
 20
1.635920
  0
VERTEX
  8
0
  6
CONTINUOUS
 10
3.860560
 20
1.662320
  0
VERTEX
  8
0
  6
CONTINUOUS
 10
3.896200
 20
1.694880
  0
VERTEX
  8
0
  6
CONTINUOUS
 10
3.938880
 20
1.742400
  0
VERTEX
  8
0
  6
CONTINUOUS
 10
3.956040
 20
1.764400
  0
VERTEX
  8
0
  6
CONTINUOUS
 10
3.920400
 20
1.788160
  0
VERTEX
  8
0
  6
CONTINUOUS
 10
3.888720
 20
1.813680
  0
VERTEX
  8
0
  6
CONTINUOUS
 10
3.861440
 20
1.840960
  0
VERTEX
  8
0
  6
CONTINUOUS
 10
3.839000
 20
1.869560
  0
VERTEX
  8
0
  6
CONTINUOUS
 10
3.820960
 20
1.899040
  0
VERTEX
  8
0
  6
CONTINUOUS
 10
3.807760
 20
1.929400
  0
VERTEX
  8
0
  6
CONTINUOUS
 10
3.799400
 20
1.960200
  0
VERTEX
  8
0
  6
CONTINUOUS
 10
3.796760
 20
1.976040
  0
VERTEX
  8
0
  6
CONTINUOUS
 10
3.795880
 20
2.006840
  0
VERTEX
  8
0
  6
CONTINUOUS
 10
3.799840
 20
2.038080
  0
VERTEX
  8
0
  6
CONTINUOUS
 10
3.803800
 20
2.053480
  0
VERTEX
  8
0
  6
CONTINUOUS
 10
3.816120
 20
2.083400
  0
VERTEX
  8
0
  6
CONTINUOUS
 10
3.833280
 20
2.112880
  0
VERTEX
  8
0
  6
CONTINUOUS
 10
3.856160
 20
2.141040
  0
VERTEX
  8
0
  6
CONTINUOUS
 10
3.884320
 20
2.167880
  0
VERTEX
  8
0
  6
CONTINUOUS
 10
3.918640
 20
2.192520
  0
VERTEX
  8
0
  6
CONTINUOUS
 10
3.958240
 20
2.215840
  0
VERTEX
  8
0
  6
CONTINUOUS
 10
4.077040
 20
2.279640
  0
VERTEX
  8
0
  6
CONTINUOUS
 10
4.131160
 20
2.313520
  0
VERTEX
  8
0
  6
CONTINUOUS
 10
4.161960
 20
2.336840
  0
VERTEX
  8
0
  6
CONTINUOUS
 10
4.195840
 20
2.371160
  0
VERTEX
  8
0
  6
CONTINUOUS
 10
4.250400
 20
2.444640
  0
VERTEX
  8
0
  6
CONTINUOUS
 10
4.231040
 20
2.450360
  0
VERTEX
  8
0
  6
CONTINUOUS
 10
4.212120
 20
2.457840
  0
VERTEX
  8
0
  6
CONTINUOUS
 10
4.176040
 20
2.478520
  0
VERTEX
  8
0
  6
CONTINUOUS
 10
4.158440
 20
2.490840
  0
VERTEX
  8
0
  6
CONTINUOUS
 10
4.126760
 20
2.519880
  0
VERTEX
  8
0
  6
CONTINUOUS
 10
4.098600
 20
2.553320
  0
VERTEX
  8
0
  6
CONTINUOUS
 10
4.075720
 20
2.590280
  0
VERTEX
  8
0
  6
CONTINUOUS
 10
4.058560
 20
2.629880
  0
VERTEX
  8
0
  6
CONTINUOUS
 10
4.048440
 20
2.670800
  0
VERTEX
  8
0
  6
CONTINUOUS
 10
4.046240
 20
2.691480
  0
VERTEX
  8
0
  6
CONTINUOUS
 10
4.045800
 20
2.712160
  0
VERTEX
  8
0
  6
CONTINUOUS
 10
4.047560
 20
2.732840
  0
VERTEX
  8
0
  6
CONTINUOUS
 10
4.051520
 20
2.753080
  0
VERTEX
  8
0
  6
CONTINUOUS
 10
4.062080
 20
2.783000
  0
VERTEX
  8
0
  6
CONTINUOUS
 10
4.078360
 20
2.811600
  0
VERTEX
  8
0
  6
CONTINUOUS
 10
4.100800
 20
2.838440
  0
VERTEX
  8
0
  6
CONTINUOUS
 10
4.129840
 20
2.863080
  0
VERTEX
  8
0
  6
CONTINUOUS
 10
4.165480
 20
2.885080
  0
VERTEX
  8
0
  6
CONTINUOUS
 10
4.193200
 20
2.898280
  0
VERTEX
  8
0
  6
CONTINUOUS
 10
4.241160
 20
2.915440
  0
VERTEX
  8
0
  6
CONTINUOUS
 10
4.277240
 20
2.925120
  0
VERTEX
  8
0
  6
CONTINUOUS
 10
4.338400
 20
2.935680
  0
VERTEX
  8
0
  6
CONTINUOUS
 10
4.360840
 20
2.938320
  0
VERTEX
  8
0
  6
CONTINUOUS
 10
4.548280
 20
2.938320
  0
VERTEX
  8
0
  6
CONTINUOUS
 10
4.547400
 20
2.938320
  0
SEQEND
  8
0
  0
SOLID
  8
0
 62
    15
 10
4.378440
 20
6.335120
 11
4.376680
 21
7.076080
 12
4.393840
 22
6.308720
 13
4.392080
 23
7.050120
  0
POLYLINE
  8
0
  6
CONTINUOUS
 66
     1
 40
0.000000
 41
0.000000
  0
VERTEX
  8
0
  6
CONTINUOUS
 10
4.378440
 20
6.335120
  0
VERTEX
  8
0
  6
CONTINUOUS
 10
4.376680
 20
7.076080
  0
VERTEX
  8
0
  6
CONTINUOUS
 10
4.392080
 20
7.050120
  0
VERTEX
  8
0
  6
CONTINUOUS
 10
4.393840
 20
6.308720
  0
VERTEX
  8
0
  6
CONTINUOUS
 10
4.378440
 20
6.335120
  0
SEQEND
  8
0
  0
SOLID
  8
0
 62
    15
 10
3.290320
 20
5.851120
 11
3.288560
 21
6.592080
 12
3.290320
 22
6.612760
 13
3.288560
 23
7.353720
  0
POLYLINE
  8
0
  6
CONTINUOUS
 66
     1
 40
0.000000
 41
0.000000
  0
VERTEX
  8
0
  6
CONTINUOUS
 10
3.290320
 20
5.851120
  0
VERTEX
  8
0
  6
CONTINUOUS
 10
3.288560
 20
6.592080
  0
VERTEX
  8
0
  6
CONTINUOUS
 10
3.288560
 20
7.353720
  0
VERTEX
  8
0
  6
CONTINUOUS
 10
3.290320
 20
6.612760
  0
VERTEX
  8
0
  6
CONTINUOUS
 10
3.290320
 20
5.851120
  0
SEQEND
  8
0
  0
SOLID
  8
0
 62
    15
 10
3.726360
 20
6.612760
 11
3.724600
 21
7.353720
 12
3.731200
 22
6.594280
 13
3.729880
 23
7.335240
  0
POLYLINE
  8
0
  6
CONTINUOUS
 66
     1
 40
0.000000
 41
0.000000
  0
VERTEX
  8
0
  6
CONTINUOUS
 10
3.726360
 20
6.612760
  0
VERTEX
  8
0
  6
CONTINUOUS
 10
3.724600
 20
7.353720
  0
VERTEX
  8
0
  6
CONTINUOUS
 10
3.729880
 20
7.335240
  0
VERTEX
  8
0
  6
CONTINUOUS
 10
3.731200
 20
6.594280
  0
VERTEX
  8
0
  6
CONTINUOUS
 10
3.726360
 20
6.612760
  0
SEQEND
  8
0
  0
SOLID
  8
0
 62
    15
 10
3.731200
 20
6.594280
 11
3.729880
 21
7.335240
 12
3.743080
 22
6.572720
 13
3.741320
 23
7.314120
  0
POLYLINE
  8
0
  6
CONTINUOUS
 66
     1
 40
0.000000
 41
0.000000
  0
VERTEX
  8
0
  6
CONTINUOUS
 10
3.731200
 20
6.594280
  0
VERTEX
  8
0
  6
CONTINUOUS
 10
3.729880
 20
7.335240
  0
VERTEX
  8
0
  6
CONTINUOUS
 10
3.741320
 20
7.314120
  0
VERTEX
  8
0
  6
CONTINUOUS
 10
3.743080
 20
6.572720
  0
VERTEX
  8
0
  6
CONTINUOUS
 10
3.731200
 20
6.594280
  0
SEQEND
  8
0
  0
SOLID
  8
0
 62
    15
 10
3.743080
 20
6.572720
 11
3.741320
 21
7.314120
 12
3.759360
 22
6.549840
 13
3.757600
 23
7.290800
  0
POLYLINE
  8
0
  6
CONTINUOUS
 66
     1
 40
0.000000
 41
0.000000
  0
VERTEX
  8
0
  6
CONTINUOUS
 10
3.743080
 20
6.572720
  0
VERTEX
  8
0
  6
CONTINUOUS
 10
3.741320
 20
7.314120
  0
VERTEX
  8
0
  6
CONTINUOUS
 10
3.757600
 20
7.290800
  0
VERTEX
  8
0
  6
CONTINUOUS
 10
3.759360
 20
6.549840
  0
VERTEX
  8
0
  6
CONTINUOUS
 10
3.743080
 20
6.572720
  0
SEQEND
  8
0
  0
SOLID
  8
0
 62
    15
 10
3.759360
 20
6.549840
 11
3.757600
 21
7.290800
 12
3.779600
 22
6.525640
 13
3.777840
 23
7.267040
  0
POLYLINE
  8
0
  6
CONTINUOUS
 66
     1
 40
0.000000
 41
0.000000
  0
VERTEX
  8
0
  6
CONTINUOUS
 10
3.759360
 20
6.549840
  0
VERTEX
  8
0
  6
CONTINUOUS
 10
3.757600
 20
7.290800
  0
VERTEX
  8
0
  6
CONTINUOUS
 10
3.777840
 20
7.267040
  0
VERTEX
  8
0
  6
CONTINUOUS
 10
3.779600
 20
6.525640
  0
VERTEX
  8
0
  6
CONTINUOUS
 10
3.759360
 20
6.549840
  0
SEQEND
  8
0
  0
SOLID
  8
0
 62
    15
 10
3.779600
 20
6.525640
 11
3.777840
 21
7.267040
 12
3.825800
 22
6.479440
 13
3.824040
 23
7.220840
  0
POLYLINE
  8
0
  6
CONTINUOUS
 66
     1
 40
0.000000
 41
0.000000
  0
VERTEX
  8
0
  6
CONTINUOUS
 10
3.779600
 20
6.525640
  0
VERTEX
  8
0
  6
CONTINUOUS
 10
3.777840
 20
7.267040
  0
VERTEX
  8
0
  6
CONTINUOUS
 10
3.824040
 20
7.220840
  0
VERTEX
  8
0
  6
CONTINUOUS
 10
3.825800
 20
6.479440
  0
VERTEX
  8
0
  6
CONTINUOUS
 10
3.779600
 20
6.525640
  0
SEQEND
  8
0
  0
SOLID
  8
0
 62
    15
 10
3.825800
 20
6.479440
 11
3.824040
 21
7.220840
 12
3.849120
 22
6.459200
 13
3.847360
 23
7.200600
  0
POLYLINE
  8
0
  6
CONTINUOUS
 66
     1
 40
0.000000
 41
0.000000
  0
VERTEX
  8
0
  6
CONTINUOUS
 10
3.825800
 20
6.479440
  0
VERTEX
  8
0
  6
CONTINUOUS
 10
3.824040
 20
7.220840
  0
VERTEX
  8
0
  6
CONTINUOUS
 10
3.847360
 20
7.200600
  0
VERTEX
  8
0
  6
CONTINUOUS
 10
3.849120
 20
6.459200
  0
VERTEX
  8
0
  6
CONTINUOUS
 10
3.825800
 20
6.479440
  0
SEQEND
  8
0
  0
SOLID
  8
0
 62
    15
 10
3.849120
 20
6.459200
 11
3.847360
 21
7.200600
 12
3.871120
 22
6.442480
 13
3.869360
 23
7.183440
  0
POLYLINE
  8
0
  6
CONTINUOUS
 66
     1
 40
0.000000
 41
0.000000
  0
VERTEX
  8
0
  6
CONTINUOUS
 10
3.849120
 20
6.459200
  0
VERTEX
  8
0
  6
CONTINUOUS
 10
3.847360
 20
7.200600
  0
VERTEX
  8
0
  6
CONTINUOUS
 10
3.869360
 20
7.183440
  0
VERTEX
  8
0
  6
CONTINUOUS
 10
3.871120
 20
6.442480
  0
VERTEX
  8
0
  6
CONTINUOUS
 10
3.849120
 20
6.459200
  0
SEQEND
  8
0
  0
SOLID
  8
0
 62
    15
 10
3.871120
 20
6.442480
 11
3.869360
 21
7.183440
 12
3.894880
 22
6.478120
 13
3.893120
 23
7.219080
  0
POLYLINE
  8
0
  6
CONTINUOUS
 66
     1
 40
0.000000
 41
0.000000
  0
VERTEX
  8
0
  6
CONTINUOUS
 10
3.871120
 20
6.442480
  0
VERTEX
  8
0
  6
CONTINUOUS
 10
3.869360
 20
7.183440
  0
VERTEX
  8
0
  6
CONTINUOUS
 10
3.893120
 20
7.219080
  0
VERTEX
  8
0
  6
CONTINUOUS
 10
3.894880
 20
6.478120
  0
VERTEX
  8
0
  6
CONTINUOUS
 10
3.871120
 20
6.442480
  0
SEQEND
  8
0
  0
SOLID
  8
0
 62
    15
 10
3.894880
 20
6.478120
 11
3.893120
 21
7.219080
 12
3.920400
 22
6.509800
 13
3.918640
 23
7.250760
  0
POLYLINE
  8
0
  6
CONTINUOUS
 66
     1
 40
0.000000
 41
0.000000
  0
VERTEX
  8
0
  6
CONTINUOUS
 10
3.894880
 20
6.478120
  0
VERTEX
  8
0
  6
CONTINUOUS
 10
3.893120
 20
7.219080
  0
VERTEX
  8
0
  6
CONTINUOUS
 10
3.918640
 20
7.250760
  0
VERTEX
  8
0
  6
CONTINUOUS
 10
3.920400
 20
6.509800
  0
VERTEX
  8
0
  6
CONTINUOUS
 10
3.894880
 20
6.478120
  0
SEQEND
  8
0
  0
SOLID
  8
0
 62
    15
 10
3.920400
 20
6.509800
 11
3.918640
 21
7.250760
 12
3.947680
 22
6.536640
 13
3.945920
 23
7.278040
  0
POLYLINE
  8
0
  6
CONTINUOUS
 66
     1
 40
0.000000
 41
0.000000
  0
VERTEX
  8
0
  6
CONTINUOUS
 10
3.920400
 20
6.509800
  0
VERTEX
  8
0
  6
CONTINUOUS
 10
3.918640
 20
7.250760
  0
VERTEX
  8
0
  6
CONTINUOUS
 10
3.945920
 20
7.278040
  0
VERTEX
  8
0
  6
CONTINUOUS
 10
3.947680
 20
6.536640
  0
VERTEX
  8
0
  6
CONTINUOUS
 10
3.920400
 20
6.509800
  0
SEQEND
  8
0
  0
SOLID
  8
0
 62
    15
 10
3.947680
 20
6.536640
 11
3.945920
 21
7.278040
 12
3.976280
 22
6.559520
 13
3.974520
 23
7.300480
  0
POLYLINE
  8
0
  6
CONTINUOUS
 66
     1
 40
0.000000
 41
0.000000
  0
VERTEX
  8
0
  6
CONTINUOUS
 10
3.947680
 20
6.536640
  0
VERTEX
  8
0
  6
CONTINUOUS
 10
3.945920
 20
7.278040
  0
VERTEX
  8
0
  6
CONTINUOUS
 10
3.974520
 20
7.300480
  0
VERTEX
  8
0
  6
CONTINUOUS
 10
3.976280
 20
6.559520
  0
VERTEX
  8
0
  6
CONTINUOUS
 10
3.947680
 20
6.536640
  0
SEQEND
  8
0
  0
SOLID
  8
0
 62
    15
 10
3.976280
 20
6.559520
 11
3.974520
 21
7.300480
 12
4.005760
 22
6.577560
 13
4.004000
 23
7.318520
  0
POLYLINE
  8
0
  6
CONTINUOUS
 66
     1
 40
0.000000
 41
0.000000
  0
VERTEX
  8
0
  6
CONTINUOUS
 10
3.976280
 20
6.559520
  0
VERTEX
  8
0
  6
CONTINUOUS
 10
3.974520
 20
7.300480
  0
VERTEX
  8
0
  6
CONTINUOUS
 10
4.004000
 20
7.318520
  0
VERTEX
  8
0
  6
CONTINUOUS
 10
4.005760
 20
6.577560
  0
VERTEX
  8
0
  6
CONTINUOUS
 10
3.976280
 20
6.559520
  0
SEQEND
  8
0
  0
SOLID
  8
0
 62
    15
 10
4.005760
 20
6.577560
 11
4.004000
 21
7.318520
 12
4.036560
 22
6.590760
 13
4.034800
 23
7.331720
  0
POLYLINE
  8
0
  6
CONTINUOUS
 66
     1
 40
0.000000
 41
0.000000
  0
VERTEX
  8
0
  6
CONTINUOUS
 10
4.005760
 20
6.577560
  0
VERTEX
  8
0
  6
CONTINUOUS
 10
4.004000
 20
7.318520
  0
VERTEX
  8
0
  6
CONTINUOUS
 10
4.034800
 20
7.331720
  0
VERTEX
  8
0
  6
CONTINUOUS
 10
4.036560
 20
6.590760
  0
VERTEX
  8
0
  6
CONTINUOUS
 10
4.005760
 20
6.577560
  0
SEQEND
  8
0
  0
SOLID
  8
0
 62
    15
 10
4.036560
 20
6.590760
 11
4.034800
 21
7.331720
 12
4.067360
 22
6.599120
 13
4.065600
 23
7.340080
  0
POLYLINE
  8
0
  6
CONTINUOUS
 66
     1
 40
0.000000
 41
0.000000
  0
VERTEX
  8
0
  6
CONTINUOUS
 10
4.036560
 20
6.590760
  0
VERTEX
  8
0
  6
CONTINUOUS
 10
4.034800
 20
7.331720
  0
VERTEX
  8
0
  6
CONTINUOUS
 10
4.065600
 20
7.340080
  0
VERTEX
  8
0
  6
CONTINUOUS
 10
4.067360
 20
6.599120
  0
VERTEX
  8
0
  6
CONTINUOUS
 10
4.036560
 20
6.590760
  0
SEQEND
  8
0
  0
SOLID
  8
0
 62
    15
 10
4.067360
 20
6.599120
 11
4.065600
 21
7.340080
 12
4.098600
 22
6.602640
 13
4.096840
 23
7.343600
  0
POLYLINE
  8
0
  6
CONTINUOUS
 66
     1
 40
0.000000
 41
0.000000
  0
VERTEX
  8
0
  6
CONTINUOUS
 10
4.067360
 20
6.599120
  0
VERTEX
  8
0
  6
CONTINUOUS
 10
4.065600
 20
7.340080
  0
VERTEX
  8
0
  6
CONTINUOUS
 10
4.096840
 20
7.343600
  0
VERTEX
  8
0
  6
CONTINUOUS
 10
4.098600
 20
6.602640
  0
VERTEX
  8
0
  6
CONTINUOUS
 10
4.067360
 20
6.599120
  0
SEQEND
  8
0
  0
SOLID
  8
0
 62
    15
 10
4.098600
 20
6.602640
 11
4.096840
 21
7.343600
 12
4.129400
 22
6.600880
 13
4.127640
 23
7.342280
  0
POLYLINE
  8
0
  6
CONTINUOUS
 66
     1
 40
0.000000
 41
0.000000
  0
VERTEX
  8
0
  6
CONTINUOUS
 10
4.098600
 20
6.602640
  0
VERTEX
  8
0
  6
CONTINUOUS
 10
4.096840
 20
7.343600
  0
VERTEX
  8
0
  6
CONTINUOUS
 10
4.127640
 20
7.342280
  0
VERTEX
  8
0
  6
CONTINUOUS
 10
4.129400
 20
6.600880
  0
VERTEX
  8
0
  6
CONTINUOUS
 10
4.098600
 20
6.602640
  0
SEQEND
  8
0
  0
SOLID
  8
0
 62
    15
 10
4.129400
 20
6.600880
 11
4.127640
 21
7.342280
 12
4.160200
 22
6.594280
 13
4.158440
 23
7.335240
  0
POLYLINE
  8
0
  6
CONTINUOUS
 66
     1
 40
0.000000
 41
0.000000
  0
VERTEX
  8
0
  6
CONTINUOUS
 10
4.129400
 20
6.600880
  0
VERTEX
  8
0
  6
CONTINUOUS
 10
4.127640
 20
7.342280
  0
VERTEX
  8
0
  6
CONTINUOUS
 10
4.158440
 20
7.335240
  0
VERTEX
  8
0
  6
CONTINUOUS
 10
4.160200
 20
6.594280
  0
VERTEX
  8
0
  6
CONTINUOUS
 10
4.129400
 20
6.600880
  0
SEQEND
  8
0
  0
SOLID
  8
0
 62
    15
 10
4.160200
 20
6.594280
 11
4.158440
 21
7.335240
 12
4.190560
 22
6.582400
 13
4.188800
 23
7.323360
  0
POLYLINE
  8
0
  6
CONTINUOUS
 66
     1
 40
0.000000
 41
0.000000
  0
VERTEX
  8
0
  6
CONTINUOUS
 10
4.160200
 20
6.594280
  0
VERTEX
  8
0
  6
CONTINUOUS
 10
4.158440
 20
7.335240
  0
VERTEX
  8
0
  6
CONTINUOUS
 10
4.188800
 20
7.323360
  0
VERTEX
  8
0
  6
CONTINUOUS
 10
4.190560
 20
6.582400
  0
VERTEX
  8
0
  6
CONTINUOUS
 10
4.160200
 20
6.594280
  0
SEQEND
  8
0
  0
SOLID
  8
0
 62
    15
 10
4.190560
 20
6.582400
 11
4.188800
 21
7.323360
 12
4.219600
 22
6.565240
 13
4.217840
 23
7.306200
  0
POLYLINE
  8
0
  6
CONTINUOUS
 66
     1
 40
0.000000
 41
0.000000
  0
VERTEX
  8
0
  6
CONTINUOUS
 10
4.190560
 20
6.582400
  0
VERTEX
  8
0
  6
CONTINUOUS
 10
4.188800
 20
7.323360
  0
VERTEX
  8
0
  6
CONTINUOUS
 10
4.217840
 20
7.306200
  0
VERTEX
  8
0
  6
CONTINUOUS
 10
4.219600
 20
6.565240
  0
VERTEX
  8
0
  6
CONTINUOUS
 10
4.190560
 20
6.582400
  0
SEQEND
  8
0
  0
SOLID
  8
0
 62
    15
 10
4.219600
 20
6.565240
 11
4.217840
 21
7.306200
 12
4.247760
 22
6.542360
 13
4.246000
 23
7.283320
  0
POLYLINE
  8
0
  6
CONTINUOUS
 66
     1
 40
0.000000
 41
0.000000
  0
VERTEX
  8
0
  6
CONTINUOUS
 10
4.219600
 20
6.565240
  0
VERTEX
  8
0
  6
CONTINUOUS
 10
4.217840
 20
7.306200
  0
VERTEX
  8
0
  6
CONTINUOUS
 10
4.246000
 20
7.283320
  0
VERTEX
  8
0
  6
CONTINUOUS
 10
4.247760
 20
6.542360
  0
VERTEX
  8
0
  6
CONTINUOUS
 10
4.219600
 20
6.565240
  0
SEQEND
  8
0
  0
SOLID
  8
0
 62
    15
 10
4.247760
 20
6.542360
 11
4.246000
 21
7.283320
 12
4.274600
 22
6.514200
 13
4.272840
 23
7.255160
  0
POLYLINE
  8
0
  6
CONTINUOUS
 66
     1
 40
0.000000
 41
0.000000
  0
VERTEX
  8
0
  6
CONTINUOUS
 10
4.247760
 20
6.542360
  0
VERTEX
  8
0
  6
CONTINUOUS
 10
4.246000
 20
7.283320
  0
VERTEX
  8
0
  6
CONTINUOUS
 10
4.272840
 20
7.255160
  0
VERTEX
  8
0
  6
CONTINUOUS
 10
4.274600
 20
6.514200
  0
VERTEX
  8
0
  6
CONTINUOUS
 10
4.247760
 20
6.542360
  0
SEQEND
  8
0
  0
SOLID
  8
0
 62
    15
 10
4.274600
 20
6.514200
 11
4.272840
 21
7.255160
 12
4.299240
 22
6.479880
 13
4.297920
 23
7.221280
  0
POLYLINE
  8
0
  6
CONTINUOUS
 66
     1
 40
0.000000
 41
0.000000
  0
VERTEX
  8
0
  6
CONTINUOUS
 10
4.274600
 20
6.514200
  0
VERTEX
  8
0
  6
CONTINUOUS
 10
4.272840
 20
7.255160
  0
VERTEX
  8
0
  6
CONTINUOUS
 10
4.297920
 20
7.221280
  0
VERTEX
  8
0
  6
CONTINUOUS
 10
4.299240
 20
6.479880
  0
VERTEX
  8
0
  6
CONTINUOUS
 10
4.274600
 20
6.514200
  0
SEQEND
  8
0
  0
SOLID
  8
0
 62
    15
 10
4.299240
 20
6.479880
 11
4.297920
 21
7.221280
 12
4.322560
 22
6.440280
 13
4.320800
 23
7.181240
  0
POLYLINE
  8
0
  6
CONTINUOUS
 66
     1
 40
0.000000
 41
0.000000
  0
VERTEX
  8
0
  6
CONTINUOUS
 10
4.299240
 20
6.479880
  0
VERTEX
  8
0
  6
CONTINUOUS
 10
4.297920
 20
7.221280
  0
VERTEX
  8
0
  6
CONTINUOUS
 10
4.320800
 20
7.181240
  0
VERTEX
  8
0
  6
CONTINUOUS
 10
4.322560
 20
6.440280
  0
VERTEX
  8
0
  6
CONTINUOUS
 10
4.299240
 20
6.479880
  0
SEQEND
  8
0
  0
SOLID
  8
0
 62
    15
 10
4.322560
 20
6.440280
 11
4.320800
 21
7.181240
 12
4.343240
 22
6.400240
 13
4.341480
 23
7.141200
  0
POLYLINE
  8
0
  6
CONTINUOUS
 66
     1
 40
0.000000
 41
0.000000
  0
VERTEX
  8
0
  6
CONTINUOUS
 10
4.322560
 20
6.440280
  0
VERTEX
  8
0
  6
CONTINUOUS
 10
4.320800
 20
7.181240
  0
VERTEX
  8
0
  6
CONTINUOUS
 10
4.341480
 20
7.141200
  0
VERTEX
  8
0
  6
CONTINUOUS
 10
4.343240
 20
6.400240
  0
VERTEX
  8
0
  6
CONTINUOUS
 10
4.322560
 20
6.440280
  0
SEQEND
  8
0
  0
SOLID
  8
0
 62
    15
 10
4.343240
 20
6.400240
 11
4.341480
 21
7.141200
 12
4.361720
 22
6.365040
 13
4.359960
 23
7.106440
  0
POLYLINE
  8
0
  6
CONTINUOUS
 66
     1
 40
0.000000
 41
0.000000
  0
VERTEX
  8
0
  6
CONTINUOUS
 10
4.343240
 20
6.400240
  0
VERTEX
  8
0
  6
CONTINUOUS
 10
4.341480
 20
7.141200
  0
VERTEX
  8
0
  6
CONTINUOUS
 10
4.359960
 20
7.106440
  0
VERTEX
  8
0
  6
CONTINUOUS
 10
4.361720
 20
6.365040
  0
VERTEX
  8
0
  6
CONTINUOUS
 10
4.343240
 20
6.400240
  0
SEQEND
  8
0
  0
SOLID
  8
0
 62
    15
 10
4.361720
 20
6.365040
 11
4.359960
 21
7.106440
 12
4.378440
 22
6.335120
 13
4.376680
 23
7.076080
  0
POLYLINE
  8
0
  6
CONTINUOUS
 66
     1
 40
0.000000
 41
0.000000
  0
VERTEX
  8
0
  6
CONTINUOUS
 10
4.361720
 20
6.365040
  0
VERTEX
  8
0
  6
CONTINUOUS
 10
4.359960
 20
7.106440
  0
VERTEX
  8
0
  6
CONTINUOUS
 10
4.376680
 20
7.076080
  0
VERTEX
  8
0
  6
CONTINUOUS
 10
4.378440
 20
6.335120
  0
VERTEX
  8
0
  6
CONTINUOUS
 10
4.361720
 20
6.365040
  0
SEQEND
  8
0
  0
SOLID
  8
0
 62
    15
 10
3.290320
 20
6.612760
 11
3.288560
 21
7.353720
 12
3.726360
 22
6.612760
 13
3.724600
 23
7.353720
  0
POLYLINE
  8
0
  6
CONTINUOUS
 66
     1
 40
0.000000
 41
0.000000
  0
VERTEX
  8
0
  6
CONTINUOUS
 10
3.290320
 20
6.612760
  0
VERTEX
  8
0
  6
CONTINUOUS
 10
3.288560
 20
7.353720
  0
VERTEX
  8
0
  6
CONTINUOUS
 10
3.724600
 20
7.353720
  0
VERTEX
  8
0
  6
CONTINUOUS
 10
3.726360
 20
6.612760
  0
VERTEX
  8
0
  6
CONTINUOUS
 10
3.290320
 20
6.612760
  0
SEQEND
  8
0
  0
SOLID
  8
0
 62
    15
 10
4.393840
 20
6.308720
 11
4.392080
 21
7.050120
 12
4.420240
 22
6.266920
 13
4.418480
 23
7.008320
  0
POLYLINE
  8
0
  6
CONTINUOUS
 66
     1
 40
0.000000
 41
0.000000
  0
VERTEX
  8
0
  6
CONTINUOUS
 10
4.393840
 20
6.308720
  0
VERTEX
  8
0
  6
CONTINUOUS
 10
4.392080
 20
7.050120
  0
VERTEX
  8
0
  6
CONTINUOUS
 10
4.418480
 20
7.008320
  0
VERTEX
  8
0
  6
CONTINUOUS
 10
4.420240
 20
6.266920
  0
VERTEX
  8
0
  6
CONTINUOUS
 10
4.393840
 20
6.308720
  0
SEQEND
  8
0
  0
SOLID
  8
0
 62
    15
 10
4.420240
 20
6.266920
 11
4.418480
 21
7.008320
 12
4.443560
 22
6.236120
 13
4.441800
 23
6.977520
  0
POLYLINE
  8
0
  6
CONTINUOUS
 66
     1
 40
0.000000
 41
0.000000
  0
VERTEX
  8
0
  6
CONTINUOUS
 10
4.420240
 20
6.266920
  0
VERTEX
  8
0
  6
CONTINUOUS
 10
4.418480
 20
7.008320
  0
VERTEX
  8
0
  6
CONTINUOUS
 10
4.441800
 20
6.977520
  0
VERTEX
  8
0
  6
CONTINUOUS
 10
4.443560
 20
6.236120
  0
VERTEX
  8
0
  6
CONTINUOUS
 10
4.420240
 20
6.266920
  0
SEQEND
  8
0
  0
SOLID
  8
0
 62
    15
 10
4.443560
 20
6.236120
 11
4.441800
 21
6.977520
 12
4.466440
 22
6.212800
 13
4.464680
 23
6.953760
  0
POLYLINE
  8
0
  6
CONTINUOUS
 66
     1
 40
0.000000
 41
0.000000
  0
VERTEX
  8
0
  6
CONTINUOUS
 10
4.443560
 20
6.236120
  0
VERTEX
  8
0
  6
CONTINUOUS
 10
4.441800
 20
6.977520
  0
VERTEX
  8
0
  6
CONTINUOUS
 10
4.464680
 20
6.953760
  0
VERTEX
  8
0
  6
CONTINUOUS
 10
4.466440
 20
6.212800
  0
VERTEX
  8
0
  6
CONTINUOUS
 10
4.443560
 20
6.236120
  0
SEQEND
  8
0
  0
SOLID
  8
0
 62
    15
 10
4.466440
 20
6.212800
 11
4.464680
 21
6.953760
 12
4.490200
 22
6.192560
 13
4.488440
 23
6.933960
  0
POLYLINE
  8
0
  6
CONTINUOUS
 66
     1
 40
0.000000
 41
0.000000
  0
VERTEX
  8
0
  6
CONTINUOUS
 10
4.466440
 20
6.212800
  0
VERTEX
  8
0
  6
CONTINUOUS
 10
4.464680
 20
6.953760
  0
VERTEX
  8
0
  6
CONTINUOUS
 10
4.488440
 20
6.933960
  0
VERTEX
  8
0
  6
CONTINUOUS
 10
4.490200
 20
6.192560
  0
VERTEX
  8
0
  6
CONTINUOUS
 10
4.466440
 20
6.212800
  0
SEQEND
  8
0
  0
SOLID
  8
0
 62
    15
 10
4.490200
 20
6.192560
 11
4.488440
 21
6.933960
 12
4.517920
 22
6.172320
 13
4.516160
 23
6.913280
  0
POLYLINE
  8
0
  6
CONTINUOUS
 66
     1
 40
0.000000
 41
0.000000
  0
VERTEX
  8
0
  6
CONTINUOUS
 10
4.490200
 20
6.192560
  0
VERTEX
  8
0
  6
CONTINUOUS
 10
4.488440
 20
6.933960
  0
VERTEX
  8
0
  6
CONTINUOUS
 10
4.516160
 20
6.913280
  0
VERTEX
  8
0
  6
CONTINUOUS
 10
4.517920
 20
6.172320
  0
VERTEX
  8
0
  6
CONTINUOUS
 10
4.490200
 20
6.192560
  0
SEQEND
  8
0
  0
SOLID
  8
0
 62
    15
 10
4.517920
 20
6.172320
 11
4.516160
 21
6.913280
 12
4.533760
 22
6.160880
 13
4.532000
 23
6.901840
  0
POLYLINE
  8
0
  6
CONTINUOUS
 66
     1
 40
0.000000
 41
0.000000
  0
VERTEX
  8
0
  6
CONTINUOUS
 10
4.517920
 20
6.172320
  0
VERTEX
  8
0
  6
CONTINUOUS
 10
4.516160
 20
6.913280
  0
VERTEX
  8
0
  6
CONTINUOUS
 10
4.532000
 20
6.901840
  0
VERTEX
  8
0
  6
CONTINUOUS
 10
4.533760
 20
6.160880
  0
VERTEX
  8
0
  6
CONTINUOUS
 10
4.517920
 20
6.172320
  0
SEQEND
  8
0
  0
SOLID
  8
0
 62
    15
 10
4.533760
 20
6.160880
 11
4.532000
 21
6.901840
 12
4.551360
 22
6.148120
 13
4.549600
 23
6.889080
  0
POLYLINE
  8
0
  6
CONTINUOUS
 66
     1
 40
0.000000
 41
0.000000
  0
VERTEX
  8
0
  6
CONTINUOUS
 10
4.533760
 20
6.160880
  0
VERTEX
  8
0
  6
CONTINUOUS
 10
4.532000
 20
6.901840
  0
VERTEX
  8
0
  6
CONTINUOUS
 10
4.549600
 20
6.889080
  0
VERTEX
  8
0
  6
CONTINUOUS
 10
4.551360
 20
6.148120
  0
VERTEX
  8
0
  6
CONTINUOUS
 10
4.533760
 20
6.160880
  0
SEQEND
  8
0
  0
SOLID
  8
0
 62
    15
 10
4.551360
 20
6.148120
 11
4.549600
 21
6.889080
 12
4.564560
 22
6.185960
 13
4.563240
 23
6.927360
  0
POLYLINE
  8
0
  6
CONTINUOUS
 66
     1
 40
0.000000
 41
0.000000
  0
VERTEX
  8
0
  6
CONTINUOUS
 10
4.551360
 20
6.148120
  0
VERTEX
  8
0
  6
CONTINUOUS
 10
4.549600
 20
6.889080
  0
VERTEX
  8
0
  6
CONTINUOUS
 10
4.563240
 20
6.927360
  0
VERTEX
  8
0
  6
CONTINUOUS
 10
4.564560
 20
6.185960
  0
VERTEX
  8
0
  6
CONTINUOUS
 10
4.551360
 20
6.148120
  0
SEQEND
  8
0
  0
SOLID
  8
0
 62
    15
 10
4.564560
 20
6.185960
 11
4.563240
 21
6.927360
 12
4.585240
 22
6.222480
 13
4.583480
 23
6.963440
  0
POLYLINE
  8
0
  6
CONTINUOUS
 66
     1
 40
0.000000
 41
0.000000
  0
VERTEX
  8
0
  6
CONTINUOUS
 10
4.564560
 20
6.185960
  0
VERTEX
  8
0
  6
CONTINUOUS
 10
4.563240
 20
6.927360
  0
VERTEX
  8
0
  6
CONTINUOUS
 10
4.583480
 20
6.963440
  0
VERTEX
  8
0
  6
CONTINUOUS
 10
4.585240
 20
6.222480
  0
VERTEX
  8
0
  6
CONTINUOUS
 10
4.564560
 20
6.185960
  0
SEQEND
  8
0
  0
SOLID
  8
0
 62
    15
 10
4.585240
 20
6.222480
 11
4.583480
 21
6.963440
 12
4.611640
 22
6.255920
 13
4.609880
 23
6.997320
  0
POLYLINE
  8
0
  6
CONTINUOUS
 66
     1
 40
0.000000
 41
0.000000
  0
VERTEX
  8
0
  6
CONTINUOUS
 10
4.585240
 20
6.222480
  0
VERTEX
  8
0
  6
CONTINUOUS
 10
4.583480
 20
6.963440
  0
VERTEX
  8
0
  6
CONTINUOUS
 10
4.609880
 20
6.997320
  0
VERTEX
  8
0
  6
CONTINUOUS
 10
4.611640
 20
6.255920
  0
VERTEX
  8
0
  6
CONTINUOUS
 10
4.585240
 20
6.222480
  0
SEQEND
  8
0
  0
SOLID
  8
0
 62
    15
 10
4.611640
 20
6.255920
 11
4.609880
 21
6.997320
 12
4.642880
 22
6.286280
 13
4.641120
 23
7.027240
  0
POLYLINE
  8
0
  6
CONTINUOUS
 66
     1
 40
0.000000
 41
0.000000
  0
VERTEX
  8
0
  6
CONTINUOUS
 10
4.611640
 20
6.255920
  0
VERTEX
  8
0
  6
CONTINUOUS
 10
4.609880
 20
6.997320
  0
VERTEX
  8
0
  6
CONTINUOUS
 10
4.641120
 20
7.027240
  0
VERTEX
  8
0
  6
CONTINUOUS
 10
4.642880
 20
6.286280
  0
VERTEX
  8
0
  6
CONTINUOUS
 10
4.611640
 20
6.255920
  0
SEQEND
  8
0
  0
SOLID
  8
0
 62
    15
 10
4.642880
 20
6.286280
 11
4.641120
 21
7.027240
 12
4.678080
 22
6.311800
 13
4.676320
 23
7.052760
  0
POLYLINE
  8
0
  6
CONTINUOUS
 66
     1
 40
0.000000
 41
0.000000
  0
VERTEX
  8
0
  6
CONTINUOUS
 10
4.642880
 20
6.286280
  0
VERTEX
  8
0
  6
CONTINUOUS
 10
4.641120
 20
7.027240
  0
VERTEX
  8
0
  6
CONTINUOUS
 10
4.676320
 20
7.052760
  0
VERTEX
  8
0
  6
CONTINUOUS
 10
4.678080
 20
6.311800
  0
VERTEX
  8
0
  6
CONTINUOUS
 10
4.642880
 20
6.286280
  0
SEQEND
  8
0
  0
SOLID
  8
0
 62
    15
 10
4.678080
 20
6.311800
 11
4.676320
 21
7.052760
 12
4.716800
 22
6.331600
 13
4.715040
 23
7.073000
  0
POLYLINE
  8
0
  6
CONTINUOUS
 66
     1
 40
0.000000
 41
0.000000
  0
VERTEX
  8
0
  6
CONTINUOUS
 10
4.678080
 20
6.311800
  0
VERTEX
  8
0
  6
CONTINUOUS
 10
4.676320
 20
7.052760
  0
VERTEX
  8
0
  6
CONTINUOUS
 10
4.715040
 20
7.073000
  0
VERTEX
  8
0
  6
CONTINUOUS
 10
4.716800
 20
6.331600
  0
VERTEX
  8
0
  6
CONTINUOUS
 10
4.678080
 20
6.311800
  0
SEQEND
  8
0
  0
SOLID
  8
0
 62
    15
 10
4.716800
 20
6.331600
 11
4.715040
 21
7.073000
 12
4.756840
 22
6.345680
 13
4.755080
 23
7.086640
  0
POLYLINE
  8
0
  6
CONTINUOUS
 66
     1
 40
0.000000
 41
0.000000
  0
VERTEX
  8
0
  6
CONTINUOUS
 10
4.716800
 20
6.331600
  0
VERTEX
  8
0
  6
CONTINUOUS
 10
4.715040
 20
7.073000
  0
VERTEX
  8
0
  6
CONTINUOUS
 10
4.755080
 20
7.086640
  0
VERTEX
  8
0
  6
CONTINUOUS
 10
4.756840
 20
6.345680
  0
VERTEX
  8
0
  6
CONTINUOUS
 10
4.716800
 20
6.331600
  0
SEQEND
  8
0
  0
SOLID
  8
0
 62
    15
 10
4.756840
 20
6.345680
 11
4.755080
 21
7.086640
 12
4.798200
 22
6.352280
 13
4.796440
 23
7.093240
  0
POLYLINE
  8
0
  6
CONTINUOUS
 66
     1
 40
0.000000
 41
0.000000
  0
VERTEX
  8
0
  6
CONTINUOUS
 10
4.756840
 20
6.345680
  0
VERTEX
  8
0
  6
CONTINUOUS
 10
4.755080
 20
7.086640
  0
VERTEX
  8
0
  6
CONTINUOUS
 10
4.796440
 20
7.093240
  0
VERTEX
  8
0
  6
CONTINUOUS
 10
4.798200
 20
6.352280
  0
VERTEX
  8
0
  6
CONTINUOUS
 10
4.756840
 20
6.345680
  0
SEQEND
  8
0
  0
SOLID
  8
0
 62
    15
 10
4.798200
 20
6.352280
 11
4.796440
 21
7.093240
 12
4.839560
 22
6.350520
 13
4.837800
 23
7.091920
  0
POLYLINE
  8
0
  6
CONTINUOUS
 66
     1
 40
0.000000
 41
0.000000
  0
VERTEX
  8
0
  6
CONTINUOUS
 10
4.798200
 20
6.352280
  0
VERTEX
  8
0
  6
CONTINUOUS
 10
4.796440
 20
7.093240
  0
VERTEX
  8
0
  6
CONTINUOUS
 10
4.837800
 20
7.091920
  0
VERTEX
  8
0
  6
CONTINUOUS
 10
4.839560
 20
6.350520
  0
VERTEX
  8
0
  6
CONTINUOUS
 10
4.798200
 20
6.352280
  0
SEQEND
  8
0
  0
SOLID
  8
0
 62
    15
 10
4.839560
 20
6.350520
 11
4.837800
 21
7.091920
 12
4.880040
 22
6.339960
 13
4.878280
 23
7.081360
  0
POLYLINE
  8
0
  6
CONTINUOUS
 66
     1
 40
0.000000
 41
0.000000
  0
VERTEX
  8
0
  6
CONTINUOUS
 10
4.839560
 20
6.350520
  0
VERTEX
  8
0
  6
CONTINUOUS
 10
4.837800
 20
7.091920
  0
VERTEX
  8
0
  6
CONTINUOUS
 10
4.878280
 20
7.081360
  0
VERTEX
  8
0
  6
CONTINUOUS
 10
4.880040
 20
6.339960
  0
VERTEX
  8
0
  6
CONTINUOUS
 10
4.839560
 20
6.350520
  0
SEQEND
  8
0
  0
SOLID
  8
0
 62
    15
 10
4.880040
 20
6.339960
 11
4.878280
 21
7.081360
 12
4.918320
 22
6.319720
 13
4.916560
 23
7.060680
  0
POLYLINE
  8
0
  6
CONTINUOUS
 66
     1
 40
0.000000
 41
0.000000
  0
VERTEX
  8
0
  6
CONTINUOUS
 10
4.880040
 20
6.339960
  0
VERTEX
  8
0
  6
CONTINUOUS
 10
4.878280
 20
7.081360
  0
VERTEX
  8
0
  6
CONTINUOUS
 10
4.916560
 20
7.060680
  0
VERTEX
  8
0
  6
CONTINUOUS
 10
4.918320
 20
6.319720
  0
VERTEX
  8
0
  6
CONTINUOUS
 10
4.880040
 20
6.339960
  0
SEQEND
  8
0
  0
SOLID
  8
0
 62
    15
 10
4.918320
 20
6.319720
 11
4.916560
 21
7.060680
 12
4.953960
 22
6.288480
 13
4.952200
 23
7.029440
  0
POLYLINE
  8
0
  6
CONTINUOUS
 66
     1
 40
0.000000
 41
0.000000
  0
VERTEX
  8
0
  6
CONTINUOUS
 10
4.918320
 20
6.319720
  0
VERTEX
  8
0
  6
CONTINUOUS
 10
4.916560
 20
7.060680
  0
VERTEX
  8
0
  6
CONTINUOUS
 10
4.952200
 20
7.029440
  0
VERTEX
  8
0
  6
CONTINUOUS
 10
4.953960
 20
6.288480
  0
VERTEX
  8
0
  6
CONTINUOUS
 10
4.918320
 20
6.319720
  0
SEQEND
  8
0
  0
SOLID
  8
0
 62
    15
 10
4.953960
 20
6.288480
 11
4.952200
 21
7.029440
 12
4.985200
 22
6.245360
 13
4.983440
 23
6.986760
  0
POLYLINE
  8
0
  6
CONTINUOUS
 66
     1
 40
0.000000
 41
0.000000
  0
VERTEX
  8
0
  6
CONTINUOUS
 10
4.953960
 20
6.288480
  0
VERTEX
  8
0
  6
CONTINUOUS
 10
4.952200
 20
7.029440
  0
VERTEX
  8
0
  6
CONTINUOUS
 10
4.983440
 20
6.986760
  0
VERTEX
  8
0
  6
CONTINUOUS
 10
4.985200
 20
6.245360
  0
VERTEX
  8
0
  6
CONTINUOUS
 10
4.953960
 20
6.288480
  0
SEQEND
  8
0
  0
SOLID
  8
0
 62
    15
 10
4.985200
 20
6.245360
 11
4.983440
 21
6.986760
 12
4.998840
 22
6.219400
 13
4.997520
 23
6.960360
  0
POLYLINE
  8
0
  6
CONTINUOUS
 66
     1
 40
0.000000
 41
0.000000
  0
VERTEX
  8
0
  6
CONTINUOUS
 10
4.985200
 20
6.245360
  0
VERTEX
  8
0
  6
CONTINUOUS
 10
4.983440
 20
6.986760
  0
VERTEX
  8
0
  6
CONTINUOUS
 10
4.997520
 20
6.960360
  0
VERTEX
  8
0
  6
CONTINUOUS
 10
4.998840
 20
6.219400
  0
VERTEX
  8
0
  6
CONTINUOUS
 10
4.985200
 20
6.245360
  0
SEQEND
  8
0
  0
SOLID
  8
0
 62
    15
 10
4.998840
 20
6.219400
 11
4.997520
 21
6.960360
 12
5.011600
 22
6.189920
 13
5.009840
 23
6.930880
  0
POLYLINE
  8
0
  6
CONTINUOUS
 66
     1
 40
0.000000
 41
0.000000
  0
VERTEX
  8
0
  6
CONTINUOUS
 10
4.998840
 20
6.219400
  0
VERTEX
  8
0
  6
CONTINUOUS
 10
4.997520
 20
6.960360
  0
VERTEX
  8
0
  6
CONTINUOUS
 10
5.009840
 20
6.930880
  0
VERTEX
  8
0
  6
CONTINUOUS
 10
5.011600
 20
6.189920
  0
VERTEX
  8
0
  6
CONTINUOUS
 10
4.998840
 20
6.219400
  0
SEQEND
  8
0
  0
SOLID
  8
0
 62
    15
 10
5.011600
 20
6.189920
 11
5.009840
 21
6.930880
 12
5.022600
 22
6.156920
 13
5.020840
 23
6.898320
  0
POLYLINE
  8
0
  6
CONTINUOUS
 66
     1
 40
0.000000
 41
0.000000
  0
VERTEX
  8
0
  6
CONTINUOUS
 10
5.011600
 20
6.189920
  0
VERTEX
  8
0
  6
CONTINUOUS
 10
5.009840
 20
6.930880
  0
VERTEX
  8
0
  6
CONTINUOUS
 10
5.020840
 20
6.898320
  0
VERTEX
  8
0
  6
CONTINUOUS
 10
5.022600
 20
6.156920
  0
VERTEX
  8
0
  6
CONTINUOUS
 10
5.011600
 20
6.189920
  0
SEQEND
  8
0
  0
SOLID
  8
0
 62
    15
 10
5.022600
 20
6.156920
 11
5.020840
 21
6.898320
 12
5.031840
 22
6.120840
 13
5.030080
 23
6.861800
  0
POLYLINE
  8
0
  6
CONTINUOUS
 66
     1
 40
0.000000
 41
0.000000
  0
VERTEX
  8
0
  6
CONTINUOUS
 10
5.022600
 20
6.156920
  0
VERTEX
  8
0
  6
CONTINUOUS
 10
5.020840
 20
6.898320
  0
VERTEX
  8
0
  6
CONTINUOUS
 10
5.030080
 20
6.861800
  0
VERTEX
  8
0
  6
CONTINUOUS
 10
5.031840
 20
6.120840
  0
VERTEX
  8
0
  6
CONTINUOUS
 10
5.022600
 20
6.156920
  0
SEQEND
  8
0
  0
SOLID
  8
0
 62
    15
 10
5.031840
 20
6.120840
 11
5.030080
 21
6.861800
 12
5.039760
 22
6.080800
 13
5.038000
 23
6.822200
  0
POLYLINE
  8
0
  6
CONTINUOUS
 66
     1
 40
0.000000
 41
0.000000
  0
VERTEX
  8
0
  6
CONTINUOUS
 10
5.031840
 20
6.120840
  0
VERTEX
  8
0
  6
CONTINUOUS
 10
5.030080
 20
6.861800
  0
VERTEX
  8
0
  6
CONTINUOUS
 10
5.038000
 20
6.822200
  0
VERTEX
  8
0
  6
CONTINUOUS
 10
5.039760
 20
6.080800
  0
VERTEX
  8
0
  6
CONTINUOUS
 10
5.031840
 20
6.120840
  0
SEQEND
  8
0
  0
SOLID
  8
0
 62
    15
 10
5.045480
 20
5.849800
 11
5.043720
 21
6.591200
 12
5.045480
 22
5.851120
 13
5.043720
 23
6.592080
  0
POLYLINE
  8
0
  6
CONTINUOUS
 66
     1
 40
0.000000
 41
0.000000
  0
VERTEX
  8
0
  6
CONTINUOUS
 10
5.045480
 20
5.849800
  0
VERTEX
  8
0
  6
CONTINUOUS
 10
5.043720
 20
6.591200
  0
VERTEX
  8
0
  6
CONTINUOUS
 10
5.043720
 20
6.592080
  0
VERTEX
  8
0
  6
CONTINUOUS
 10
5.045480
 20
5.851120
  0
VERTEX
  8
0
  6
CONTINUOUS
 10
5.045480
 20
5.849800
  0
SEQEND
  8
0
  0
SOLID
  8
0
 62
    15
 10
5.039760
 20
6.080800
 11
5.038000
 21
6.822200
 12
5.045480
 22
6.037240
 13
5.043720
 23
6.778200
  0
POLYLINE
  8
0
  6
CONTINUOUS
 66
     1
 40
0.000000
 41
0.000000
  0
VERTEX
  8
0
  6
CONTINUOUS
 10
5.039760
 20
6.080800
  0
VERTEX
  8
0
  6
CONTINUOUS
 10
5.038000
 20
6.822200
  0
VERTEX
  8
0
  6
CONTINUOUS
 10
5.043720
 20
6.778200
  0
VERTEX
  8
0
  6
CONTINUOUS
 10
5.045480
 20
6.037240
  0
VERTEX
  8
0
  6
CONTINUOUS
 10
5.039760
 20
6.080800
  0
SEQEND
  8
0
  0
POLYLINE
  8
0
  6
CONTINUOUS
 66
     1
 40
0.000000
 41
0.000000
  0
VERTEX
  8
0
  6
CONTINUOUS
 10
5.045480
 20
5.851120
  0
VERTEX
  8
0
  6
CONTINUOUS
 10
3.290320
 20
5.851120
  0
VERTEX
  8
0
  6
CONTINUOUS
 10
3.290320
 20
6.612760
  0
VERTEX
  8
0
  6
CONTINUOUS
 10
3.726360
 20
6.612760
  0
VERTEX
  8
0
  6
CONTINUOUS
 10
3.731200
 20
6.594280
  0
VERTEX
  8
0
  6
CONTINUOUS
 10
3.743080
 20
6.572720
  0
VERTEX
  8
0
  6
CONTINUOUS
 10
3.759360
 20
6.549840
  0
VERTEX
  8
0
  6
CONTINUOUS
 10
3.779600
 20
6.525640
  0
VERTEX
  8
0
  6
CONTINUOUS
 10
3.825800
 20
6.479440
  0
VERTEX
  8
0
  6
CONTINUOUS
 10
3.849120
 20
6.459200
  0
VERTEX
  8
0
  6
CONTINUOUS
 10
3.871120
 20
6.442480
  0
VERTEX
  8
0
  6
CONTINUOUS
 10
3.894880
 20
6.478120
  0
VERTEX
  8
0
  6
CONTINUOUS
 10
3.920400
 20
6.509800
  0
VERTEX
  8
0
  6
CONTINUOUS
 10
3.947680
 20
6.536640
  0
VERTEX
  8
0
  6
CONTINUOUS
 10
3.976280
 20
6.559520
  0
VERTEX
  8
0
  6
CONTINUOUS
 10
4.005760
 20
6.577560
  0
VERTEX
  8
0
  6
CONTINUOUS
 10
4.036560
 20
6.590760
  0
VERTEX
  8
0
  6
CONTINUOUS
 10
4.067360
 20
6.599120
  0
VERTEX
  8
0
  6
CONTINUOUS
 10
4.098600
 20
6.602640
  0
VERTEX
  8
0
  6
CONTINUOUS
 10
4.129400
 20
6.600880
  0
VERTEX
  8
0
  6
CONTINUOUS
 10
4.160200
 20
6.594280
  0
VERTEX
  8
0
  6
CONTINUOUS
 10
4.190560
 20
6.582400
  0
VERTEX
  8
0
  6
CONTINUOUS
 10
4.219600
 20
6.565240
  0
VERTEX
  8
0
  6
CONTINUOUS
 10
4.247760
 20
6.542360
  0
VERTEX
  8
0
  6
CONTINUOUS
 10
4.274600
 20
6.514200
  0
VERTEX
  8
0
  6
CONTINUOUS
 10
4.299240
 20
6.479880
  0
VERTEX
  8
0
  6
CONTINUOUS
 10
4.322560
 20
6.440280
  0
VERTEX
  8
0
  6
CONTINUOUS
 10
4.378440
 20
6.335120
  0
VERTEX
  8
0
  6
CONTINUOUS
 10
4.420240
 20
6.266920
  0
VERTEX
  8
0
  6
CONTINUOUS
 10
4.443560
 20
6.236120
  0
VERTEX
  8
0
  6
CONTINUOUS
 10
4.466440
 20
6.212800
  0
VERTEX
  8
0
  6
CONTINUOUS
 10
4.490200
 20
6.192560
  0
VERTEX
  8
0
  6
CONTINUOUS
 10
4.551360
 20
6.148120
  0
VERTEX
  8
0
  6
CONTINUOUS
 10
4.564560
 20
6.185960
  0
VERTEX
  8
0
  6
CONTINUOUS
 10
4.585240
 20
6.222480
  0
VERTEX
  8
0
  6
CONTINUOUS
 10
4.611640
 20
6.255920
  0
VERTEX
  8
0
  6
CONTINUOUS
 10
4.642880
 20
6.286280
  0
VERTEX
  8
0
  6
CONTINUOUS
 10
4.678080
 20
6.311800
  0
VERTEX
  8
0
  6
CONTINUOUS
 10
4.716800
 20
6.331600
  0
VERTEX
  8
0
  6
CONTINUOUS
 10
4.756840
 20
6.345680
  0
VERTEX
  8
0
  6
CONTINUOUS
 10
4.798200
 20
6.352280
  0
VERTEX
  8
0
  6
CONTINUOUS
 10
4.839560
 20
6.350520
  0
VERTEX
  8
0
  6
CONTINUOUS
 10
4.880040
 20
6.339960
  0
VERTEX
  8
0
  6
CONTINUOUS
 10
4.918320
 20
6.319720
  0
VERTEX
  8
0
  6
CONTINUOUS
 10
4.953960
 20
6.288480
  0
VERTEX
  8
0
  6
CONTINUOUS
 10
4.985200
 20
6.245360
  0
VERTEX
  8
0
  6
CONTINUOUS
 10
4.998840
 20
6.219400
  0
VERTEX
  8
0
  6
CONTINUOUS
 10
5.011600
 20
6.189920
  0
VERTEX
  8
0
  6
CONTINUOUS
 10
5.022600
 20
6.156920
  0
VERTEX
  8
0
  6
CONTINUOUS
 10
5.031840
 20
6.120840
  0
VERTEX
  8
0
  6
CONTINUOUS
 10
5.039760
 20
6.080800
  0
VERTEX
  8
0
  6
CONTINUOUS
 10
5.045480
 20
6.037240
  0
VERTEX
  8
0
  6
CONTINUOUS
 10
5.045480
 20
5.849800
  0
VERTEX
  8
0
  6
CONTINUOUS
 10
5.045480
 20
5.851120
  0
SEQEND
  8
0
  0
TEXT
  8
0
 10
3.824920
 20
5.577000
 40
0.138381
  1
BA  1191
 41
1.000000
  7
SN0
 71
     0
 72
     5
 11
4.507675
 21
5.577000
  0
TEXT
  8
0
 10
3.715360
 20
5.385160
 40
0.138381
  1
3/4" x 1-3/4"
 41
1.000000
  7
SN0
 71
     0
 72
     5
 11
4.617091
 21
5.385160
  0
POLYLINE
  8
0
  6
CONTINUOUS
 66
     1
 40
0.014080
 41
0.014080
  0
VERTEX
  8
0
  6
CONTINUOUS
 10
5.044600
 20
7.689000
  0
VERTEX
  8
0
  6
CONTINUOUS
 10
3.289440
 20
7.689000
  0
VERTEX
  8
0
  6
CONTINUOUS
 10
3.289440
 20
8.450640
  0
VERTEX
  8
0
  6
CONTINUOUS
 10
3.725480
 20
8.450640
  0
VERTEX
  8
0
  6
CONTINUOUS
 10
3.730760
 20
8.432160
  0
VERTEX
  8
0
  6
CONTINUOUS
 10
3.741760
 20
8.410600
  0
VERTEX
  8
0
  6
CONTINUOUS
 10
3.768160
 20
8.375840
  0
VERTEX
  8
0
  6
CONTINUOUS
 10
3.801160
 20
8.340200
  0
VERTEX
  8
0
  6
CONTINUOUS
 10
3.848240
 20
8.297520
  0
VERTEX
  8
0
  6
CONTINUOUS
 10
3.870240
 20
8.280360
  0
VERTEX
  8
0
  6
CONTINUOUS
 10
3.894000
 20
8.316000
  0
VERTEX
  8
0
  6
CONTINUOUS
 10
3.919520
 20
8.347680
  0
VERTEX
  8
0
  6
CONTINUOUS
 10
3.946800
 20
8.374960
  0
VERTEX
  8
0
  6
CONTINUOUS
 10
3.975400
 20
8.397400
  0
VERTEX
  8
0
  6
CONTINUOUS
 10
4.005320
 20
8.415440
  0
VERTEX
  8
0
  6
CONTINUOUS
 10
4.035680
 20
8.428640
  0
VERTEX
  8
0
  6
CONTINUOUS
 10
4.066480
 20
8.437000
  0
VERTEX
  8
0
  6
CONTINUOUS
 10
4.081880
 20
8.439640
  0
VERTEX
  8
0
  6
CONTINUOUS
 10
4.113120
 20
8.440520
  0
VERTEX
  8
0
  6
CONTINUOUS
 10
4.143920
 20
8.436560
  0
VERTEX
  8
0
  6
CONTINUOUS
 10
4.159320
 20
8.432600
  0
VERTEX
  8
0
  6
CONTINUOUS
 10
4.189680
 20
8.420280
  0
VERTEX
  8
0
  6
CONTINUOUS
 10
4.218720
 20
8.403120
  0
VERTEX
  8
0
  6
CONTINUOUS
 10
4.233240
 20
8.392560
  0
VERTEX
  8
0
  6
CONTINUOUS
 10
4.260520
 20
8.367040
  0
VERTEX
  8
0
  6
CONTINUOUS
 10
4.286480
 20
8.335800
  0
VERTEX
  8
0
  6
CONTINUOUS
 10
4.310240
 20
8.298840
  0
VERTEX
  8
0
  6
CONTINUOUS
 10
4.385480
 20
8.159360
  0
VERTEX
  8
0
  6
CONTINUOUS
 10
4.419360
 20
8.105240
  0
VERTEX
  8
0
  6
CONTINUOUS
 10
4.442680
 20
8.074440
  0
VERTEX
  8
0
  6
CONTINUOUS
 10
4.477000
 20
8.040560
  0
VERTEX
  8
0
  6
CONTINUOUS
 10
4.550480
 20
7.986000
  0
VERTEX
  8
0
  6
CONTINUOUS
 10
4.556200
 20
8.005360
  0
VERTEX
  8
0
  6
CONTINUOUS
 10
4.563680
 20
8.024280
  0
VERTEX
  8
0
  6
CONTINUOUS
 10
4.584360
 20
8.060360
  0
VERTEX
  8
0
  6
CONTINUOUS
 10
4.610760
 20
8.094240
  0
VERTEX
  8
0
  6
CONTINUOUS
 10
4.642000
 20
8.124160
  0
VERTEX
  8
0
  6
CONTINUOUS
 10
4.677200
 20
8.149680
  0
VERTEX
  8
0
  6
CONTINUOUS
 10
4.715920
 20
8.169480
  0
VERTEX
  8
0
  6
CONTINUOUS
 10
4.735720
 20
8.177400
  0
VERTEX
  8
0
  6
CONTINUOUS
 10
4.755960
 20
8.183560
  0
VERTEX
  8
0
  6
CONTINUOUS
 10
4.776640
 20
8.187960
  0
VERTEX
  8
0
  6
CONTINUOUS
 10
4.797760
 20
8.190160
  0
VERTEX
  8
0
  6
CONTINUOUS
 10
4.818440
 20
8.190600
  0
VERTEX
  8
0
  6
CONTINUOUS
 10
4.839120
 20
8.188400
  0
VERTEX
  8
0
  6
CONTINUOUS
 10
4.859360
 20
8.184440
  0
VERTEX
  8
0
  6
CONTINUOUS
 10
4.889280
 20
8.173880
  0
VERTEX
  8
0
  6
CONTINUOUS
 10
4.917880
 20
8.157600
  0
VERTEX
  8
0
  6
CONTINUOUS
 10
4.944720
 20
8.135160
  0
VERTEX
  8
0
  6
CONTINUOUS
 10
4.969360
 20
8.106560
  0
VERTEX
  8
0
  6
CONTINUOUS
 10
4.991360
 20
8.070920
  0
VERTEX
  8
0
  6
CONTINUOUS
 10
5.010720
 20
8.027800
  0
VERTEX
  8
0
  6
CONTINUOUS
 10
5.026560
 20
7.977200
  0
VERTEX
  8
0
  6
CONTINUOUS
 10
5.035360
 20
7.939360
  0
VERTEX
  8
0
  6
CONTINUOUS
 10
5.044600
 20
7.875120
  0
VERTEX
  8
0
  6
CONTINUOUS
 10
5.044600
 20
7.687680
  0
VERTEX
  8
0
  6
CONTINUOUS
 10
5.044600
 20
7.689000
  0
SEQEND
  8
0
  0
TEXT
  8
0
 10
3.483040
 20
8.029120
 40
0.138381
  1
BA  1191
 41
1.000000
  7
SN0
 71
     0
 72
     5
 11
4.165795
 21
8.029120
  0
TEXT
  8
0
 10
3.373480
 20
7.837280
 40
0.138381
  1
3/4" x 1-3/4"
 41
1.000000
  7
SN0
 71
     0
 72
     5
 11
4.275211
 21
7.837280
  0
ENDSEC
  0
EOF
