  0
SECTION
  2
HEADER
  9
$ACADVER
  1
AC1006
  9
$EXTMIN
 10
3.451800
 20
2.013000
  9
$EXTMAX
 10
5.730120
 20
9.686160
  9
$LTSCALE
 40
0.044000
  9
$PDMODE
 70
    35
  9
$PDSIZE
 40
0.035200
  0
ENDSEC
  0
SECTION
  2
TABLES
  0
TABLE
  2
LTYPE
 70
     9
  0
LTYPE
  2
CONTINUOUS
 70
    64
  3
Solid line
 72
    65
 73
     0
 40
0.000000
  0
LTYPE
  2
DASHED
 70
    64
  3
__ __ __ __ __ __ __ __ __ __ __ __ __ __ __
 72
    65
 73
     2
 40
0.000330
 49
0.000220
 49
-0.000110
  0
LTYPE
  2
HIDDEN
 70
    64
  3
 _ _ _ _ _ _ _ _ _ _ _ _ _ _ _ _ _ _ _ _ _ _
 72
    65
 73
     2
 40
0.000165
 49
0.000110
 49
-0.000055
  0
LTYPE
  2
CENTER
 70
    64
  3
____ _ ____ _ ____ _ ____ _ ____ _ ____ _ ____
 72
    65
 73
     4
 40
0.000880
 49
0.000550
 49
-0.000110
 49
0.000110
 49
-0.000110
  0
LTYPE
  2
PHANTOM
 70
    64
  3
_____ _ _ _____ _ _ _____ _ _ _____ _ _ ____
 72
    65
 73
     6
 40
0.001100
 49
0.000550
 49
-0.000110
 49
0.000110
 49
-0.000110
 49
0.000110
 49
-0.000110
  0
LTYPE
  2
DOT
 70
    64
  3
...............................................
 72
    65
 73
     2
 40
0.000110
 49
0.000000
 49
-0.000110
  0
LTYPE
  2
DASHDOT
 70
    64
  3
__ . __ . __ . __ . __ . __ . __ . __ . __ . __
 72
    65
 73
     4
 40
0.000440
 49
0.000220
 49
-0.000110
 49
0.000000
 49
-0.000110
  0
LTYPE
  2
BORDER
 70
    64
  3
__ __ . __ __ . __ __ . __ __ . __ __ . __ __
 72
    65
 73
     6
 40
0.000770
 49
0.000220
 49
-0.000110
 49
0.000220
 49
-0.000110
 49
0.000000
 49
-0.000110
  0
LTYPE
  2
DIVIDE
 70
    64
  3
__ . . __ . . __ . . __ . . __ . . __ . . __
 72
    65
 73
     6
 40
0.000550
 49
0.000220
 49
-0.000110
 49
0.000000
 49
-0.000110
 49
0.000000
 49
-0.000110
  0
LTYPE
  2
DOTDOT
 70
    64
  3
 . .  . .  . .  . .  . .  . . 
 72
    65
 73
     5
 40
0.000242
 49
-0.000110
 49
0.000000
 49
-0.000110
 49
0.000000
 49
-0.000110
  0
ENDTAB
  0
TABLE
  2
STYLE
 70
     2
  0
STYLE
 70
     0
  2
SN0
 40
0.000000
 41
0.000440
 50
0.000000
 71
     0
 42
0.000000
  3
ROMAND
  0
STYLE
 70
    68
  2
SV0
 40
0.000000
 41
0.000440
 50
0.000000
 71
     0
 42
0.000000
  3
ROMAND
  0
ENDTAB
  0
TABLE
  2
LAYER
 70
     3
  0
LAYER
  2
FOREGROUND
 70
    64
 62
     7
  6
CONTINUOUS
  0
LAYER
  2
BACKGROUND
 70
    65
 62
    -7
  6
CONTINUOUS
  0
LAYER
  2
0
 70
    64
 62
     7
  6
CONTINUOUS
  0
ENDTAB
  0
ENDSEC
  0
SECTION
  2
ENTITIES
  0
POLYLINE
  8
FOREGROUND
  6
CONTINUOUS
 66
     1
 40
0.000000
 41
0.000000
  0
VERTEX
  8
FOREGROUND
  6
CONTINUOUS
 10
0.000000
 20
11.699160
  0
VERTEX
  8
FOREGROUND
  6
CONTINUOUS
 10
8.499920
 20
11.699160
  0
VERTEX
  8
FOREGROUND
  6
CONTINUOUS
 10
8.499920
 20
0.699160
  0
VERTEX
  8
FOREGROUND
  6
CONTINUOUS
 10
0.000000
 20
0.699160
  0
VERTEX
  8
FOREGROUND
  6
CONTINUOUS
 10
0.000000
 20
11.699160
  0
SEQEND
  8
0
  0
POLYLINE
  8
FOREGROUND
  6
CONTINUOUS
 66
     1
 40
0.000000
 41
0.000000
  0
VERTEX
  8
FOREGROUND
  6
CONTINUOUS
 10
0.000000
 20
11.699160
  0
VERTEX
  8
FOREGROUND
  6
CONTINUOUS
 10
8.499920
 20
11.699160
  0
VERTEX
  8
FOREGROUND
  6
CONTINUOUS
 10
8.499920
 20
0.699160
  0
VERTEX
  8
FOREGROUND
  6
CONTINUOUS
 10
0.000000
 20
0.699160
  0
VERTEX
  8
FOREGROUND
  6
CONTINUOUS
 10
0.000000
 20
11.699160
  0
SEQEND
  8
0
  0
POLYLINE
  8
0
  6
CONTINUOUS
 66
     1
 40
0.000000
 41
0.000000
  0
VERTEX
  8
0
  6
CONTINUOUS
 10
5.181880
 20
2.013000
  0
VERTEX
  8
0
  6
CONTINUOUS
 10
5.038880
 20
2.013000
  0
VERTEX
  8
0
  6
CONTINUOUS
 10
5.038880
 20
2.135760
  0
VERTEX
  8
0
  6
CONTINUOUS
 10
4.993120
 20
2.138840
  0
VERTEX
  8
0
  6
CONTINUOUS
 10
4.950440
 20
2.146320
  0
VERTEX
  8
0
  6
CONTINUOUS
 10
4.912160
 20
2.159080
  0
VERTEX
  8
0
  6
CONTINUOUS
 10
4.877840
 20
2.176680
  0
VERTEX
  8
0
  6
CONTINUOUS
 10
4.857600
 20
2.191640
  0
VERTEX
  8
0
  6
CONTINUOUS
 10
4.838680
 20
2.209680
  0
VERTEX
  8
0
  6
CONTINUOUS
 10
4.814480
 20
2.242240
  0
VERTEX
  8
0
  6
CONTINUOUS
 10
4.801280
 20
2.267760
  0
VERTEX
  8
0
  6
CONTINUOUS
 10
4.789840
 20
2.296800
  0
VERTEX
  8
0
  6
CONTINUOUS
 10
4.776640
 20
2.346960
  0
VERTEX
  8
0
  6
CONTINUOUS
 10
4.768720
 20
2.405480
  0
VERTEX
  8
0
  6
CONTINUOUS
 10
4.766080
 20
2.472800
  0
VERTEX
  8
0
  6
CONTINUOUS
 10
4.631440
 20
2.472800
  0
VERTEX
  8
0
  6
CONTINUOUS
 10
4.631440
 20
2.647480
  0
VERTEX
  8
0
  6
CONTINUOUS
 10
4.568520
 20
2.679600
  0
VERTEX
  8
0
  6
CONTINUOUS
 10
4.509560
 20
2.717000
  0
VERTEX
  8
0
  6
CONTINUOUS
 10
4.480960
 20
2.737240
  0
VERTEX
  8
0
  6
CONTINUOUS
 10
4.427720
 20
2.782120
  0
VERTEX
  8
0
  6
CONTINUOUS
 10
4.402200
 20
2.806320
  0
VERTEX
  8
0
  6
CONTINUOUS
 10
4.354680
 20
2.858240
  0
VERTEX
  8
0
  6
CONTINUOUS
 10
4.312000
 20
2.915440
  0
VERTEX
  8
0
  6
CONTINUOUS
 10
4.292200
 20
2.945800
  0
VERTEX
  8
0
  6
CONTINUOUS
 10
4.256120
 20
3.010480
  0
VERTEX
  8
0
  6
CONTINUOUS
 10
4.217400
 20
3.092320
  0
VERTEX
  8
0
  6
CONTINUOUS
 10
4.194080
 20
3.133680
  0
VERTEX
  8
0
  6
CONTINUOUS
 10
4.163280
 20
3.179000
  0
VERTEX
  8
0
  6
CONTINUOUS
 10
4.132040
 20
3.215520
  0
VERTEX
  8
0
  6
CONTINUOUS
 10
4.101240
 20
3.245000
  0
VERTEX
  8
0
  6
CONTINUOUS
 10
4.055480
 20
3.280200
  0
VERTEX
  8
0
  6
CONTINUOUS
 10
3.995200
 20
3.319800
  0
VERTEX
  8
0
  6
CONTINUOUS
 10
3.995200
 20
3.616360
  0
VERTEX
  8
0
  6
CONTINUOUS
 10
5.187160
 20
3.616360
  0
VERTEX
  8
0
  6
CONTINUOUS
 10
5.187160
 20
2.013000
  0
VERTEX
  8
0
  6
CONTINUOUS
 10
5.181880
 20
2.013000
  0
SEQEND
  8
0
  0
POLYLINE
  8
0
  6
CONTINUOUS
 66
     1
 40
0.000000
 41
0.000000
  0
VERTEX
  8
0
  6
CONTINUOUS
 10
4.000040
 20
4.033480
  0
VERTEX
  8
0
  6
CONTINUOUS
 10
4.143040
 20
4.033480
  0
VERTEX
  8
0
  6
CONTINUOUS
 10
4.143040
 20
4.156240
  0
VERTEX
  8
0
  6
CONTINUOUS
 10
4.189240
 20
4.159320
  0
VERTEX
  8
0
  6
CONTINUOUS
 10
4.231480
 20
4.166800
  0
VERTEX
  8
0
  6
CONTINUOUS
 10
4.257440
 20
4.174280
  0
VERTEX
  8
0
  6
CONTINUOUS
 10
4.293080
 20
4.190560
  0
VERTEX
  8
0
  6
CONTINUOUS
 10
4.324760
 20
4.212120
  0
VERTEX
  8
0
  6
CONTINUOUS
 10
4.352040
 20
4.240280
  0
VERTEX
  8
0
  6
CONTINUOUS
 10
4.367440
 20
4.262720
  0
VERTEX
  8
0
  6
CONTINUOUS
 10
4.387240
 20
4.302320
  0
VERTEX
  8
0
  6
CONTINUOUS
 10
4.401760
 20
4.349840
  0
VERTEX
  8
0
  6
CONTINUOUS
 10
4.408800
 20
4.385920
  0
VERTEX
  8
0
  6
CONTINUOUS
 10
4.413640
 20
4.425960
  0
VERTEX
  8
0
  6
CONTINUOUS
 10
4.416280
 20
4.493280
  0
VERTEX
  8
0
  6
CONTINUOUS
 10
4.550920
 20
4.493280
  0
VERTEX
  8
0
  6
CONTINUOUS
 10
4.550920
 20
4.667960
  0
VERTEX
  8
0
  6
CONTINUOUS
 10
4.613840
 20
4.700080
  0
VERTEX
  8
0
  6
CONTINUOUS
 10
4.672800
 20
4.737480
  0
VERTEX
  8
0
  6
CONTINUOUS
 10
4.701400
 20
4.757720
  0
VERTEX
  8
0
  6
CONTINUOUS
 10
4.754640
 20
4.802600
  0
VERTEX
  8
0
  6
CONTINUOUS
 10
4.804360
 20
4.852320
  0
VERTEX
  8
0
  6
CONTINUOUS
 10
4.827680
 20
4.878720
  0
VERTEX
  8
0
  6
CONTINUOUS
 10
4.870360
 20
4.935920
  0
VERTEX
  8
0
  6
CONTINUOUS
 10
4.908640
 20
4.997520
  0
VERTEX
  8
0
  6
CONTINUOUS
 10
4.926240
 20
5.030520
  0
VERTEX
  8
0
  6
CONTINUOUS
 10
4.964960
 20
5.112800
  0
VERTEX
  8
0
  6
CONTINUOUS
 10
4.988280
 20
5.153720
  0
VERTEX
  8
0
  6
CONTINUOUS
 10
5.019080
 20
5.199480
  0
VERTEX
  8
0
  6
CONTINUOUS
 10
5.049880
 20
5.236000
  0
VERTEX
  8
0
  6
CONTINUOUS
 10
5.080680
 20
5.265480
  0
VERTEX
  8
0
  6
CONTINUOUS
 10
5.126880
 20
5.300680
  0
VERTEX
  8
0
  6
CONTINUOUS
 10
5.187160
 20
5.340280
  0
VERTEX
  8
0
  6
CONTINUOUS
 10
5.187160
 20
5.636840
  0
VERTEX
  8
0
  6
CONTINUOUS
 10
3.995200
 20
5.636840
  0
VERTEX
  8
0
  6
CONTINUOUS
 10
3.995200
 20
4.033480
  0
VERTEX
  8
0
  6
CONTINUOUS
 10
4.000040
 20
4.033480
  0
SEQEND
  8
0
  0
SOLID
  8
0
 62
    15
 10
4.185720
 20
7.205000
 11
4.825920
 21
6.834960
 12
4.130280
 22
7.162760
 13
4.770480
 23
6.792720
  0
POLYLINE
  8
0
  6
CONTINUOUS
 66
     1
 40
0.000000
 41
0.000000
  0
VERTEX
  8
0
  6
CONTINUOUS
 10
4.185720
 20
7.205000
  0
VERTEX
  8
0
  6
CONTINUOUS
 10
4.825920
 20
6.834960
  0
VERTEX
  8
0
  6
CONTINUOUS
 10
4.770480
 20
6.792720
  0
VERTEX
  8
0
  6
CONTINUOUS
 10
4.130280
 20
7.162760
  0
VERTEX
  8
0
  6
CONTINUOUS
 10
4.185720
 20
7.205000
  0
SEQEND
  8
0
  0
SOLID
  8
0
 62
    15
 10
4.644200
 20
7.765560
 11
5.284840
 21
7.395520
 12
4.629240
 22
7.755880
 13
5.269880
 23
7.385840
  0
POLYLINE
  8
0
  6
CONTINUOUS
 66
     1
 40
0.000000
 41
0.000000
  0
VERTEX
  8
0
  6
CONTINUOUS
 10
4.644200
 20
7.765560
  0
VERTEX
  8
0
  6
CONTINUOUS
 10
5.284840
 20
7.395520
  0
VERTEX
  8
0
  6
CONTINUOUS
 10
5.269880
 20
7.385840
  0
VERTEX
  8
0
  6
CONTINUOUS
 10
4.629240
 20
7.755880
  0
VERTEX
  8
0
  6
CONTINUOUS
 10
4.644200
 20
7.765560
  0
SEQEND
  8
0
  0
SOLID
  8
0
 62
    15
 10
4.629240
 20
7.755880
 11
5.269880
 21
7.385840
 12
4.614280
 22
7.746200
 13
5.254480
 23
7.376160
  0
POLYLINE
  8
0
  6
CONTINUOUS
 66
     1
 40
0.000000
 41
0.000000
  0
VERTEX
  8
0
  6
CONTINUOUS
 10
4.629240
 20
7.755880
  0
VERTEX
  8
0
  6
CONTINUOUS
 10
5.269880
 20
7.385840
  0
VERTEX
  8
0
  6
CONTINUOUS
 10
5.254480
 20
7.376160
  0
VERTEX
  8
0
  6
CONTINUOUS
 10
4.614280
 20
7.746200
  0
VERTEX
  8
0
  6
CONTINUOUS
 10
4.629240
 20
7.755880
  0
SEQEND
  8
0
  0
SOLID
  8
0
 62
    15
 10
4.614280
 20
7.746200
 11
5.254480
 21
7.376160
 12
4.599320
 22
7.736080
 13
5.239520
 23
7.366040
  0
POLYLINE
  8
0
  6
CONTINUOUS
 66
     1
 40
0.000000
 41
0.000000
  0
VERTEX
  8
0
  6
CONTINUOUS
 10
4.614280
 20
7.746200
  0
VERTEX
  8
0
  6
CONTINUOUS
 10
5.254480
 20
7.376160
  0
VERTEX
  8
0
  6
CONTINUOUS
 10
5.239520
 20
7.366040
  0
VERTEX
  8
0
  6
CONTINUOUS
 10
4.599320
 20
7.736080
  0
VERTEX
  8
0
  6
CONTINUOUS
 10
4.614280
 20
7.746200
  0
SEQEND
  8
0
  0
SOLID
  8
0
 62
    15
 10
4.599320
 20
7.736080
 11
5.239520
 21
7.366040
 12
4.583920
 22
7.725960
 13
5.224120
 23
7.355920
  0
POLYLINE
  8
0
  6
CONTINUOUS
 66
     1
 40
0.000000
 41
0.000000
  0
VERTEX
  8
0
  6
CONTINUOUS
 10
4.599320
 20
7.736080
  0
VERTEX
  8
0
  6
CONTINUOUS
 10
5.239520
 20
7.366040
  0
VERTEX
  8
0
  6
CONTINUOUS
 10
5.224120
 20
7.355920
  0
VERTEX
  8
0
  6
CONTINUOUS
 10
4.583920
 20
7.725960
  0
VERTEX
  8
0
  6
CONTINUOUS
 10
4.599320
 20
7.736080
  0
SEQEND
  8
0
  0
SOLID
  8
0
 62
    15
 10
4.583920
 20
7.725960
 11
5.224120
 21
7.355920
 12
4.522760
 22
7.677120
 13
5.162960
 23
7.307080
  0
POLYLINE
  8
0
  6
CONTINUOUS
 66
     1
 40
0.000000
 41
0.000000
  0
VERTEX
  8
0
  6
CONTINUOUS
 10
4.583920
 20
7.725960
  0
VERTEX
  8
0
  6
CONTINUOUS
 10
5.224120
 20
7.355920
  0
VERTEX
  8
0
  6
CONTINUOUS
 10
5.162960
 20
7.307080
  0
VERTEX
  8
0
  6
CONTINUOUS
 10
4.522760
 20
7.677120
  0
VERTEX
  8
0
  6
CONTINUOUS
 10
4.583920
 20
7.725960
  0
SEQEND
  8
0
  0
SOLID
  8
0
 62
    15
 10
4.522760
 20
7.677120
 11
5.162960
 21
7.307080
 12
4.491520
 22
7.644120
 13
5.132160
 23
7.274080
  0
POLYLINE
  8
0
  6
CONTINUOUS
 66
     1
 40
0.000000
 41
0.000000
  0
VERTEX
  8
0
  6
CONTINUOUS
 10
4.522760
 20
7.677120
  0
VERTEX
  8
0
  6
CONTINUOUS
 10
5.162960
 20
7.307080
  0
VERTEX
  8
0
  6
CONTINUOUS
 10
5.132160
 20
7.274080
  0
VERTEX
  8
0
  6
CONTINUOUS
 10
4.491520
 20
7.644120
  0
VERTEX
  8
0
  6
CONTINUOUS
 10
4.522760
 20
7.677120
  0
SEQEND
  8
0
  0
SOLID
  8
0
 62
    15
 10
4.491520
 20
7.644120
 11
5.132160
 21
7.274080
 12
4.460720
 22
7.603640
 13
5.100920
 23
7.233600
  0
POLYLINE
  8
0
  6
CONTINUOUS
 66
     1
 40
0.000000
 41
0.000000
  0
VERTEX
  8
0
  6
CONTINUOUS
 10
4.491520
 20
7.644120
  0
VERTEX
  8
0
  6
CONTINUOUS
 10
5.132160
 20
7.274080
  0
VERTEX
  8
0
  6
CONTINUOUS
 10
5.100920
 20
7.233600
  0
VERTEX
  8
0
  6
CONTINUOUS
 10
4.460720
 20
7.603640
  0
VERTEX
  8
0
  6
CONTINUOUS
 10
4.491520
 20
7.644120
  0
SEQEND
  8
0
  0
SOLID
  8
0
 62
    15
 10
4.460720
 20
7.603640
 11
5.100920
 21
7.233600
 12
4.429920
 22
7.552600
 13
5.070120
 23
7.182560
  0
POLYLINE
  8
0
  6
CONTINUOUS
 66
     1
 40
0.000000
 41
0.000000
  0
VERTEX
  8
0
  6
CONTINUOUS
 10
4.460720
 20
7.603640
  0
VERTEX
  8
0
  6
CONTINUOUS
 10
5.100920
 20
7.233600
  0
VERTEX
  8
0
  6
CONTINUOUS
 10
5.070120
 20
7.182560
  0
VERTEX
  8
0
  6
CONTINUOUS
 10
4.429920
 20
7.552600
  0
VERTEX
  8
0
  6
CONTINUOUS
 10
4.460720
 20
7.603640
  0
SEQEND
  8
0
  0
SOLID
  8
0
 62
    15
 10
4.429920
 20
7.552600
 11
5.070120
 21
7.182560
 12
4.399120
 22
7.490120
 13
5.039320
 23
7.120080
  0
POLYLINE
  8
0
  6
CONTINUOUS
 66
     1
 40
0.000000
 41
0.000000
  0
VERTEX
  8
0
  6
CONTINUOUS
 10
4.429920
 20
7.552600
  0
VERTEX
  8
0
  6
CONTINUOUS
 10
5.070120
 20
7.182560
  0
VERTEX
  8
0
  6
CONTINUOUS
 10
5.039320
 20
7.120080
  0
VERTEX
  8
0
  6
CONTINUOUS
 10
4.399120
 20
7.490120
  0
VERTEX
  8
0
  6
CONTINUOUS
 10
4.429920
 20
7.552600
  0
SEQEND
  8
0
  0
SOLID
  8
0
 62
    15
 10
4.399120
 20
7.490120
 11
5.039320
 21
7.120080
 12
4.365680
 22
7.423240
 13
5.006320
 23
7.053200
  0
POLYLINE
  8
0
  6
CONTINUOUS
 66
     1
 40
0.000000
 41
0.000000
  0
VERTEX
  8
0
  6
CONTINUOUS
 10
4.399120
 20
7.490120
  0
VERTEX
  8
0
  6
CONTINUOUS
 10
5.039320
 20
7.120080
  0
VERTEX
  8
0
  6
CONTINUOUS
 10
5.006320
 20
7.053200
  0
VERTEX
  8
0
  6
CONTINUOUS
 10
4.365680
 20
7.423240
  0
VERTEX
  8
0
  6
CONTINUOUS
 10
4.399120
 20
7.490120
  0
SEQEND
  8
0
  0
SOLID
  8
0
 62
    15
 10
4.365680
 20
7.423240
 11
5.006320
 21
7.053200
 12
4.327840
 22
7.361640
 13
4.968040
 23
6.991600
  0
POLYLINE
  8
0
  6
CONTINUOUS
 66
     1
 40
0.000000
 41
0.000000
  0
VERTEX
  8
0
  6
CONTINUOUS
 10
4.365680
 20
7.423240
  0
VERTEX
  8
0
  6
CONTINUOUS
 10
5.006320
 20
7.053200
  0
VERTEX
  8
0
  6
CONTINUOUS
 10
4.968040
 20
6.991600
  0
VERTEX
  8
0
  6
CONTINUOUS
 10
4.327840
 20
7.361640
  0
VERTEX
  8
0
  6
CONTINUOUS
 10
4.365680
 20
7.423240
  0
SEQEND
  8
0
  0
SOLID
  8
0
 62
    15
 10
4.327840
 20
7.361640
 11
4.968040
 21
6.991600
 12
4.284720
 22
7.304440
 13
4.924920
 23
6.934400
  0
POLYLINE
  8
0
  6
CONTINUOUS
 66
     1
 40
0.000000
 41
0.000000
  0
VERTEX
  8
0
  6
CONTINUOUS
 10
4.327840
 20
7.361640
  0
VERTEX
  8
0
  6
CONTINUOUS
 10
4.968040
 20
6.991600
  0
VERTEX
  8
0
  6
CONTINUOUS
 10
4.924920
 20
6.934400
  0
VERTEX
  8
0
  6
CONTINUOUS
 10
4.284720
 20
7.304440
  0
VERTEX
  8
0
  6
CONTINUOUS
 10
4.327840
 20
7.361640
  0
SEQEND
  8
0
  0
SOLID
  8
0
 62
    15
 10
4.284720
 20
7.304440
 11
4.924920
 21
6.934400
 12
4.237200
 22
7.252520
 13
4.877400
 23
6.882040
  0
POLYLINE
  8
0
  6
CONTINUOUS
 66
     1
 40
0.000000
 41
0.000000
  0
VERTEX
  8
0
  6
CONTINUOUS
 10
4.284720
 20
7.304440
  0
VERTEX
  8
0
  6
CONTINUOUS
 10
4.924920
 20
6.934400
  0
VERTEX
  8
0
  6
CONTINUOUS
 10
4.877400
 20
6.882040
  0
VERTEX
  8
0
  6
CONTINUOUS
 10
4.237200
 20
7.252520
  0
VERTEX
  8
0
  6
CONTINUOUS
 10
4.284720
 20
7.304440
  0
SEQEND
  8
0
  0
SOLID
  8
0
 62
    15
 10
4.237200
 20
7.252520
 11
4.877400
 21
6.882040
 12
4.185720
 22
7.205000
 13
4.825920
 23
6.834960
  0
POLYLINE
  8
0
  6
CONTINUOUS
 66
     1
 40
0.000000
 41
0.000000
  0
VERTEX
  8
0
  6
CONTINUOUS
 10
4.237200
 20
7.252520
  0
VERTEX
  8
0
  6
CONTINUOUS
 10
4.877400
 20
6.882040
  0
VERTEX
  8
0
  6
CONTINUOUS
 10
4.825920
 20
6.834960
  0
VERTEX
  8
0
  6
CONTINUOUS
 10
4.185720
 20
7.205000
  0
VERTEX
  8
0
  6
CONTINUOUS
 10
4.237200
 20
7.252520
  0
SEQEND
  8
0
  0
SOLID
  8
0
 62
    15
 10
4.644200
 20
8.062120
 11
5.284840
 21
7.692080
 12
4.644200
 22
7.765560
 13
5.284840
 23
7.395520
  0
POLYLINE
  8
0
  6
CONTINUOUS
 66
     1
 40
0.000000
 41
0.000000
  0
VERTEX
  8
0
  6
CONTINUOUS
 10
4.644200
 20
8.062120
  0
VERTEX
  8
0
  6
CONTINUOUS
 10
5.284840
 20
7.692080
  0
VERTEX
  8
0
  6
CONTINUOUS
 10
5.284840
 20
7.395520
  0
VERTEX
  8
0
  6
CONTINUOUS
 10
4.644200
 20
7.765560
  0
VERTEX
  8
0
  6
CONTINUOUS
 10
4.644200
 20
8.062120
  0
SEQEND
  8
0
  0
SOLID
  8
0
 62
    15
 10
4.130280
 20
7.162760
 11
4.770480
 21
6.792720
 12
4.070880
 22
7.125800
 13
4.711080
 23
6.755760
  0
POLYLINE
  8
0
  6
CONTINUOUS
 66
     1
 40
0.000000
 41
0.000000
  0
VERTEX
  8
0
  6
CONTINUOUS
 10
4.130280
 20
7.162760
  0
VERTEX
  8
0
  6
CONTINUOUS
 10
4.770480
 20
6.792720
  0
VERTEX
  8
0
  6
CONTINUOUS
 10
4.711080
 20
6.755760
  0
VERTEX
  8
0
  6
CONTINUOUS
 10
4.070880
 20
7.125800
  0
VERTEX
  8
0
  6
CONTINUOUS
 10
4.130280
 20
7.162760
  0
SEQEND
  8
0
  0
SOLID
  8
0
 62
    15
 10
4.070880
 20
7.125800
 11
4.711080
 21
6.755760
 12
4.008400
 22
7.093680
 13
4.648600
 23
6.723200
  0
POLYLINE
  8
0
  6
CONTINUOUS
 66
     1
 40
0.000000
 41
0.000000
  0
VERTEX
  8
0
  6
CONTINUOUS
 10
4.070880
 20
7.125800
  0
VERTEX
  8
0
  6
CONTINUOUS
 10
4.711080
 20
6.755760
  0
VERTEX
  8
0
  6
CONTINUOUS
 10
4.648600
 20
6.723200
  0
VERTEX
  8
0
  6
CONTINUOUS
 10
4.008400
 20
7.093680
  0
VERTEX
  8
0
  6
CONTINUOUS
 10
4.070880
 20
7.125800
  0
SEQEND
  8
0
  0
SOLID
  8
0
 62
    15
 10
4.008400
 20
7.093680
 11
4.648600
 21
6.723200
 12
4.008400
 22
6.918560
 13
4.648600
 23
6.548520
  0
POLYLINE
  8
0
  6
CONTINUOUS
 66
     1
 40
0.000000
 41
0.000000
  0
VERTEX
  8
0
  6
CONTINUOUS
 10
4.008400
 20
7.093680
  0
VERTEX
  8
0
  6
CONTINUOUS
 10
4.648600
 20
6.723200
  0
VERTEX
  8
0
  6
CONTINUOUS
 10
4.648600
 20
6.548520
  0
VERTEX
  8
0
  6
CONTINUOUS
 10
4.008400
 20
6.918560
  0
VERTEX
  8
0
  6
CONTINUOUS
 10
4.008400
 20
7.093680
  0
SEQEND
  8
0
  0
SOLID
  8
0
 62
    15
 10
4.008400
 20
6.918560
 11
4.648600
 21
6.548520
 12
3.873320
 22
6.918560
 13
4.513960
 23
6.548520
  0
POLYLINE
  8
0
  6
CONTINUOUS
 66
     1
 40
0.000000
 41
0.000000
  0
VERTEX
  8
0
  6
CONTINUOUS
 10
4.008400
 20
6.918560
  0
VERTEX
  8
0
  6
CONTINUOUS
 10
4.648600
 20
6.548520
  0
VERTEX
  8
0
  6
CONTINUOUS
 10
4.513960
 20
6.548520
  0
VERTEX
  8
0
  6
CONTINUOUS
 10
3.873320
 20
6.918560
  0
VERTEX
  8
0
  6
CONTINUOUS
 10
4.008400
 20
6.918560
  0
SEQEND
  8
0
  0
SOLID
  8
0
 62
    15
 10
3.873320
 20
6.918560
 11
4.513960
 21
6.548520
 12
3.868920
 22
6.831000
 13
4.509120
 23
6.460960
  0
POLYLINE
  8
0
  6
CONTINUOUS
 66
     1
 40
0.000000
 41
0.000000
  0
VERTEX
  8
0
  6
CONTINUOUS
 10
3.873320
 20
6.918560
  0
VERTEX
  8
0
  6
CONTINUOUS
 10
4.513960
 20
6.548520
  0
VERTEX
  8
0
  6
CONTINUOUS
 10
4.509120
 20
6.460960
  0
VERTEX
  8
0
  6
CONTINUOUS
 10
3.868920
 20
6.831000
  0
VERTEX
  8
0
  6
CONTINUOUS
 10
3.873320
 20
6.918560
  0
SEQEND
  8
0
  0
SOLID
  8
0
 62
    15
 10
3.868920
 20
6.831000
 11
4.509120
 21
6.460960
 12
3.854840
 22
6.758400
 13
4.495040
 23
6.388360
  0
POLYLINE
  8
0
  6
CONTINUOUS
 66
     1
 40
0.000000
 41
0.000000
  0
VERTEX
  8
0
  6
CONTINUOUS
 10
3.868920
 20
6.831000
  0
VERTEX
  8
0
  6
CONTINUOUS
 10
4.509120
 20
6.460960
  0
VERTEX
  8
0
  6
CONTINUOUS
 10
4.495040
 20
6.388360
  0
VERTEX
  8
0
  6
CONTINUOUS
 10
3.854840
 20
6.758400
  0
VERTEX
  8
0
  6
CONTINUOUS
 10
3.868920
 20
6.831000
  0
SEQEND
  8
0
  0
SOLID
  8
0
 62
    15
 10
3.854840
 20
6.758400
 11
4.495040
 21
6.388360
 12
3.831960
 22
6.700760
 13
4.472160
 23
6.330720
  0
POLYLINE
  8
0
  6
CONTINUOUS
 66
     1
 40
0.000000
 41
0.000000
  0
VERTEX
  8
0
  6
CONTINUOUS
 10
3.854840
 20
6.758400
  0
VERTEX
  8
0
  6
CONTINUOUS
 10
4.495040
 20
6.388360
  0
VERTEX
  8
0
  6
CONTINUOUS
 10
4.472160
 20
6.330720
  0
VERTEX
  8
0
  6
CONTINUOUS
 10
3.831960
 20
6.700760
  0
VERTEX
  8
0
  6
CONTINUOUS
 10
3.854840
 20
6.758400
  0
SEQEND
  8
0
  0
SOLID
  8
0
 62
    15
 10
3.831960
 20
6.700760
 11
4.472160
 21
6.330720
 12
3.800720
 22
6.655880
 13
4.440920
 23
6.285400
  0
POLYLINE
  8
0
  6
CONTINUOUS
 66
     1
 40
0.000000
 41
0.000000
  0
VERTEX
  8
0
  6
CONTINUOUS
 10
3.831960
 20
6.700760
  0
VERTEX
  8
0
  6
CONTINUOUS
 10
4.472160
 20
6.330720
  0
VERTEX
  8
0
  6
CONTINUOUS
 10
4.440920
 20
6.285400
  0
VERTEX
  8
0
  6
CONTINUOUS
 10
3.800720
 20
6.655880
  0
VERTEX
  8
0
  6
CONTINUOUS
 10
3.831960
 20
6.700760
  0
SEQEND
  8
0
  0
SOLID
  8
0
 62
    15
 10
3.800720
 20
6.655880
 11
4.440920
 21
6.285400
 12
3.761560
 22
6.622440
 13
4.401760
 23
6.252400
  0
POLYLINE
  8
0
  6
CONTINUOUS
 66
     1
 40
0.000000
 41
0.000000
  0
VERTEX
  8
0
  6
CONTINUOUS
 10
3.800720
 20
6.655880
  0
VERTEX
  8
0
  6
CONTINUOUS
 10
4.440920
 20
6.285400
  0
VERTEX
  8
0
  6
CONTINUOUS
 10
4.401760
 20
6.252400
  0
VERTEX
  8
0
  6
CONTINUOUS
 10
3.761560
 20
6.622440
  0
VERTEX
  8
0
  6
CONTINUOUS
 10
3.800720
 20
6.655880
  0
SEQEND
  8
0
  0
SOLID
  8
0
 62
    15
 10
3.761560
 20
6.622440
 11
4.401760
 21
6.252400
 12
3.714920
 22
6.600000
 13
4.355120
 23
6.229960
  0
POLYLINE
  8
0
  6
CONTINUOUS
 66
     1
 40
0.000000
 41
0.000000
  0
VERTEX
  8
0
  6
CONTINUOUS
 10
3.761560
 20
6.622440
  0
VERTEX
  8
0
  6
CONTINUOUS
 10
4.401760
 20
6.252400
  0
VERTEX
  8
0
  6
CONTINUOUS
 10
4.355120
 20
6.229960
  0
VERTEX
  8
0
  6
CONTINUOUS
 10
3.714920
 20
6.600000
  0
VERTEX
  8
0
  6
CONTINUOUS
 10
3.761560
 20
6.622440
  0
SEQEND
  8
0
  0
SOLID
  8
0
 62
    15
 10
3.714920
 20
6.600000
 11
4.355120
 21
6.229960
 12
3.660800
 22
6.586800
 13
4.301000
 23
6.216760
  0
POLYLINE
  8
0
  6
CONTINUOUS
 66
     1
 40
0.000000
 41
0.000000
  0
VERTEX
  8
0
  6
CONTINUOUS
 10
3.714920
 20
6.600000
  0
VERTEX
  8
0
  6
CONTINUOUS
 10
4.355120
 20
6.229960
  0
VERTEX
  8
0
  6
CONTINUOUS
 10
4.301000
 20
6.216760
  0
VERTEX
  8
0
  6
CONTINUOUS
 10
3.660800
 20
6.586800
  0
VERTEX
  8
0
  6
CONTINUOUS
 10
3.714920
 20
6.600000
  0
SEQEND
  8
0
  0
SOLID
  8
0
 62
    15
 10
3.660800
 20
6.586800
 11
4.301000
 21
6.216760
 12
3.600520
 22
6.581520
 13
4.240720
 23
6.211480
  0
POLYLINE
  8
0
  6
CONTINUOUS
 66
     1
 40
0.000000
 41
0.000000
  0
VERTEX
  8
0
  6
CONTINUOUS
 10
3.660800
 20
6.586800
  0
VERTEX
  8
0
  6
CONTINUOUS
 10
4.301000
 20
6.216760
  0
VERTEX
  8
0
  6
CONTINUOUS
 10
4.240720
 20
6.211480
  0
VERTEX
  8
0
  6
CONTINUOUS
 10
3.600520
 20
6.581520
  0
VERTEX
  8
0
  6
CONTINUOUS
 10
3.660800
 20
6.586800
  0
SEQEND
  8
0
  0
SOLID
  8
0
 62
    15
 10
3.600520
 20
6.581520
 11
4.240720
 21
6.211480
 12
3.600520
 22
6.459200
 13
4.240720
 23
6.089160
  0
POLYLINE
  8
0
  6
CONTINUOUS
 66
     1
 40
0.000000
 41
0.000000
  0
VERTEX
  8
0
  6
CONTINUOUS
 10
3.600520
 20
6.581520
  0
VERTEX
  8
0
  6
CONTINUOUS
 10
4.240720
 20
6.211480
  0
VERTEX
  8
0
  6
CONTINUOUS
 10
4.240720
 20
6.089160
  0
VERTEX
  8
0
  6
CONTINUOUS
 10
3.600520
 20
6.459200
  0
VERTEX
  8
0
  6
CONTINUOUS
 10
3.600520
 20
6.581520
  0
SEQEND
  8
0
  0
SOLID
  8
0
 62
    15
 10
3.600520
 20
6.459200
 11
4.240720
 21
6.089160
 12
3.457520
 22
6.459200
 13
4.097720
 23
6.089160
  0
POLYLINE
  8
0
  6
CONTINUOUS
 66
     1
 40
0.000000
 41
0.000000
  0
VERTEX
  8
0
  6
CONTINUOUS
 10
3.600520
 20
6.459200
  0
VERTEX
  8
0
  6
CONTINUOUS
 10
4.240720
 20
6.089160
  0
VERTEX
  8
0
  6
CONTINUOUS
 10
4.097720
 20
6.089160
  0
VERTEX
  8
0
  6
CONTINUOUS
 10
3.457520
 20
6.459200
  0
VERTEX
  8
0
  6
CONTINUOUS
 10
3.600520
 20
6.459200
  0
SEQEND
  8
0
  0
SOLID
  8
0
 62
    15
 10
3.457520
 20
6.459200
 11
4.097720
 21
6.089160
 12
3.452240
 22
6.459200
 13
4.092440
 23
6.089160
  0
POLYLINE
  8
0
  6
CONTINUOUS
 66
     1
 40
0.000000
 41
0.000000
  0
VERTEX
  8
0
  6
CONTINUOUS
 10
3.457520
 20
6.459200
  0
VERTEX
  8
0
  6
CONTINUOUS
 10
4.097720
 20
6.089160
  0
VERTEX
  8
0
  6
CONTINUOUS
 10
4.092440
 20
6.089160
  0
VERTEX
  8
0
  6
CONTINUOUS
 10
3.452240
 20
6.459200
  0
VERTEX
  8
0
  6
CONTINUOUS
 10
3.457520
 20
6.459200
  0
SEQEND
  8
0
  0
POLYLINE
  8
0
  6
CONTINUOUS
 66
     1
 40
0.000000
 41
0.000000
  0
VERTEX
  8
0
  6
CONTINUOUS
 10
3.452240
 20
6.459200
  0
VERTEX
  8
0
  6
CONTINUOUS
 10
3.452240
 20
8.062120
  0
VERTEX
  8
0
  6
CONTINUOUS
 10
4.644200
 20
8.062120
  0
VERTEX
  8
0
  6
CONTINUOUS
 10
4.644200
 20
7.765560
  0
VERTEX
  8
0
  6
CONTINUOUS
 10
4.629240
 20
7.755880
  0
VERTEX
  8
0
  6
CONTINUOUS
 10
4.614280
 20
7.746200
  0
VERTEX
  8
0
  6
CONTINUOUS
 10
4.599320
 20
7.736080
  0
VERTEX
  8
0
  6
CONTINUOUS
 10
4.583920
 20
7.725960
  0
VERTEX
  8
0
  6
CONTINUOUS
 10
4.522760
 20
7.677120
  0
VERTEX
  8
0
  6
CONTINUOUS
 10
4.491520
 20
7.644120
  0
VERTEX
  8
0
  6
CONTINUOUS
 10
4.460720
 20
7.603640
  0
VERTEX
  8
0
  6
CONTINUOUS
 10
4.429920
 20
7.552600
  0
VERTEX
  8
0
  6
CONTINUOUS
 10
4.399120
 20
7.490120
  0
VERTEX
  8
0
  6
CONTINUOUS
 10
4.365680
 20
7.423240
  0
VERTEX
  8
0
  6
CONTINUOUS
 10
4.327840
 20
7.361640
  0
VERTEX
  8
0
  6
CONTINUOUS
 10
4.284720
 20
7.304440
  0
VERTEX
  8
0
  6
CONTINUOUS
 10
4.237200
 20
7.252520
  0
VERTEX
  8
0
  6
CONTINUOUS
 10
4.185720
 20
7.205000
  0
VERTEX
  8
0
  6
CONTINUOUS
 10
4.130280
 20
7.162760
  0
VERTEX
  8
0
  6
CONTINUOUS
 10
4.070880
 20
7.125800
  0
VERTEX
  8
0
  6
CONTINUOUS
 10
4.008400
 20
7.093680
  0
VERTEX
  8
0
  6
CONTINUOUS
 10
4.008400
 20
6.918560
  0
VERTEX
  8
0
  6
CONTINUOUS
 10
3.873320
 20
6.918560
  0
VERTEX
  8
0
  6
CONTINUOUS
 10
3.868920
 20
6.831000
  0
VERTEX
  8
0
  6
CONTINUOUS
 10
3.854840
 20
6.758400
  0
VERTEX
  8
0
  6
CONTINUOUS
 10
3.831960
 20
6.700760
  0
VERTEX
  8
0
  6
CONTINUOUS
 10
3.800720
 20
6.655880
  0
VERTEX
  8
0
  6
CONTINUOUS
 10
3.761560
 20
6.622440
  0
VERTEX
  8
0
  6
CONTINUOUS
 10
3.714920
 20
6.600000
  0
VERTEX
  8
0
  6
CONTINUOUS
 10
3.660800
 20
6.586800
  0
VERTEX
  8
0
  6
CONTINUOUS
 10
3.600520
 20
6.581520
  0
VERTEX
  8
0
  6
CONTINUOUS
 10
3.600520
 20
6.459200
  0
VERTEX
  8
0
  6
CONTINUOUS
 10
3.457520
 20
6.459200
  0
VERTEX
  8
0
  6
CONTINUOUS
 10
3.452240
 20
6.459200
  0
SEQEND
  8
0
  0
TEXT
  8
0
 10
4.817120
 20
6.281440
 40
0.138218
  1
BA  1190
 41
1.000000
  7
SN0
 71
     0
 72
     5
 11
5.498880
 21
6.281440
  0
TEXT
  8
0
 10
4.587440
 20
6.090040
 40
0.138218
  1
1-3/16" x 1-5/8"
 41
1.000000
  7
SN0
 71
     0
 72
     5
 11
5.727288
 21
6.090040
  0
POLYLINE
  8
0
  6
CONTINUOUS
 66
     1
 40
0.014080
 41
0.014080
  0
VERTEX
  8
0
  6
CONTINUOUS
 10
5.392640
 20
8.491560
  0
VERTEX
  8
0
  6
CONTINUOUS
 10
5.392640
 20
8.634560
  0
VERTEX
  8
0
  6
CONTINUOUS
 10
5.270320
 20
8.634560
  0
VERTEX
  8
0
  6
CONTINUOUS
 10
5.267240
 20
8.680760
  0
VERTEX
  8
0
  6
CONTINUOUS
 10
5.259320
 20
8.723000
  0
VERTEX
  8
0
  6
CONTINUOUS
 10
5.251840
 20
8.748960
  0
VERTEX
  8
0
  6
CONTINUOUS
 10
5.236000
 20
8.784600
  0
VERTEX
  8
0
  6
CONTINUOUS
 10
5.214000
 20
8.816280
  0
VERTEX
  8
0
  6
CONTINUOUS
 10
5.196400
 20
8.834760
  0
VERTEX
  8
0
  6
CONTINUOUS
 10
5.175280
 20
8.851480
  0
VERTEX
  8
0
  6
CONTINUOUS
 10
5.137880
 20
8.872600
  0
VERTEX
  8
0
  6
CONTINUOUS
 10
5.109280
 20
8.884040
  0
VERTEX
  8
0
  6
CONTINUOUS
 10
5.059120
 20
8.897240
  0
VERTEX
  8
0
  6
CONTINUOUS
 10
5.000600
 20
8.905160
  0
VERTEX
  8
0
  6
CONTINUOUS
 10
4.933280
 20
8.907800
  0
VERTEX
  8
0
  6
CONTINUOUS
 10
4.933280
 20
9.042440
  0
VERTEX
  8
0
  6
CONTINUOUS
 10
4.758160
 20
9.042440
  0
VERTEX
  8
0
  6
CONTINUOUS
 10
4.726040
 20
9.104920
  0
VERTEX
  8
0
  6
CONTINUOUS
 10
4.689080
 20
9.164320
  0
VERTEX
  8
0
  6
CONTINUOUS
 10
4.646840
 20
9.219760
  0
VERTEX
  8
0
  6
CONTINUOUS
 10
4.599760
 20
9.271240
  0
VERTEX
  8
0
  6
CONTINUOUS
 10
4.574240
 20
9.295880
  0
VERTEX
  8
0
  6
CONTINUOUS
 10
4.519680
 20
9.340760
  0
VERTEX
  8
0
  6
CONTINUOUS
 10
4.459840
 20
9.381680
  0
VERTEX
  8
0
  6
CONTINUOUS
 10
4.428600
 20
9.400160
  0
VERTEX
  8
0
  6
CONTINUOUS
 10
4.361720
 20
9.433160
  0
VERTEX
  8
0
  6
CONTINUOUS
 10
4.299240
 20
9.463960
  0
VERTEX
  8
0
  6
CONTINUOUS
 10
4.248640
 20
9.494760
  0
VERTEX
  8
0
  6
CONTINUOUS
 10
4.207720
 20
9.526000
  0
VERTEX
  8
0
  6
CONTINUOUS
 10
4.175160
 20
9.556800
  0
VERTEX
  8
0
  6
CONTINUOUS
 10
4.148320
 20
9.587600
  0
VERTEX
  8
0
  6
CONTINUOUS
 10
4.125880
 20
9.618400
  0
VERTEX
  8
0
  6
CONTINUOUS
 10
4.086280
 20
9.678680
  0
VERTEX
  8
0
  6
CONTINUOUS
 10
3.789720
 20
9.678680
  0
VERTEX
  8
0
  6
CONTINUOUS
 10
3.789720
 20
8.486720
  0
VERTEX
  8
0
  6
CONTINUOUS
 10
5.392640
 20
8.486720
  0
VERTEX
  8
0
  6
CONTINUOUS
 10
5.392640
 20
8.491560
  0
SEQEND
  8
0
  0
TEXT
  8
0
 10
4.124120
 20
8.726960
 40
0.138218
  1
BA  1190
 41
1.000000
  7
SN0
 71
     0
 72
     5
 11
4.805880
 21
8.726960
  0
TEXT
  8
0
 10
3.894440
 20
8.535120
 40
0.138218
  1
1-3/16" x 1-5/8"
 41
1.000000
  7
SN0
 71
     0
 72
     5
 11
5.034288
 21
8.535120
  0
ENDSEC
  0
EOF
