  0
SECTION
  2
HEADER
  9
$ACADVER
  1
AC1006
  9
$EXTMIN
 10
3.895760
 20
2.566520
  9
$EXTMAX
 10
4.686440
 20
7.273640
  9
$LTSCALE
 40
0.044000
  9
$PDMODE
 70
    35
  9
$PDSIZE
 40
0.035200
  0
ENDSEC
  0
SECTION
  2
TABLES
  0
TABLE
  2
LTYPE
 70
     9
  0
LTYPE
  2
CONTINUOUS
 70
    64
  3
Solid line
 72
    65
 73
     0
 40
0.000000
  0
LTYPE
  2
DASHED
 70
    64
  3
__ __ __ __ __ __ __ __ __ __ __ __ __ __ __
 72
    65
 73
     2
 40
0.000330
 49
0.000220
 49
-0.000110
  0
LTYPE
  2
HIDDEN
 70
    64
  3
 _ _ _ _ _ _ _ _ _ _ _ _ _ _ _ _ _ _ _ _ _ _
 72
    65
 73
     2
 40
0.000165
 49
0.000110
 49
-0.000055
  0
LTYPE
  2
CENTER
 70
    64
  3
____ _ ____ _ ____ _ ____ _ ____ _ ____ _ ____
 72
    65
 73
     4
 40
0.000880
 49
0.000550
 49
-0.000110
 49
0.000110
 49
-0.000110
  0
LTYPE
  2
PHANTOM
 70
    64
  3
_____ _ _ _____ _ _ _____ _ _ _____ _ _ ____
 72
    65
 73
     6
 40
0.001100
 49
0.000550
 49
-0.000110
 49
0.000110
 49
-0.000110
 49
0.000110
 49
-0.000110
  0
LTYPE
  2
DOT
 70
    64
  3
...............................................
 72
    65
 73
     2
 40
0.000110
 49
0.000000
 49
-0.000110
  0
LTYPE
  2
DASHDOT
 70
    64
  3
__ . __ . __ . __ . __ . __ . __ . __ . __ . __
 72
    65
 73
     4
 40
0.000440
 49
0.000220
 49
-0.000110
 49
0.000000
 49
-0.000110
  0
LTYPE
  2
BORDER
 70
    64
  3
__ __ . __ __ . __ __ . __ __ . __ __ . __ __
 72
    65
 73
     6
 40
0.000770
 49
0.000220
 49
-0.000110
 49
0.000220
 49
-0.000110
 49
0.000000
 49
-0.000110
  0
LTYPE
  2
DIVIDE
 70
    64
  3
__ . . __ . . __ . . __ . . __ . . __ . . __
 72
    65
 73
     6
 40
0.000550
 49
0.000220
 49
-0.000110
 49
0.000000
 49
-0.000110
 49
0.000000
 49
-0.000110
  0
LTYPE
  2
DOTDOT
 70
    64
  3
 . .  . .  . .  . .  . .  . . 
 72
    65
 73
     5
 40
0.000242
 49
-0.000110
 49
0.000000
 49
-0.000110
 49
0.000000
 49
-0.000110
  0
ENDTAB
  0
TABLE
  2
STYLE
 70
     2
  0
STYLE
 70
     0
  2
SN0
 40
0.000000
 41
0.000440
 50
0.000000
 71
     0
 42
0.000000
  3
ROMAND
  0
STYLE
 70
    68
  2
SV0
 40
0.000000
 41
0.000440
 50
0.000000
 71
     0
 42
0.000000
  3
ROMAND
  0
ENDTAB
  0
TABLE
  2
LAYER
 70
     3
  0
LAYER
  2
FOREGROUND
 70
    64
 62
     7
  6
CONTINUOUS
  0
LAYER
  2
BACKGROUND
 70
    65
 62
    -7
  6
CONTINUOUS
  0
LAYER
  2
0
 70
    64
 62
     7
  6
CONTINUOUS
  0
ENDTAB
  0
ENDSEC
  0
SECTION
  2
ENTITIES
  0
POLYLINE
  8
FOREGROUND
  6
CONTINUOUS
 66
     1
 40
0.000000
 41
0.000000
  0
VERTEX
  8
FOREGROUND
  6
CONTINUOUS
 10
0.000000
 20
9.840160
  0
VERTEX
  8
FOREGROUND
  6
CONTINUOUS
 10
8.499920
 20
9.840160
  0
VERTEX
  8
FOREGROUND
  6
CONTINUOUS
 10
8.499920
 20
-1.159840
  0
VERTEX
  8
FOREGROUND
  6
CONTINUOUS
 10
0.000000
 20
-1.159840
  0
VERTEX
  8
FOREGROUND
  6
CONTINUOUS
 10
0.000000
 20
9.840160
  0
SEQEND
  8
0
  0
POLYLINE
  8
FOREGROUND
  6
CONTINUOUS
 66
     1
 40
0.000000
 41
0.000000
  0
VERTEX
  8
FOREGROUND
  6
CONTINUOUS
 10
0.000000
 20
9.840160
  0
VERTEX
  8
FOREGROUND
  6
CONTINUOUS
 10
8.499920
 20
9.840160
  0
VERTEX
  8
FOREGROUND
  6
CONTINUOUS
 10
8.499920
 20
-1.159840
  0
VERTEX
  8
FOREGROUND
  6
CONTINUOUS
 10
0.000000
 20
-1.159840
  0
VERTEX
  8
FOREGROUND
  6
CONTINUOUS
 10
0.000000
 20
9.840160
  0
SEQEND
  8
0
  0
POLYLINE
  8
0
  6
CONTINUOUS
 66
     1
 40
0.000000
 41
0.000000
  0
VERTEX
  8
0
  6
CONTINUOUS
 10
3.915560
 20
2.566960
  0
VERTEX
  8
0
  6
CONTINUOUS
 10
4.666640
 20
2.566960
  0
VERTEX
  8
0
  6
CONTINUOUS
 10
4.666640
 20
2.697200
  0
VERTEX
  8
0
  6
CONTINUOUS
 10
4.596680
 20
2.697200
  0
VERTEX
  8
0
  6
CONTINUOUS
 10
4.594040
 20
2.747800
  0
VERTEX
  8
0
  6
CONTINUOUS
 10
4.587440
 20
2.792680
  0
VERTEX
  8
0
  6
CONTINUOUS
 10
4.576880
 20
2.830960
  0
VERTEX
  8
0
  6
CONTINUOUS
 10
4.563240
 20
2.863080
  0
VERTEX
  8
0
  6
CONTINUOUS
 10
4.545640
 20
2.888600
  0
VERTEX
  8
0
  6
CONTINUOUS
 10
4.532440
 20
2.901800
  0
VERTEX
  8
0
  6
CONTINUOUS
 10
4.517480
 20
2.911920
  0
VERTEX
  8
0
  6
CONTINUOUS
 10
4.492400
 20
2.920280
  0
VERTEX
  8
0
  6
CONTINUOUS
 10
4.474360
 20
2.921600
  0
VERTEX
  8
0
  6
CONTINUOUS
 10
4.454560
 20
2.919840
  0
VERTEX
  8
0
  6
CONTINUOUS
 10
4.433440
 20
2.914120
  0
VERTEX
  8
0
  6
CONTINUOUS
 10
4.400000
 20
2.898280
  0
VERTEX
  8
0
  6
CONTINUOUS
 10
4.388120
 20
2.891240
  0
VERTEX
  8
0
  6
CONTINUOUS
 10
4.370960
 20
2.876720
  0
VERTEX
  8
0
  6
CONTINUOUS
 10
4.351160
 20
2.866600
  0
VERTEX
  8
0
  6
CONTINUOUS
 10
4.330920
 20
2.861760
  0
VERTEX
  8
0
  6
CONTINUOUS
 10
4.320800
 20
2.861320
  0
VERTEX
  8
0
  6
CONTINUOUS
 10
4.300560
 20
2.866160
  0
VERTEX
  8
0
  6
CONTINUOUS
 10
4.282520
 20
2.879360
  0
VERTEX
  8
0
  6
CONTINUOUS
 10
4.270640
 20
2.894760
  0
VERTEX
  8
0
  6
CONTINUOUS
 10
4.260520
 20
2.916320
  0
VERTEX
  8
0
  6
CONTINUOUS
 10
4.252600
 20
2.943600
  0
VERTEX
  8
0
  6
CONTINUOUS
 10
4.250840
 20
2.954160
  0
VERTEX
  8
0
  6
CONTINUOUS
 10
4.180880
 20
2.954160
  0
VERTEX
  8
0
  6
CONTINUOUS
 10
4.180880
 20
2.822160
  0
VERTEX
  8
0
  6
CONTINUOUS
 10
3.915560
 20
2.822160
  0
VERTEX
  8
0
  6
CONTINUOUS
 10
3.915560
 20
2.566960
  0
SEQEND
  8
0
  0
SOLID
  8
0
 62
    15
 10
4.432560
 20
4.906000
 11
4.431240
 21
5.647840
 12
4.447520
 22
4.899400
 13
4.446200
 23
5.641240
  0
POLYLINE
  8
0
  6
CONTINUOUS
 66
     1
 40
0.000000
 41
0.000000
  0
VERTEX
  8
0
  6
CONTINUOUS
 10
4.432560
 20
4.906000
  0
VERTEX
  8
0
  6
CONTINUOUS
 10
4.431240
 20
5.647840
  0
VERTEX
  8
0
  6
CONTINUOUS
 10
4.446200
 20
5.641240
  0
VERTEX
  8
0
  6
CONTINUOUS
 10
4.447520
 20
4.899400
  0
VERTEX
  8
0
  6
CONTINUOUS
 10
4.432560
 20
4.906000
  0
SEQEND
  8
0
  0
SOLID
  8
0
 62
    15
 10
4.228840
 20
5.236000
 11
4.227520
 21
5.977840
 12
4.263160
 22
5.234680
 13
4.261840
 23
5.976080
  0
POLYLINE
  8
0
  6
CONTINUOUS
 66
     1
 40
0.000000
 41
0.000000
  0
VERTEX
  8
0
  6
CONTINUOUS
 10
4.228840
 20
5.236000
  0
VERTEX
  8
0
  6
CONTINUOUS
 10
4.227520
 20
5.977840
  0
VERTEX
  8
0
  6
CONTINUOUS
 10
4.261840
 20
5.976080
  0
VERTEX
  8
0
  6
CONTINUOUS
 10
4.263160
 20
5.234680
  0
VERTEX
  8
0
  6
CONTINUOUS
 10
4.228840
 20
5.236000
  0
SEQEND
  8
0
  0
SOLID
  8
0
 62
    15
 10
4.098160
 20
4.554880
 11
4.096840
 21
5.296280
 12
4.098160
 22
5.305960
 13
4.096840
 23
6.047800
  0
POLYLINE
  8
0
  6
CONTINUOUS
 66
     1
 40
0.000000
 41
0.000000
  0
VERTEX
  8
0
  6
CONTINUOUS
 10
4.098160
 20
4.554880
  0
VERTEX
  8
0
  6
CONTINUOUS
 10
4.096840
 20
5.296280
  0
VERTEX
  8
0
  6
CONTINUOUS
 10
4.096840
 20
6.047800
  0
VERTEX
  8
0
  6
CONTINUOUS
 10
4.098160
 20
5.305960
  0
VERTEX
  8
0
  6
CONTINUOUS
 10
4.098160
 20
4.554880
  0
SEQEND
  8
0
  0
SOLID
  8
0
 62
    15
 10
4.263160
 20
5.234680
 11
4.261840
 21
5.976080
 12
4.294840
 22
5.231600
 13
4.293520
 23
5.973000
  0
POLYLINE
  8
0
  6
CONTINUOUS
 66
     1
 40
0.000000
 41
0.000000
  0
VERTEX
  8
0
  6
CONTINUOUS
 10
4.263160
 20
5.234680
  0
VERTEX
  8
0
  6
CONTINUOUS
 10
4.261840
 20
5.976080
  0
VERTEX
  8
0
  6
CONTINUOUS
 10
4.293520
 20
5.973000
  0
VERTEX
  8
0
  6
CONTINUOUS
 10
4.294840
 20
5.231600
  0
VERTEX
  8
0
  6
CONTINUOUS
 10
4.263160
 20
5.234680
  0
SEQEND
  8
0
  0
SOLID
  8
0
 62
    15
 10
4.294840
 20
5.231600
 11
4.293520
 21
5.973000
 12
4.323880
 22
5.226760
 13
4.322560
 23
5.968160
  0
POLYLINE
  8
0
  6
CONTINUOUS
 66
     1
 40
0.000000
 41
0.000000
  0
VERTEX
  8
0
  6
CONTINUOUS
 10
4.294840
 20
5.231600
  0
VERTEX
  8
0
  6
CONTINUOUS
 10
4.293520
 20
5.973000
  0
VERTEX
  8
0
  6
CONTINUOUS
 10
4.322560
 20
5.968160
  0
VERTEX
  8
0
  6
CONTINUOUS
 10
4.323880
 20
5.226760
  0
VERTEX
  8
0
  6
CONTINUOUS
 10
4.294840
 20
5.231600
  0
SEQEND
  8
0
  0
SOLID
  8
0
 62
    15
 10
4.323880
 20
5.226760
 11
4.322560
 21
5.968160
 12
4.350280
 22
5.220160
 13
4.348960
 23
5.962000
  0
POLYLINE
  8
0
  6
CONTINUOUS
 66
     1
 40
0.000000
 41
0.000000
  0
VERTEX
  8
0
  6
CONTINUOUS
 10
4.323880
 20
5.226760
  0
VERTEX
  8
0
  6
CONTINUOUS
 10
4.322560
 20
5.968160
  0
VERTEX
  8
0
  6
CONTINUOUS
 10
4.348960
 20
5.962000
  0
VERTEX
  8
0
  6
CONTINUOUS
 10
4.350280
 20
5.220160
  0
VERTEX
  8
0
  6
CONTINUOUS
 10
4.323880
 20
5.226760
  0
SEQEND
  8
0
  0
SOLID
  8
0
 62
    15
 10
4.350280
 20
5.220160
 11
4.348960
 21
5.962000
 12
4.374040
 22
5.212240
 13
4.372720
 23
5.953640
  0
POLYLINE
  8
0
  6
CONTINUOUS
 66
     1
 40
0.000000
 41
0.000000
  0
VERTEX
  8
0
  6
CONTINUOUS
 10
4.350280
 20
5.220160
  0
VERTEX
  8
0
  6
CONTINUOUS
 10
4.348960
 20
5.962000
  0
VERTEX
  8
0
  6
CONTINUOUS
 10
4.372720
 20
5.953640
  0
VERTEX
  8
0
  6
CONTINUOUS
 10
4.374040
 20
5.212240
  0
VERTEX
  8
0
  6
CONTINUOUS
 10
4.350280
 20
5.220160
  0
SEQEND
  8
0
  0
SOLID
  8
0
 62
    15
 10
4.392960
 20
4.970240
 11
4.391640
 21
5.711640
 12
4.394280
 22
4.950000
 13
4.392960
 23
5.691400
  0
POLYLINE
  8
0
  6
CONTINUOUS
 66
     1
 40
0.000000
 41
0.000000
  0
VERTEX
  8
0
  6
CONTINUOUS
 10
4.392960
 20
4.970240
  0
VERTEX
  8
0
  6
CONTINUOUS
 10
4.391640
 20
5.711640
  0
VERTEX
  8
0
  6
CONTINUOUS
 10
4.392960
 20
5.691400
  0
VERTEX
  8
0
  6
CONTINUOUS
 10
4.394280
 20
4.950000
  0
VERTEX
  8
0
  6
CONTINUOUS
 10
4.392960
 20
4.970240
  0
SEQEND
  8
0
  0
SOLID
  8
0
 62
    15
 10
4.394280
 20
4.950000
 11
4.392960
 21
5.691400
 12
4.397800
 22
4.939880
 13
4.396480
 23
5.681720
  0
POLYLINE
  8
0
  6
CONTINUOUS
 66
     1
 40
0.000000
 41
0.000000
  0
VERTEX
  8
0
  6
CONTINUOUS
 10
4.394280
 20
4.950000
  0
VERTEX
  8
0
  6
CONTINUOUS
 10
4.392960
 20
5.691400
  0
VERTEX
  8
0
  6
CONTINUOUS
 10
4.396480
 20
5.681720
  0
VERTEX
  8
0
  6
CONTINUOUS
 10
4.397800
 20
4.939880
  0
VERTEX
  8
0
  6
CONTINUOUS
 10
4.394280
 20
4.950000
  0
SEQEND
  8
0
  0
SOLID
  8
0
 62
    15
 10
4.410560
 20
4.921840
 11
4.409240
 21
5.663240
 12
4.420240
 22
4.913480
 13
4.418920
 23
5.655320
  0
POLYLINE
  8
0
  6
CONTINUOUS
 66
     1
 40
0.000000
 41
0.000000
  0
VERTEX
  8
0
  6
CONTINUOUS
 10
4.410560
 20
4.921840
  0
VERTEX
  8
0
  6
CONTINUOUS
 10
4.409240
 20
5.663240
  0
VERTEX
  8
0
  6
CONTINUOUS
 10
4.418920
 20
5.655320
  0
VERTEX
  8
0
  6
CONTINUOUS
 10
4.420240
 20
4.913480
  0
VERTEX
  8
0
  6
CONTINUOUS
 10
4.410560
 20
4.921840
  0
SEQEND
  8
0
  0
SOLID
  8
0
 62
    15
 10
4.420240
 20
4.913480
 11
4.418920
 21
5.655320
 12
4.432560
 22
4.906000
 13
4.431240
 23
5.647840
  0
POLYLINE
  8
0
  6
CONTINUOUS
 66
     1
 40
0.000000
 41
0.000000
  0
VERTEX
  8
0
  6
CONTINUOUS
 10
4.420240
 20
4.913480
  0
VERTEX
  8
0
  6
CONTINUOUS
 10
4.418920
 20
5.655320
  0
VERTEX
  8
0
  6
CONTINUOUS
 10
4.431240
 20
5.647840
  0
VERTEX
  8
0
  6
CONTINUOUS
 10
4.432560
 20
4.906000
  0
VERTEX
  8
0
  6
CONTINUOUS
 10
4.420240
 20
4.913480
  0
SEQEND
  8
0
  0
SOLID
  8
0
 62
    15
 10
4.098160
 20
5.305960
 11
4.096840
 21
6.047800
 12
4.228840
 22
5.305960
 13
4.227520
 23
6.047800
  0
POLYLINE
  8
0
  6
CONTINUOUS
 66
     1
 40
0.000000
 41
0.000000
  0
VERTEX
  8
0
  6
CONTINUOUS
 10
4.098160
 20
5.305960
  0
VERTEX
  8
0
  6
CONTINUOUS
 10
4.096840
 20
6.047800
  0
VERTEX
  8
0
  6
CONTINUOUS
 10
4.227520
 20
6.047800
  0
VERTEX
  8
0
  6
CONTINUOUS
 10
4.228840
 20
5.305960
  0
VERTEX
  8
0
  6
CONTINUOUS
 10
4.098160
 20
5.305960
  0
SEQEND
  8
0
  0
SOLID
  8
0
 62
    15
 10
4.447520
 20
4.899400
 11
4.446200
 21
5.641240
 12
4.465120
 22
4.894120
 13
4.463800
 23
5.635960
  0
POLYLINE
  8
0
  6
CONTINUOUS
 66
     1
 40
0.000000
 41
0.000000
  0
VERTEX
  8
0
  6
CONTINUOUS
 10
4.447520
 20
4.899400
  0
VERTEX
  8
0
  6
CONTINUOUS
 10
4.446200
 20
5.641240
  0
VERTEX
  8
0
  6
CONTINUOUS
 10
4.463800
 20
5.635960
  0
VERTEX
  8
0
  6
CONTINUOUS
 10
4.465120
 20
4.894120
  0
VERTEX
  8
0
  6
CONTINUOUS
 10
4.447520
 20
4.899400
  0
SEQEND
  8
0
  0
SOLID
  8
0
 62
    15
 10
4.451480
 20
5.131720
 11
4.450160
 21
5.873560
 12
4.452800
 22
5.113240
 13
4.451480
 23
5.855080
  0
POLYLINE
  8
0
  6
CONTINUOUS
 66
     1
 40
0.000000
 41
0.000000
  0
VERTEX
  8
0
  6
CONTINUOUS
 10
4.451480
 20
5.131720
  0
VERTEX
  8
0
  6
CONTINUOUS
 10
4.450160
 20
5.873560
  0
VERTEX
  8
0
  6
CONTINUOUS
 10
4.451480
 20
5.855080
  0
VERTEX
  8
0
  6
CONTINUOUS
 10
4.452800
 20
5.113240
  0
VERTEX
  8
0
  6
CONTINUOUS
 10
4.451480
 20
5.131720
  0
SEQEND
  8
0
  0
SOLID
  8
0
 62
    15
 10
4.374040
 20
5.212240
 11
4.372720
 21
5.953640
 12
4.394720
 22
5.202560
 13
4.393400
 23
5.943960
  0
POLYLINE
  8
0
  6
CONTINUOUS
 66
     1
 40
0.000000
 41
0.000000
  0
VERTEX
  8
0
  6
CONTINUOUS
 10
4.374040
 20
5.212240
  0
VERTEX
  8
0
  6
CONTINUOUS
 10
4.372720
 20
5.953640
  0
VERTEX
  8
0
  6
CONTINUOUS
 10
4.393400
 20
5.943960
  0
VERTEX
  8
0
  6
CONTINUOUS
 10
4.394720
 20
5.202560
  0
VERTEX
  8
0
  6
CONTINUOUS
 10
4.374040
 20
5.212240
  0
SEQEND
  8
0
  0
SOLID
  8
0
 62
    15
 10
4.397800
 20
4.939880
 11
4.396480
 21
5.681720
 12
4.403080
 22
4.930640
 13
4.401760
 23
5.672040
  0
POLYLINE
  8
0
  6
CONTINUOUS
 66
     1
 40
0.000000
 41
0.000000
  0
VERTEX
  8
0
  6
CONTINUOUS
 10
4.397800
 20
4.939880
  0
VERTEX
  8
0
  6
CONTINUOUS
 10
4.396480
 20
5.681720
  0
VERTEX
  8
0
  6
CONTINUOUS
 10
4.401760
 20
5.672040
  0
VERTEX
  8
0
  6
CONTINUOUS
 10
4.403080
 20
4.930640
  0
VERTEX
  8
0
  6
CONTINUOUS
 10
4.397800
 20
4.939880
  0
SEQEND
  8
0
  0
SOLID
  8
0
 62
    15
 10
4.403080
 20
4.930640
 11
4.401760
 21
5.672040
 12
4.410560
 22
4.921840
 13
4.409240
 23
5.663240
  0
POLYLINE
  8
0
  6
CONTINUOUS
 66
     1
 40
0.000000
 41
0.000000
  0
VERTEX
  8
0
  6
CONTINUOUS
 10
4.403080
 20
4.930640
  0
VERTEX
  8
0
  6
CONTINUOUS
 10
4.401760
 20
5.672040
  0
VERTEX
  8
0
  6
CONTINUOUS
 10
4.409240
 20
5.663240
  0
VERTEX
  8
0
  6
CONTINUOUS
 10
4.410560
 20
4.921840
  0
VERTEX
  8
0
  6
CONTINUOUS
 10
4.403080
 20
4.930640
  0
SEQEND
  8
0
  0
SOLID
  8
0
 62
    15
 10
4.394720
 20
5.202560
 11
4.393400
 21
5.943960
 12
4.412320
 22
5.191120
 13
4.411000
 23
5.932960
  0
POLYLINE
  8
0
  6
CONTINUOUS
 66
     1
 40
0.000000
 41
0.000000
  0
VERTEX
  8
0
  6
CONTINUOUS
 10
4.394720
 20
5.202560
  0
VERTEX
  8
0
  6
CONTINUOUS
 10
4.393400
 20
5.943960
  0
VERTEX
  8
0
  6
CONTINUOUS
 10
4.411000
 20
5.932960
  0
VERTEX
  8
0
  6
CONTINUOUS
 10
4.412320
 20
5.191120
  0
VERTEX
  8
0
  6
CONTINUOUS
 10
4.394720
 20
5.202560
  0
SEQEND
  8
0
  0
SOLID
  8
0
 62
    15
 10
4.412320
 20
5.191120
 11
4.411000
 21
5.932960
 12
4.426840
 22
5.178360
 13
4.425960
 23
5.920200
  0
POLYLINE
  8
0
  6
CONTINUOUS
 66
     1
 40
0.000000
 41
0.000000
  0
VERTEX
  8
0
  6
CONTINUOUS
 10
4.412320
 20
5.191120
  0
VERTEX
  8
0
  6
CONTINUOUS
 10
4.411000
 20
5.932960
  0
VERTEX
  8
0
  6
CONTINUOUS
 10
4.425960
 20
5.920200
  0
VERTEX
  8
0
  6
CONTINUOUS
 10
4.426840
 20
5.178360
  0
VERTEX
  8
0
  6
CONTINUOUS
 10
4.412320
 20
5.191120
  0
SEQEND
  8
0
  0
SOLID
  8
0
 62
    15
 10
4.426840
 20
5.178360
 11
4.425960
 21
5.920200
 12
4.438280
 22
5.164280
 13
4.437400
 23
5.906120
  0
POLYLINE
  8
0
  6
CONTINUOUS
 66
     1
 40
0.000000
 41
0.000000
  0
VERTEX
  8
0
  6
CONTINUOUS
 10
4.426840
 20
5.178360
  0
VERTEX
  8
0
  6
CONTINUOUS
 10
4.425960
 20
5.920200
  0
VERTEX
  8
0
  6
CONTINUOUS
 10
4.437400
 20
5.906120
  0
VERTEX
  8
0
  6
CONTINUOUS
 10
4.438280
 20
5.164280
  0
VERTEX
  8
0
  6
CONTINUOUS
 10
4.426840
 20
5.178360
  0
SEQEND
  8
0
  0
SOLID
  8
0
 62
    15
 10
4.438280
 20
5.164280
 11
4.437400
 21
5.906120
 12
4.446640
 22
5.148880
 13
4.445320
 23
5.890280
  0
POLYLINE
  8
0
  6
CONTINUOUS
 66
     1
 40
0.000000
 41
0.000000
  0
VERTEX
  8
0
  6
CONTINUOUS
 10
4.438280
 20
5.164280
  0
VERTEX
  8
0
  6
CONTINUOUS
 10
4.437400
 20
5.906120
  0
VERTEX
  8
0
  6
CONTINUOUS
 10
4.445320
 20
5.890280
  0
VERTEX
  8
0
  6
CONTINUOUS
 10
4.446640
 20
5.148880
  0
VERTEX
  8
0
  6
CONTINUOUS
 10
4.438280
 20
5.164280
  0
SEQEND
  8
0
  0
SOLID
  8
0
 62
    15
 10
4.446640
 20
5.148880
 11
4.445320
 21
5.890280
 12
4.451480
 22
5.131720
 13
4.450160
 23
5.873560
  0
POLYLINE
  8
0
  6
CONTINUOUS
 66
     1
 40
0.000000
 41
0.000000
  0
VERTEX
  8
0
  6
CONTINUOUS
 10
4.446640
 20
5.148880
  0
VERTEX
  8
0
  6
CONTINUOUS
 10
4.445320
 20
5.890280
  0
VERTEX
  8
0
  6
CONTINUOUS
 10
4.450160
 20
5.873560
  0
VERTEX
  8
0
  6
CONTINUOUS
 10
4.451480
 20
5.131720
  0
VERTEX
  8
0
  6
CONTINUOUS
 10
4.446640
 20
5.148880
  0
SEQEND
  8
0
  0
SOLID
  8
0
 62
    15
 10
4.465120
 20
4.894120
 11
4.463800
 21
5.635960
 12
4.485360
 22
4.889720
 13
4.484040
 23
5.631560
  0
POLYLINE
  8
0
  6
CONTINUOUS
 66
     1
 40
0.000000
 41
0.000000
  0
VERTEX
  8
0
  6
CONTINUOUS
 10
4.465120
 20
4.894120
  0
VERTEX
  8
0
  6
CONTINUOUS
 10
4.463800
 20
5.635960
  0
VERTEX
  8
0
  6
CONTINUOUS
 10
4.484040
 20
5.631560
  0
VERTEX
  8
0
  6
CONTINUOUS
 10
4.485360
 20
4.889720
  0
VERTEX
  8
0
  6
CONTINUOUS
 10
4.465120
 20
4.894120
  0
SEQEND
  8
0
  0
POLYLINE
  8
0
  6
CONTINUOUS
 66
     1
 40
0.000000
 41
0.000000
  0
VERTEX
  8
0
  6
CONTINUOUS
 10
4.098160
 20
4.554880
  0
VERTEX
  8
0
  6
CONTINUOUS
 10
4.098160
 20
5.305960
  0
VERTEX
  8
0
  6
CONTINUOUS
 10
4.228840
 20
5.305960
  0
VERTEX
  8
0
  6
CONTINUOUS
 10
4.228840
 20
5.236000
  0
VERTEX
  8
0
  6
CONTINUOUS
 10
4.263160
 20
5.234680
  0
VERTEX
  8
0
  6
CONTINUOUS
 10
4.294840
 20
5.231600
  0
VERTEX
  8
0
  6
CONTINUOUS
 10
4.323880
 20
5.226760
  0
VERTEX
  8
0
  6
CONTINUOUS
 10
4.350280
 20
5.220160
  0
VERTEX
  8
0
  6
CONTINUOUS
 10
4.374040
 20
5.212240
  0
VERTEX
  8
0
  6
CONTINUOUS
 10
4.394720
 20
5.202560
  0
VERTEX
  8
0
  6
CONTINUOUS
 10
4.412320
 20
5.191120
  0
VERTEX
  8
0
  6
CONTINUOUS
 10
4.426840
 20
5.178360
  0
VERTEX
  8
0
  6
CONTINUOUS
 10
4.438280
 20
5.164280
  0
VERTEX
  8
0
  6
CONTINUOUS
 10
4.446640
 20
5.148880
  0
VERTEX
  8
0
  6
CONTINUOUS
 10
4.451480
 20
5.131720
  0
VERTEX
  8
0
  6
CONTINUOUS
 10
4.452800
 20
5.113240
  0
VERTEX
  8
0
  6
CONTINUOUS
 10
4.451040
 20
5.093880
  0
VERTEX
  8
0
  6
CONTINUOUS
 10
4.444880
 20
5.072760
  0
VERTEX
  8
0
  6
CONTINUOUS
 10
4.435640
 20
5.050760
  0
VERTEX
  8
0
  6
CONTINUOUS
 10
4.422440
 20
5.027440
  0
VERTEX
  8
0
  6
CONTINUOUS
 10
4.407920
 20
5.009840
  0
VERTEX
  8
0
  6
CONTINUOUS
 10
4.397800
 20
4.990480
  0
VERTEX
  8
0
  6
CONTINUOUS
 10
4.392960
 20
4.970240
  0
VERTEX
  8
0
  6
CONTINUOUS
 10
4.394280
 20
4.950000
  0
VERTEX
  8
0
  6
CONTINUOUS
 10
4.397800
 20
4.939880
  0
VERTEX
  8
0
  6
CONTINUOUS
 10
4.403080
 20
4.930640
  0
VERTEX
  8
0
  6
CONTINUOUS
 10
4.410560
 20
4.921840
  0
VERTEX
  8
0
  6
CONTINUOUS
 10
4.420240
 20
4.913480
  0
VERTEX
  8
0
  6
CONTINUOUS
 10
4.432560
 20
4.906000
  0
VERTEX
  8
0
  6
CONTINUOUS
 10
4.447520
 20
4.899400
  0
VERTEX
  8
0
  6
CONTINUOUS
 10
4.465120
 20
4.894120
  0
VERTEX
  8
0
  6
CONTINUOUS
 10
4.485360
 20
4.889720
  0
VERTEX
  8
0
  6
CONTINUOUS
 10
4.485360
 20
4.819760
  0
VERTEX
  8
0
  6
CONTINUOUS
 10
4.353800
 20
4.819760
  0
VERTEX
  8
0
  6
CONTINUOUS
 10
4.353800
 20
4.554880
  0
VERTEX
  8
0
  6
CONTINUOUS
 10
4.102120
 20
4.554880
  0
VERTEX
  8
0
  6
CONTINUOUS
 10
4.098160
 20
4.554880
  0
SEQEND
  8
0
  0
TEXT
  8
0
 10
3.949880
 20
4.308040
 40
0.138081
  1
BA  1189
 41
1.000000
  7
SN0
 71
     0
 72
     5
 11
4.632648
 21
4.308040
  0
TEXT
  8
0
 10
3.913800
 20
4.116640
 40
0.138081
  1
3/8" x 3/4"
 41
1.000000
  7
SN0
 71
     0
 72
     5
 11
4.667410
 21
4.116640
  0
POLYLINE
  8
0
  6
CONTINUOUS
 66
     1
 40
0.014080
 41
0.014080
  0
VERTEX
  8
0
  6
CONTINUOUS
 10
4.654320
 20
6.878960
  0
VERTEX
  8
0
  6
CONTINUOUS
 10
3.903240
 20
6.878960
  0
VERTEX
  8
0
  6
CONTINUOUS
 10
3.903240
 20
7.009200
  0
VERTEX
  8
0
  6
CONTINUOUS
 10
3.973200
 20
7.009200
  0
VERTEX
  8
0
  6
CONTINUOUS
 10
3.975840
 20
7.059800
  0
VERTEX
  8
0
  6
CONTINUOUS
 10
3.982440
 20
7.104680
  0
VERTEX
  8
0
  6
CONTINUOUS
 10
3.993000
 20
7.142960
  0
VERTEX
  8
0
  6
CONTINUOUS
 10
4.001800
 20
7.165400
  0
VERTEX
  8
0
  6
CONTINUOUS
 10
4.018080
 20
7.193120
  0
VERTEX
  8
0
  6
CONTINUOUS
 10
4.037880
 20
7.213800
  0
VERTEX
  8
0
  6
CONTINUOUS
 10
4.052840
 20
7.223920
  0
VERTEX
  8
0
  6
CONTINUOUS
 10
4.077480
 20
7.232280
  0
VERTEX
  8
0
  6
CONTINUOUS
 10
4.095960
 20
7.233600
  0
VERTEX
  8
0
  6
CONTINUOUS
 10
4.115760
 20
7.231840
  0
VERTEX
  8
0
  6
CONTINUOUS
 10
4.136440
 20
7.226120
  0
VERTEX
  8
0
  6
CONTINUOUS
 10
4.170320
 20
7.210280
  0
VERTEX
  8
0
  6
CONTINUOUS
 10
4.182200
 20
7.203240
  0
VERTEX
  8
0
  6
CONTINUOUS
 10
4.199360
 20
7.188720
  0
VERTEX
  8
0
  6
CONTINUOUS
 10
4.218720
 20
7.178600
  0
VERTEX
  8
0
  6
CONTINUOUS
 10
4.239400
 20
7.173760
  0
VERTEX
  8
0
  6
CONTINUOUS
 10
4.249520
 20
7.173320
  0
VERTEX
  8
0
  6
CONTINUOUS
 10
4.269320
 20
7.178160
  0
VERTEX
  8
0
  6
CONTINUOUS
 10
4.279000
 20
7.183880
  0
VERTEX
  8
0
  6
CONTINUOUS
 10
4.291760
 20
7.195760
  0
VERTEX
  8
0
  6
CONTINUOUS
 10
4.303200
 20
7.213360
  0
VERTEX
  8
0
  6
CONTINUOUS
 10
4.312440
 20
7.236680
  0
VERTEX
  8
0
  6
CONTINUOUS
 10
4.319480
 20
7.266160
  0
VERTEX
  8
0
  6
CONTINUOUS
 10
4.389440
 20
7.266160
  0
VERTEX
  8
0
  6
CONTINUOUS
 10
4.389440
 20
7.134160
  0
VERTEX
  8
0
  6
CONTINUOUS
 10
4.654320
 20
7.134160
  0
VERTEX
  8
0
  6
CONTINUOUS
 10
4.654320
 20
6.878960
  0
SEQEND
  8
0
  0
TEXT
  8
0
 10
3.967040
 20
6.644880
 40
0.138081
  1
BA  1189
 41
1.000000
  7
SN0
 71
     0
 72
     5
 11
4.649808
 21
6.644880
  0
TEXT
  8
0
 10
3.931400
 20
6.453480
 40
0.138081
  1
3/8" x 3/4"
 41
1.000000
  7
SN0
 71
     0
 72
     5
 11
4.685010
 21
6.453480
  0
POLYLINE
  8
0
  6
CONTINUOUS
 66
     1
 40
0.000000
 41
0.000000
  0
VERTEX
  8
0
  6
CONTINUOUS
 10
4.666640
 20
3.323760
  0
VERTEX
  8
0
  6
CONTINUOUS
 10
3.915560
 20
3.323760
  0
VERTEX
  8
0
  6
CONTINUOUS
 10
3.915560
 20
3.454000
  0
VERTEX
  8
0
  6
CONTINUOUS
 10
3.985520
 20
3.454000
  0
VERTEX
  8
0
  6
CONTINUOUS
 10
3.988160
 20
3.504600
  0
VERTEX
  8
0
  6
CONTINUOUS
 10
3.994760
 20
3.549480
  0
VERTEX
  8
0
  6
CONTINUOUS
 10
4.005320
 20
3.587760
  0
VERTEX
  8
0
  6
CONTINUOUS
 10
4.014120
 20
3.610200
  0
VERTEX
  8
0
  6
CONTINUOUS
 10
4.030400
 20
3.637920
  0
VERTEX
  8
0
  6
CONTINUOUS
 10
4.050200
 20
3.658600
  0
VERTEX
  8
0
  6
CONTINUOUS
 10
4.065160
 20
3.668720
  0
VERTEX
  8
0
  6
CONTINUOUS
 10
4.089800
 20
3.677080
  0
VERTEX
  8
0
  6
CONTINUOUS
 10
4.108280
 20
3.678400
  0
VERTEX
  8
0
  6
CONTINUOUS
 10
4.128080
 20
3.676640
  0
VERTEX
  8
0
  6
CONTINUOUS
 10
4.148760
 20
3.670920
  0
VERTEX
  8
0
  6
CONTINUOUS
 10
4.182640
 20
3.655080
  0
VERTEX
  8
0
  6
CONTINUOUS
 10
4.194520
 20
3.648040
  0
VERTEX
  8
0
  6
CONTINUOUS
 10
4.211680
 20
3.633520
  0
VERTEX
  8
0
  6
CONTINUOUS
 10
4.231040
 20
3.623400
  0
VERTEX
  8
0
  6
CONTINUOUS
 10
4.251720
 20
3.618560
  0
VERTEX
  8
0
  6
CONTINUOUS
 10
4.261840
 20
3.618120
  0
VERTEX
  8
0
  6
CONTINUOUS
 10
4.281640
 20
3.622960
  0
VERTEX
  8
0
  6
CONTINUOUS
 10
4.291320
 20
3.628680
  0
VERTEX
  8
0
  6
CONTINUOUS
 10
4.304080
 20
3.640560
  0
VERTEX
  8
0
  6
CONTINUOUS
 10
4.315520
 20
3.658160
  0
VERTEX
  8
0
  6
CONTINUOUS
 10
4.324760
 20
3.681480
  0
VERTEX
  8
0
  6
CONTINUOUS
 10
4.331800
 20
3.710960
  0
VERTEX
  8
0
  6
CONTINUOUS
 10
4.401760
 20
3.710960
  0
VERTEX
  8
0
  6
CONTINUOUS
 10
4.401760
 20
3.578960
  0
VERTEX
  8
0
  6
CONTINUOUS
 10
4.666640
 20
3.578960
  0
VERTEX
  8
0
  6
CONTINUOUS
 10
4.666640
 20
3.323760
  0
SEQEND
  8
0
  0
ENDSEC
  0
EOF
