  0
SECTION
  2
HEADER
  9
$ACADVER
  1
AC1006
  9
$EXTMIN
 10
1.826880
 20
0.822800
  9
$EXTMAX
 10
6.846840
 20
7.394200
  9
$LTSCALE
 40
0.044000
  9
$PDMODE
 70
    35
  9
$PDSIZE
 40
0.035200
  0
ENDSEC
  0
SECTION
  2
TABLES
  0
TABLE
  2
LTYPE
 70
     9
  0
LTYPE
  2
CONTINUOUS
 70
    64
  3
Solid line
 72
    65
 73
     0
 40
0.000000
  0
LTYPE
  2
DASHED
 70
    64
  3
__ __ __ __ __ __ __ __ __ __ __ __ __ __ __
 72
    65
 73
     2
 40
0.000330
 49
0.000220
 49
-0.000110
  0
LTYPE
  2
HIDDEN
 70
    64
  3
 _ _ _ _ _ _ _ _ _ _ _ _ _ _ _ _ _ _ _ _ _ _
 72
    65
 73
     2
 40
0.000165
 49
0.000110
 49
-0.000055
  0
LTYPE
  2
CENTER
 70
    64
  3
____ _ ____ _ ____ _ ____ _ ____ _ ____ _ ____
 72
    65
 73
     4
 40
0.000880
 49
0.000550
 49
-0.000110
 49
0.000110
 49
-0.000110
  0
LTYPE
  2
PHANTOM
 70
    64
  3
_____ _ _ _____ _ _ _____ _ _ _____ _ _ ____
 72
    65
 73
     6
 40
0.001100
 49
0.000550
 49
-0.000110
 49
0.000110
 49
-0.000110
 49
0.000110
 49
-0.000110
  0
LTYPE
  2
DOT
 70
    64
  3
...............................................
 72
    65
 73
     2
 40
0.000110
 49
0.000000
 49
-0.000110
  0
LTYPE
  2
DASHDOT
 70
    64
  3
__ . __ . __ . __ . __ . __ . __ . __ . __ . __
 72
    65
 73
     4
 40
0.000440
 49
0.000220
 49
-0.000110
 49
0.000000
 49
-0.000110
  0
LTYPE
  2
BORDER
 70
    64
  3
__ __ . __ __ . __ __ . __ __ . __ __ . __ __
 72
    65
 73
     6
 40
0.000770
 49
0.000220
 49
-0.000110
 49
0.000220
 49
-0.000110
 49
0.000000
 49
-0.000110
  0
LTYPE
  2
DIVIDE
 70
    64
  3
__ . . __ . . __ . . __ . . __ . . __ . . __
 72
    65
 73
     6
 40
0.000550
 49
0.000220
 49
-0.000110
 49
0.000000
 49
-0.000110
 49
0.000000
 49
-0.000110
  0
LTYPE
  2
DOTDOT
 70
    64
  3
 . .  . .  . .  . .  . .  . . 
 72
    65
 73
     5
 40
0.000242
 49
-0.000110
 49
0.000000
 49
-0.000110
 49
0.000000
 49
-0.000110
  0
ENDTAB
  0
TABLE
  2
STYLE
 70
     2
  0
STYLE
 70
     0
  2
SN0
 40
0.000000
 41
0.000440
 50
0.000000
 71
     0
 42
0.000000
  3
ROMAND
  0
STYLE
 70
    68
  2
SV0
 40
0.000000
 41
0.000440
 50
0.000000
 71
     0
 42
0.000000
  3
ROMAND
  0
ENDTAB
  0
TABLE
  2
LAYER
 70
     3
  0
LAYER
  2
FOREGROUND
 70
    64
 62
     7
  6
CONTINUOUS
  0
LAYER
  2
BACKGROUND
 70
    65
 62
    -7
  6
CONTINUOUS
  0
LAYER
  2
0
 70
    64
 62
     7
  6
CONTINUOUS
  0
ENDTAB
  0
ENDSEC
  0
SECTION
  2
ENTITIES
  0
POLYLINE
  8
FOREGROUND
  6
CONTINUOUS
 66
     1
 40
0.000000
 41
0.000000
  0
VERTEX
  8
FOREGROUND
  6
CONTINUOUS
 10
0.000000
 20
8.217000
  0
VERTEX
  8
FOREGROUND
  6
CONTINUOUS
 10
8.499920
 20
8.217000
  0
VERTEX
  8
FOREGROUND
  6
CONTINUOUS
 10
8.499920
 20
-2.783000
  0
VERTEX
  8
FOREGROUND
  6
CONTINUOUS
 10
0.000000
 20
-2.783000
  0
VERTEX
  8
FOREGROUND
  6
CONTINUOUS
 10
0.000000
 20
8.217000
  0
SEQEND
  8
0
  0
POLYLINE
  8
FOREGROUND
  6
CONTINUOUS
 66
     1
 40
0.000000
 41
0.000000
  0
VERTEX
  8
FOREGROUND
  6
CONTINUOUS
 10
0.000000
 20
8.217000
  0
VERTEX
  8
FOREGROUND
  6
CONTINUOUS
 10
8.499920
 20
8.217000
  0
VERTEX
  8
FOREGROUND
  6
CONTINUOUS
 10
8.499920
 20
-2.783000
  0
VERTEX
  8
FOREGROUND
  6
CONTINUOUS
 10
0.000000
 20
-2.783000
  0
VERTEX
  8
FOREGROUND
  6
CONTINUOUS
 10
0.000000
 20
8.217000
  0
SEQEND
  8
0
  0
POLYLINE
  8
0
  6
CONTINUOUS
 66
     1
 40
0.000000
 41
0.000000
  0
VERTEX
  8
0
  6
CONTINUOUS
 10
6.839800
 20
2.339920
  0
VERTEX
  8
0
  6
CONTINUOUS
 10
1.834800
 20
2.339920
  0
VERTEX
  8
0
  6
CONTINUOUS
 10
1.834800
 20
3.090120
  0
VERTEX
  8
0
  6
CONTINUOUS
 10
4.827680
 20
3.090120
  0
VERTEX
  8
0
  6
CONTINUOUS
 10
4.827680
 20
2.981440
  0
VERTEX
  8
0
  6
CONTINUOUS
 10
5.184080
 20
2.981440
  0
VERTEX
  8
0
  6
CONTINUOUS
 10
5.204760
 20
2.935240
  0
VERTEX
  8
0
  6
CONTINUOUS
 10
5.236440
 20
2.881560
  0
VERTEX
  8
0
  6
CONTINUOUS
 10
5.263720
 20
2.847240
  0
VERTEX
  8
0
  6
CONTINUOUS
 10
5.283080
 20
2.827000
  0
VERTEX
  8
0
  6
CONTINUOUS
 10
5.303320
 20
2.808960
  0
VERTEX
  8
0
  6
CONTINUOUS
 10
5.324880
 20
2.792680
  0
VERTEX
  8
0
  6
CONTINUOUS
 10
5.369760
 20
2.765840
  0
VERTEX
  8
0
  6
CONTINUOUS
 10
5.417280
 20
2.746920
  0
VERTEX
  8
0
  6
CONTINUOUS
 10
5.441920
 20
2.739880
  0
VERTEX
  8
0
  6
CONTINUOUS
 10
5.466560
 20
2.734600
  0
VERTEX
  8
0
  6
CONTINUOUS
 10
5.517600
 20
2.728880
  0
VERTEX
  8
0
  6
CONTINUOUS
 10
5.543120
 20
2.728440
  0
VERTEX
  8
0
  6
CONTINUOUS
 10
5.595040
 20
2.731520
  0
VERTEX
  8
0
  6
CONTINUOUS
 10
5.646520
 20
2.739880
  0
VERTEX
  8
0
  6
CONTINUOUS
 10
5.697120
 20
2.753520
  0
VERTEX
  8
0
  6
CONTINUOUS
 10
5.745960
 20
2.771560
  0
VERTEX
  8
0
  6
CONTINUOUS
 10
5.793040
 20
2.793560
  0
VERTEX
  8
0
  6
CONTINUOUS
 10
5.837040
 20
2.819520
  0
VERTEX
  8
0
  6
CONTINUOUS
 10
5.877960
 20
2.848560
  0
VERTEX
  8
0
  6
CONTINUOUS
 10
5.933840
 20
2.894320
  0
VERTEX
  8
0
  6
CONTINUOUS
 10
5.991480
 20
2.933480
  0
VERTEX
  8
0
  6
CONTINUOUS
 10
6.049560
 20
2.963840
  0
VERTEX
  8
0
  6
CONTINUOUS
 10
6.088720
 20
2.978360
  0
VERTEX
  8
0
  6
CONTINUOUS
 10
6.127880
 20
2.988480
  0
VERTEX
  8
0
  6
CONTINUOUS
 10
6.166160
 20
2.992880
  0
VERTEX
  8
0
  6
CONTINUOUS
 10
6.185520
 20
2.992880
  0
VERTEX
  8
0
  6
CONTINUOUS
 10
6.222920
 20
2.988920
  0
VERTEX
  8
0
  6
CONTINUOUS
 10
6.259000
 20
2.977920
  0
VERTEX
  8
0
  6
CONTINUOUS
 10
6.294200
 20
2.960760
  0
VERTEX
  8
0
  6
CONTINUOUS
 10
6.328080
 20
2.936120
  0
VERTEX
  8
0
  6
CONTINUOUS
 10
6.359760
 20
2.903560
  0
VERTEX
  8
0
  6
CONTINUOUS
 10
6.389240
 20
2.863520
  0
VERTEX
  8
0
  6
CONTINUOUS
 10
6.416960
 20
2.814680
  0
VERTEX
  8
0
  6
CONTINUOUS
 10
6.441600
 20
2.757040
  0
VERTEX
  8
0
  6
CONTINUOUS
 10
6.453040
 20
2.724920
  0
VERTEX
  8
0
  6
CONTINUOUS
 10
6.839800
 20
2.724920
  0
VERTEX
  8
0
  6
CONTINUOUS
 10
6.839800
 20
2.339920
  0
SEQEND
  8
0
  0
POLYLINE
  8
0
  6
CONTINUOUS
 66
     1
 40
0.000000
 41
0.000000
  0
VERTEX
  8
0
  6
CONTINUOUS
 10
1.834800
 20
0.823240
  0
VERTEX
  8
0
  6
CONTINUOUS
 10
6.839800
 20
0.823240
  0
VERTEX
  8
0
  6
CONTINUOUS
 10
6.839800
 20
1.573440
  0
VERTEX
  8
0
  6
CONTINUOUS
 10
3.846920
 20
1.573440
  0
VERTEX
  8
0
  6
CONTINUOUS
 10
3.846920
 20
1.464760
  0
VERTEX
  8
0
  6
CONTINUOUS
 10
3.490520
 20
1.464760
  0
VERTEX
  8
0
  6
CONTINUOUS
 10
3.469840
 20
1.418560
  0
VERTEX
  8
0
  6
CONTINUOUS
 10
3.438160
 20
1.364880
  0
VERTEX
  8
0
  6
CONTINUOUS
 10
3.410880
 20
1.330560
  0
VERTEX
  8
0
  6
CONTINUOUS
 10
3.391520
 20
1.310320
  0
VERTEX
  8
0
  6
CONTINUOUS
 10
3.371280
 20
1.292280
  0
VERTEX
  8
0
  6
CONTINUOUS
 10
3.349720
 20
1.276000
  0
VERTEX
  8
0
  6
CONTINUOUS
 10
3.304840
 20
1.249160
  0
VERTEX
  8
0
  6
CONTINUOUS
 10
3.257320
 20
1.230240
  0
VERTEX
  8
0
  6
CONTINUOUS
 10
3.232680
 20
1.223200
  0
VERTEX
  8
0
  6
CONTINUOUS
 10
3.208040
 20
1.217920
  0
VERTEX
  8
0
  6
CONTINUOUS
 10
3.157000
 20
1.212200
  0
VERTEX
  8
0
  6
CONTINUOUS
 10
3.131480
 20
1.211760
  0
VERTEX
  8
0
  6
CONTINUOUS
 10
3.079560
 20
1.214840
  0
VERTEX
  8
0
  6
CONTINUOUS
 10
3.028080
 20
1.223200
  0
VERTEX
  8
0
  6
CONTINUOUS
 10
2.977480
 20
1.236840
  0
VERTEX
  8
0
  6
CONTINUOUS
 10
2.928640
 20
1.254880
  0
VERTEX
  8
0
  6
CONTINUOUS
 10
2.881560
 20
1.276880
  0
VERTEX
  8
0
  6
CONTINUOUS
 10
2.837560
 20
1.302840
  0
VERTEX
  8
0
  6
CONTINUOUS
 10
2.796640
 20
1.331880
  0
VERTEX
  8
0
  6
CONTINUOUS
 10
2.740760
 20
1.377640
  0
VERTEX
  8
0
  6
CONTINUOUS
 10
2.683120
 20
1.416800
  0
VERTEX
  8
0
  6
CONTINUOUS
 10
2.625040
 20
1.447160
  0
VERTEX
  8
0
  6
CONTINUOUS
 10
2.585880
 20
1.461680
  0
VERTEX
  8
0
  6
CONTINUOUS
 10
2.546720
 20
1.471800
  0
VERTEX
  8
0
  6
CONTINUOUS
 10
2.508440
 20
1.476200
  0
VERTEX
  8
0
  6
CONTINUOUS
 10
2.489080
 20
1.476200
  0
VERTEX
  8
0
  6
CONTINUOUS
 10
2.451680
 20
1.472240
  0
VERTEX
  8
0
  6
CONTINUOUS
 10
2.415600
 20
1.461240
  0
VERTEX
  8
0
  6
CONTINUOUS
 10
2.380400
 20
1.444080
  0
VERTEX
  8
0
  6
CONTINUOUS
 10
2.346520
 20
1.419440
  0
VERTEX
  8
0
  6
CONTINUOUS
 10
2.314840
 20
1.386880
  0
VERTEX
  8
0
  6
CONTINUOUS
 10
2.285360
 20
1.346840
  0
VERTEX
  8
0
  6
CONTINUOUS
 10
2.257640
 20
1.298000
  0
VERTEX
  8
0
  6
CONTINUOUS
 10
2.233000
 20
1.240360
  0
VERTEX
  8
0
  6
CONTINUOUS
 10
2.221560
 20
1.208240
  0
VERTEX
  8
0
  6
CONTINUOUS
 10
1.834800
 20
1.208240
  0
VERTEX
  8
0
  6
CONTINUOUS
 10
1.834800
 20
0.823240
  0
SEQEND
  8
0
  0
SOLID
  8
0
 62
    15
 10
5.855960
 20
4.851880
 11
5.859920
 21
5.606040
 12
5.894680
 22
4.882240
 13
5.898640
 23
5.636840
  0
POLYLINE
  8
0
  6
CONTINUOUS
 66
     1
 40
0.000000
 41
0.000000
  0
VERTEX
  8
0
  6
CONTINUOUS
 10
5.855960
 20
4.851880
  0
VERTEX
  8
0
  6
CONTINUOUS
 10
5.859920
 20
5.606040
  0
VERTEX
  8
0
  6
CONTINUOUS
 10
5.898640
 20
5.636840
  0
VERTEX
  8
0
  6
CONTINUOUS
 10
5.894680
 20
4.882240
  0
VERTEX
  8
0
  6
CONTINUOUS
 10
5.855960
 20
4.851880
  0
SEQEND
  8
0
  0
SOLID
  8
0
 62
    15
 10
4.825480
 20
4.999720
 11
4.829440
 21
5.753880
 12
5.181880
 22
4.999720
 13
5.185840
 23
5.753880
  0
POLYLINE
  8
0
  6
CONTINUOUS
 66
     1
 40
0.000000
 41
0.000000
  0
VERTEX
  8
0
  6
CONTINUOUS
 10
4.825480
 20
4.999720
  0
VERTEX
  8
0
  6
CONTINUOUS
 10
4.829440
 20
5.753880
  0
VERTEX
  8
0
  6
CONTINUOUS
 10
5.185840
 20
5.753880
  0
VERTEX
  8
0
  6
CONTINUOUS
 10
5.181880
 20
4.999720
  0
VERTEX
  8
0
  6
CONTINUOUS
 10
4.825480
 20
4.999720
  0
SEQEND
  8
0
  0
SOLID
  8
0
 62
    15
 10
4.825480
 20
5.108400
 11
4.829440
 21
5.862560
 12
4.825480
 22
4.999720
 13
4.829440
 23
5.753880
  0
POLYLINE
  8
0
  6
CONTINUOUS
 66
     1
 40
0.000000
 41
0.000000
  0
VERTEX
  8
0
  6
CONTINUOUS
 10
4.825480
 20
5.108400
  0
VERTEX
  8
0
  6
CONTINUOUS
 10
4.829440
 20
5.862560
  0
VERTEX
  8
0
  6
CONTINUOUS
 10
4.829440
 20
5.753880
  0
VERTEX
  8
0
  6
CONTINUOUS
 10
4.825480
 20
4.999720
  0
VERTEX
  8
0
  6
CONTINUOUS
 10
4.825480
 20
5.108400
  0
SEQEND
  8
0
  0
SOLID
  8
0
 62
    15
 10
5.181880
 20
4.999720
 11
5.185840
 21
5.753880
 12
5.210040
 22
4.939440
 13
5.214000
 23
5.693600
  0
POLYLINE
  8
0
  6
CONTINUOUS
 66
     1
 40
0.000000
 41
0.000000
  0
VERTEX
  8
0
  6
CONTINUOUS
 10
5.181880
 20
4.999720
  0
VERTEX
  8
0
  6
CONTINUOUS
 10
5.185840
 20
5.753880
  0
VERTEX
  8
0
  6
CONTINUOUS
 10
5.214000
 20
5.693600
  0
VERTEX
  8
0
  6
CONTINUOUS
 10
5.210040
 20
4.939440
  0
VERTEX
  8
0
  6
CONTINUOUS
 10
5.181880
 20
4.999720
  0
SEQEND
  8
0
  0
SOLID
  8
0
 62
    15
 10
5.210040
 20
4.939440
 11
5.214000
 21
5.693600
 12
5.243040
 22
4.887960
 13
5.247000
 23
5.642120
  0
POLYLINE
  8
0
  6
CONTINUOUS
 66
     1
 40
0.000000
 41
0.000000
  0
VERTEX
  8
0
  6
CONTINUOUS
 10
5.210040
 20
4.939440
  0
VERTEX
  8
0
  6
CONTINUOUS
 10
5.214000
 20
5.693600
  0
VERTEX
  8
0
  6
CONTINUOUS
 10
5.247000
 20
5.642120
  0
VERTEX
  8
0
  6
CONTINUOUS
 10
5.243040
 20
4.887960
  0
VERTEX
  8
0
  6
CONTINUOUS
 10
5.210040
 20
4.939440
  0
SEQEND
  8
0
  0
SOLID
  8
0
 62
    15
 10
5.243040
 20
4.887960
 11
5.247000
 21
5.642120
 12
5.280880
 22
4.845280
 13
5.284840
 23
5.599880
  0
POLYLINE
  8
0
  6
CONTINUOUS
 66
     1
 40
0.000000
 41
0.000000
  0
VERTEX
  8
0
  6
CONTINUOUS
 10
5.243040
 20
4.887960
  0
VERTEX
  8
0
  6
CONTINUOUS
 10
5.247000
 20
5.642120
  0
VERTEX
  8
0
  6
CONTINUOUS
 10
5.284840
 20
5.599880
  0
VERTEX
  8
0
  6
CONTINUOUS
 10
5.280880
 20
4.845280
  0
VERTEX
  8
0
  6
CONTINUOUS
 10
5.243040
 20
4.887960
  0
SEQEND
  8
0
  0
SOLID
  8
0
 62
    15
 10
5.280880
 20
4.845280
 11
5.284840
 21
5.599880
 12
5.322680
 22
4.810960
 13
5.326640
 23
5.565120
  0
POLYLINE
  8
0
  6
CONTINUOUS
 66
     1
 40
0.000000
 41
0.000000
  0
VERTEX
  8
0
  6
CONTINUOUS
 10
5.280880
 20
4.845280
  0
VERTEX
  8
0
  6
CONTINUOUS
 10
5.284840
 20
5.599880
  0
VERTEX
  8
0
  6
CONTINUOUS
 10
5.326640
 20
5.565120
  0
VERTEX
  8
0
  6
CONTINUOUS
 10
5.322680
 20
4.810960
  0
VERTEX
  8
0
  6
CONTINUOUS
 10
5.280880
 20
4.845280
  0
SEQEND
  8
0
  0
SOLID
  8
0
 62
    15
 10
5.322680
 20
4.810960
 11
5.326640
 21
5.565120
 12
5.367560
 22
4.784120
 13
5.371520
 23
5.538720
  0
POLYLINE
  8
0
  6
CONTINUOUS
 66
     1
 40
0.000000
 41
0.000000
  0
VERTEX
  8
0
  6
CONTINUOUS
 10
5.322680
 20
4.810960
  0
VERTEX
  8
0
  6
CONTINUOUS
 10
5.326640
 20
5.565120
  0
VERTEX
  8
0
  6
CONTINUOUS
 10
5.371520
 20
5.538720
  0
VERTEX
  8
0
  6
CONTINUOUS
 10
5.367560
 20
4.784120
  0
VERTEX
  8
0
  6
CONTINUOUS
 10
5.322680
 20
4.810960
  0
SEQEND
  8
0
  0
SOLID
  8
0
 62
    15
 10
5.367560
 20
4.784120
 11
5.371520
 21
5.538720
 12
5.415080
 22
4.765200
 13
5.419040
 23
5.519360
  0
POLYLINE
  8
0
  6
CONTINUOUS
 66
     1
 40
0.000000
 41
0.000000
  0
VERTEX
  8
0
  6
CONTINUOUS
 10
5.367560
 20
4.784120
  0
VERTEX
  8
0
  6
CONTINUOUS
 10
5.371520
 20
5.538720
  0
VERTEX
  8
0
  6
CONTINUOUS
 10
5.419040
 20
5.519360
  0
VERTEX
  8
0
  6
CONTINUOUS
 10
5.415080
 20
4.765200
  0
VERTEX
  8
0
  6
CONTINUOUS
 10
5.367560
 20
4.784120
  0
SEQEND
  8
0
  0
SOLID
  8
0
 62
    15
 10
5.415080
 20
4.765200
 11
5.419040
 21
5.519360
 12
5.464360
 22
4.752880
 13
5.468760
 23
5.507040
  0
POLYLINE
  8
0
  6
CONTINUOUS
 66
     1
 40
0.000000
 41
0.000000
  0
VERTEX
  8
0
  6
CONTINUOUS
 10
5.415080
 20
4.765200
  0
VERTEX
  8
0
  6
CONTINUOUS
 10
5.419040
 20
5.519360
  0
VERTEX
  8
0
  6
CONTINUOUS
 10
5.468760
 20
5.507040
  0
VERTEX
  8
0
  6
CONTINUOUS
 10
5.464360
 20
4.752880
  0
VERTEX
  8
0
  6
CONTINUOUS
 10
5.415080
 20
4.765200
  0
SEQEND
  8
0
  0
SOLID
  8
0
 62
    15
 10
5.464360
 20
4.752880
 11
5.468760
 21
5.507040
 12
5.515400
 22
4.747160
 13
5.519360
 23
5.501320
  0
POLYLINE
  8
0
  6
CONTINUOUS
 66
     1
 40
0.000000
 41
0.000000
  0
VERTEX
  8
0
  6
CONTINUOUS
 10
5.464360
 20
4.752880
  0
VERTEX
  8
0
  6
CONTINUOUS
 10
5.468760
 20
5.507040
  0
VERTEX
  8
0
  6
CONTINUOUS
 10
5.519360
 20
5.501320
  0
VERTEX
  8
0
  6
CONTINUOUS
 10
5.515400
 20
4.747160
  0
VERTEX
  8
0
  6
CONTINUOUS
 10
5.464360
 20
4.752880
  0
SEQEND
  8
0
  0
SOLID
  8
0
 62
    15
 10
5.515400
 20
4.747160
 11
5.519360
 21
5.501320
 12
5.566880
 22
4.747600
 13
5.571280
 23
5.501760
  0
POLYLINE
  8
0
  6
CONTINUOUS
 66
     1
 40
0.000000
 41
0.000000
  0
VERTEX
  8
0
  6
CONTINUOUS
 10
5.515400
 20
4.747160
  0
VERTEX
  8
0
  6
CONTINUOUS
 10
5.519360
 20
5.501320
  0
VERTEX
  8
0
  6
CONTINUOUS
 10
5.571280
 20
5.501760
  0
VERTEX
  8
0
  6
CONTINUOUS
 10
5.566880
 20
4.747600
  0
VERTEX
  8
0
  6
CONTINUOUS
 10
5.515400
 20
4.747160
  0
SEQEND
  8
0
  0
SOLID
  8
0
 62
    15
 10
5.566880
 20
4.747600
 11
5.571280
 21
5.501760
 12
5.618800
 22
4.753320
 13
5.622760
 23
5.507920
  0
POLYLINE
  8
0
  6
CONTINUOUS
 66
     1
 40
0.000000
 41
0.000000
  0
VERTEX
  8
0
  6
CONTINUOUS
 10
5.566880
 20
4.747600
  0
VERTEX
  8
0
  6
CONTINUOUS
 10
5.571280
 20
5.501760
  0
VERTEX
  8
0
  6
CONTINUOUS
 10
5.622760
 20
5.507920
  0
VERTEX
  8
0
  6
CONTINUOUS
 10
5.618800
 20
4.753320
  0
VERTEX
  8
0
  6
CONTINUOUS
 10
5.566880
 20
4.747600
  0
SEQEND
  8
0
  0
SOLID
  8
0
 62
    15
 10
5.618800
 20
4.753320
 11
5.622760
 21
5.507920
 12
5.669840
 22
4.764320
 13
5.673800
 23
5.518920
  0
POLYLINE
  8
0
  6
CONTINUOUS
 66
     1
 40
0.000000
 41
0.000000
  0
VERTEX
  8
0
  6
CONTINUOUS
 10
5.618800
 20
4.753320
  0
VERTEX
  8
0
  6
CONTINUOUS
 10
5.622760
 20
5.507920
  0
VERTEX
  8
0
  6
CONTINUOUS
 10
5.673800
 20
5.518920
  0
VERTEX
  8
0
  6
CONTINUOUS
 10
5.669840
 20
4.764320
  0
VERTEX
  8
0
  6
CONTINUOUS
 10
5.618800
 20
4.753320
  0
SEQEND
  8
0
  0
SOLID
  8
0
 62
    15
 10
5.669840
 20
4.764320
 11
5.673800
 21
5.518920
 12
5.719560
 22
4.780160
 13
5.723960
 23
5.534760
  0
POLYLINE
  8
0
  6
CONTINUOUS
 66
     1
 40
0.000000
 41
0.000000
  0
VERTEX
  8
0
  6
CONTINUOUS
 10
5.669840
 20
4.764320
  0
VERTEX
  8
0
  6
CONTINUOUS
 10
5.673800
 20
5.518920
  0
VERTEX
  8
0
  6
CONTINUOUS
 10
5.723960
 20
5.534760
  0
VERTEX
  8
0
  6
CONTINUOUS
 10
5.719560
 20
4.780160
  0
VERTEX
  8
0
  6
CONTINUOUS
 10
5.669840
 20
4.764320
  0
SEQEND
  8
0
  0
SOLID
  8
0
 62
    15
 10
5.719560
 20
4.780160
 11
5.723960
 21
5.534760
 12
5.767520
 22
4.800400
 13
5.771920
 23
5.555000
  0
POLYLINE
  8
0
  6
CONTINUOUS
 66
     1
 40
0.000000
 41
0.000000
  0
VERTEX
  8
0
  6
CONTINUOUS
 10
5.719560
 20
4.780160
  0
VERTEX
  8
0
  6
CONTINUOUS
 10
5.723960
 20
5.534760
  0
VERTEX
  8
0
  6
CONTINUOUS
 10
5.771920
 20
5.555000
  0
VERTEX
  8
0
  6
CONTINUOUS
 10
5.767520
 20
4.800400
  0
VERTEX
  8
0
  6
CONTINUOUS
 10
5.719560
 20
4.780160
  0
SEQEND
  8
0
  0
SOLID
  8
0
 62
    15
 10
5.767520
 20
4.800400
 11
5.771920
 21
5.555000
 12
5.813280
 22
4.824600
 13
5.817240
 23
5.578760
  0
POLYLINE
  8
0
  6
CONTINUOUS
 66
     1
 40
0.000000
 41
0.000000
  0
VERTEX
  8
0
  6
CONTINUOUS
 10
5.767520
 20
4.800400
  0
VERTEX
  8
0
  6
CONTINUOUS
 10
5.771920
 20
5.555000
  0
VERTEX
  8
0
  6
CONTINUOUS
 10
5.817240
 20
5.578760
  0
VERTEX
  8
0
  6
CONTINUOUS
 10
5.813280
 20
4.824600
  0
VERTEX
  8
0
  6
CONTINUOUS
 10
5.767520
 20
4.800400
  0
SEQEND
  8
0
  0
SOLID
  8
0
 62
    15
 10
5.813280
 20
4.824600
 11
5.817240
 21
5.578760
 12
5.855960
 22
4.851880
 13
5.859920
 23
5.606040
  0
POLYLINE
  8
0
  6
CONTINUOUS
 66
     1
 40
0.000000
 41
0.000000
  0
VERTEX
  8
0
  6
CONTINUOUS
 10
5.813280
 20
4.824600
  0
VERTEX
  8
0
  6
CONTINUOUS
 10
5.817240
 20
5.578760
  0
VERTEX
  8
0
  6
CONTINUOUS
 10
5.859920
 20
5.606040
  0
VERTEX
  8
0
  6
CONTINUOUS
 10
5.855960
 20
4.851880
  0
VERTEX
  8
0
  6
CONTINUOUS
 10
5.813280
 20
4.824600
  0
SEQEND
  8
0
  0
SOLID
  8
0
 62
    15
 10
1.832600
 20
5.108400
 11
1.836560
 21
5.862560
 12
4.825480
 22
5.108400
 13
4.829440
 23
5.862560
  0
POLYLINE
  8
0
  6
CONTINUOUS
 66
     1
 40
0.000000
 41
0.000000
  0
VERTEX
  8
0
  6
CONTINUOUS
 10
1.832600
 20
5.108400
  0
VERTEX
  8
0
  6
CONTINUOUS
 10
1.836560
 20
5.862560
  0
VERTEX
  8
0
  6
CONTINUOUS
 10
4.829440
 20
5.862560
  0
VERTEX
  8
0
  6
CONTINUOUS
 10
4.825480
 20
5.108400
  0
VERTEX
  8
0
  6
CONTINUOUS
 10
1.832600
 20
5.108400
  0
SEQEND
  8
0
  0
SOLID
  8
0
 62
    15
 10
5.894680
 20
4.882240
 11
5.898640
 21
5.636840
 12
5.969920
 22
4.939440
 13
5.973880
 23
5.694040
  0
POLYLINE
  8
0
  6
CONTINUOUS
 66
     1
 40
0.000000
 41
0.000000
  0
VERTEX
  8
0
  6
CONTINUOUS
 10
5.894680
 20
4.882240
  0
VERTEX
  8
0
  6
CONTINUOUS
 10
5.898640
 20
5.636840
  0
VERTEX
  8
0
  6
CONTINUOUS
 10
5.973880
 20
5.694040
  0
VERTEX
  8
0
  6
CONTINUOUS
 10
5.969920
 20
4.939440
  0
VERTEX
  8
0
  6
CONTINUOUS
 10
5.894680
 20
4.882240
  0
SEQEND
  8
0
  0
SOLID
  8
0
 62
    15
 10
5.969920
 20
4.939440
 11
5.973880
 21
5.694040
 12
6.008640
 22
4.963200
 13
6.012600
 23
5.717360
  0
POLYLINE
  8
0
  6
CONTINUOUS
 66
     1
 40
0.000000
 41
0.000000
  0
VERTEX
  8
0
  6
CONTINUOUS
 10
5.969920
 20
4.939440
  0
VERTEX
  8
0
  6
CONTINUOUS
 10
5.973880
 20
5.694040
  0
VERTEX
  8
0
  6
CONTINUOUS
 10
6.012600
 20
5.717360
  0
VERTEX
  8
0
  6
CONTINUOUS
 10
6.008640
 20
4.963200
  0
VERTEX
  8
0
  6
CONTINUOUS
 10
5.969920
 20
4.939440
  0
SEQEND
  8
0
  0
SOLID
  8
0
 62
    15
 10
6.008640
 20
4.963200
 11
6.012600
 21
5.717360
 12
6.047360
 22
4.982120
 13
6.051760
 23
5.736720
  0
POLYLINE
  8
0
  6
CONTINUOUS
 66
     1
 40
0.000000
 41
0.000000
  0
VERTEX
  8
0
  6
CONTINUOUS
 10
6.008640
 20
4.963200
  0
VERTEX
  8
0
  6
CONTINUOUS
 10
6.012600
 20
5.717360
  0
VERTEX
  8
0
  6
CONTINUOUS
 10
6.051760
 20
5.736720
  0
VERTEX
  8
0
  6
CONTINUOUS
 10
6.047360
 20
4.982120
  0
VERTEX
  8
0
  6
CONTINUOUS
 10
6.008640
 20
4.963200
  0
SEQEND
  8
0
  0
SOLID
  8
0
 62
    15
 10
6.047360
 20
4.982120
 11
6.051760
 21
5.736720
 12
6.086520
 22
4.997080
 13
6.090920
 23
5.751240
  0
POLYLINE
  8
0
  6
CONTINUOUS
 66
     1
 40
0.000000
 41
0.000000
  0
VERTEX
  8
0
  6
CONTINUOUS
 10
6.047360
 20
4.982120
  0
VERTEX
  8
0
  6
CONTINUOUS
 10
6.051760
 20
5.736720
  0
VERTEX
  8
0
  6
CONTINUOUS
 10
6.090920
 20
5.751240
  0
VERTEX
  8
0
  6
CONTINUOUS
 10
6.086520
 20
4.997080
  0
VERTEX
  8
0
  6
CONTINUOUS
 10
6.047360
 20
4.982120
  0
SEQEND
  8
0
  0
SOLID
  8
0
 62
    15
 10
6.086520
 20
4.997080
 11
6.090920
 21
5.751240
 12
6.125680
 22
5.006760
 13
6.129640
 23
5.761360
  0
POLYLINE
  8
0
  6
CONTINUOUS
 66
     1
 40
0.000000
 41
0.000000
  0
VERTEX
  8
0
  6
CONTINUOUS
 10
6.086520
 20
4.997080
  0
VERTEX
  8
0
  6
CONTINUOUS
 10
6.090920
 20
5.751240
  0
VERTEX
  8
0
  6
CONTINUOUS
 10
6.129640
 20
5.761360
  0
VERTEX
  8
0
  6
CONTINUOUS
 10
6.125680
 20
5.006760
  0
VERTEX
  8
0
  6
CONTINUOUS
 10
6.086520
 20
4.997080
  0
SEQEND
  8
0
  0
SOLID
  8
0
 62
    15
 10
6.125680
 20
5.006760
 11
6.129640
 21
5.761360
 12
6.163960
 22
5.011160
 13
6.168360
 23
5.765760
  0
POLYLINE
  8
0
  6
CONTINUOUS
 66
     1
 40
0.000000
 41
0.000000
  0
VERTEX
  8
0
  6
CONTINUOUS
 10
6.125680
 20
5.006760
  0
VERTEX
  8
0
  6
CONTINUOUS
 10
6.129640
 20
5.761360
  0
VERTEX
  8
0
  6
CONTINUOUS
 10
6.168360
 20
5.765760
  0
VERTEX
  8
0
  6
CONTINUOUS
 10
6.163960
 20
5.011160
  0
VERTEX
  8
0
  6
CONTINUOUS
 10
6.125680
 20
5.006760
  0
SEQEND
  8
0
  0
SOLID
  8
0
 62
    15
 10
6.163960
 20
5.011160
 11
6.168360
 21
5.765760
 12
6.202240
 22
5.009840
 13
6.206200
 23
5.764440
  0
POLYLINE
  8
0
  6
CONTINUOUS
 66
     1
 40
0.000000
 41
0.000000
  0
VERTEX
  8
0
  6
CONTINUOUS
 10
6.163960
 20
5.011160
  0
VERTEX
  8
0
  6
CONTINUOUS
 10
6.168360
 20
5.765760
  0
VERTEX
  8
0
  6
CONTINUOUS
 10
6.206200
 20
5.764440
  0
VERTEX
  8
0
  6
CONTINUOUS
 10
6.202240
 20
5.009840
  0
VERTEX
  8
0
  6
CONTINUOUS
 10
6.163960
 20
5.011160
  0
SEQEND
  8
0
  0
SOLID
  8
0
 62
    15
 10
6.202240
 20
5.009840
 11
6.206200
 21
5.764440
 12
6.239200
 22
5.002800
 13
6.243160
 23
5.756960
  0
POLYLINE
  8
0
  6
CONTINUOUS
 66
     1
 40
0.000000
 41
0.000000
  0
VERTEX
  8
0
  6
CONTINUOUS
 10
6.202240
 20
5.009840
  0
VERTEX
  8
0
  6
CONTINUOUS
 10
6.206200
 20
5.764440
  0
VERTEX
  8
0
  6
CONTINUOUS
 10
6.243160
 20
5.756960
  0
VERTEX
  8
0
  6
CONTINUOUS
 10
6.239200
 20
5.002800
  0
VERTEX
  8
0
  6
CONTINUOUS
 10
6.202240
 20
5.009840
  0
SEQEND
  8
0
  0
SOLID
  8
0
 62
    15
 10
6.239200
 20
5.002800
 11
6.243160
 21
5.756960
 12
6.274840
 22
4.988720
 13
6.278800
 23
5.742880
  0
POLYLINE
  8
0
  6
CONTINUOUS
 66
     1
 40
0.000000
 41
0.000000
  0
VERTEX
  8
0
  6
CONTINUOUS
 10
6.239200
 20
5.002800
  0
VERTEX
  8
0
  6
CONTINUOUS
 10
6.243160
 20
5.756960
  0
VERTEX
  8
0
  6
CONTINUOUS
 10
6.278800
 20
5.742880
  0
VERTEX
  8
0
  6
CONTINUOUS
 10
6.274840
 20
4.988720
  0
VERTEX
  8
0
  6
CONTINUOUS
 10
6.239200
 20
5.002800
  0
SEQEND
  8
0
  0
SOLID
  8
0
 62
    15
 10
6.274840
 20
4.988720
 11
6.278800
 21
5.742880
 12
6.309160
 22
4.967600
 13
6.313120
 23
5.721760
  0
POLYLINE
  8
0
  6
CONTINUOUS
 66
     1
 40
0.000000
 41
0.000000
  0
VERTEX
  8
0
  6
CONTINUOUS
 10
6.274840
 20
4.988720
  0
VERTEX
  8
0
  6
CONTINUOUS
 10
6.278800
 20
5.742880
  0
VERTEX
  8
0
  6
CONTINUOUS
 10
6.313120
 20
5.721760
  0
VERTEX
  8
0
  6
CONTINUOUS
 10
6.309160
 20
4.967600
  0
VERTEX
  8
0
  6
CONTINUOUS
 10
6.274840
 20
4.988720
  0
SEQEND
  8
0
  0
SOLID
  8
0
 62
    15
 10
6.309160
 20
4.967600
 11
6.313120
 21
5.721760
 12
6.341720
 22
4.939000
 13
6.346120
 23
5.693600
  0
POLYLINE
  8
0
  6
CONTINUOUS
 66
     1
 40
0.000000
 41
0.000000
  0
VERTEX
  8
0
  6
CONTINUOUS
 10
6.309160
 20
4.967600
  0
VERTEX
  8
0
  6
CONTINUOUS
 10
6.313120
 20
5.721760
  0
VERTEX
  8
0
  6
CONTINUOUS
 10
6.346120
 20
5.693600
  0
VERTEX
  8
0
  6
CONTINUOUS
 10
6.341720
 20
4.939000
  0
VERTEX
  8
0
  6
CONTINUOUS
 10
6.309160
 20
4.967600
  0
SEQEND
  8
0
  0
SOLID
  8
0
 62
    15
 10
6.341720
 20
4.939000
 11
6.346120
 21
5.693600
 12
6.372520
 22
4.902920
 13
6.376920
 23
5.657520
  0
POLYLINE
  8
0
  6
CONTINUOUS
 66
     1
 40
0.000000
 41
0.000000
  0
VERTEX
  8
0
  6
CONTINUOUS
 10
6.341720
 20
4.939000
  0
VERTEX
  8
0
  6
CONTINUOUS
 10
6.346120
 20
5.693600
  0
VERTEX
  8
0
  6
CONTINUOUS
 10
6.376920
 20
5.657520
  0
VERTEX
  8
0
  6
CONTINUOUS
 10
6.372520
 20
4.902920
  0
VERTEX
  8
0
  6
CONTINUOUS
 10
6.341720
 20
4.939000
  0
SEQEND
  8
0
  0
SOLID
  8
0
 62
    15
 10
6.372520
 20
4.902920
 11
6.376920
 21
5.657520
 12
6.401120
 22
4.858480
 13
6.405520
 23
5.613080
  0
POLYLINE
  8
0
  6
CONTINUOUS
 66
     1
 40
0.000000
 41
0.000000
  0
VERTEX
  8
0
  6
CONTINUOUS
 10
6.372520
 20
4.902920
  0
VERTEX
  8
0
  6
CONTINUOUS
 10
6.376920
 20
5.657520
  0
VERTEX
  8
0
  6
CONTINUOUS
 10
6.405520
 20
5.613080
  0
VERTEX
  8
0
  6
CONTINUOUS
 10
6.401120
 20
4.858480
  0
VERTEX
  8
0
  6
CONTINUOUS
 10
6.372520
 20
4.902920
  0
SEQEND
  8
0
  0
SOLID
  8
0
 62
    15
 10
6.837600
 20
4.743200
 11
6.842000
 21
5.497800
 12
6.837600
 22
4.376240
 13
6.842000
 23
5.130840
  0
POLYLINE
  8
0
  6
CONTINUOUS
 66
     1
 40
0.000000
 41
0.000000
  0
VERTEX
  8
0
  6
CONTINUOUS
 10
6.837600
 20
4.743200
  0
VERTEX
  8
0
  6
CONTINUOUS
 10
6.842000
 20
5.497800
  0
VERTEX
  8
0
  6
CONTINUOUS
 10
6.842000
 20
5.130840
  0
VERTEX
  8
0
  6
CONTINUOUS
 10
6.837600
 20
4.376240
  0
VERTEX
  8
0
  6
CONTINUOUS
 10
6.837600
 20
4.743200
  0
SEQEND
  8
0
  0
SOLID
  8
0
 62
    15
 10
6.450840
 20
4.743200
 11
6.455240
 21
5.497800
 12
6.837600
 22
4.743200
 13
6.842000
 23
5.497800
  0
POLYLINE
  8
0
  6
CONTINUOUS
 66
     1
 40
0.000000
 41
0.000000
  0
VERTEX
  8
0
  6
CONTINUOUS
 10
6.450840
 20
4.743200
  0
VERTEX
  8
0
  6
CONTINUOUS
 10
6.455240
 20
5.497800
  0
VERTEX
  8
0
  6
CONTINUOUS
 10
6.842000
 20
5.497800
  0
VERTEX
  8
0
  6
CONTINUOUS
 10
6.837600
 20
4.743200
  0
VERTEX
  8
0
  6
CONTINUOUS
 10
6.450840
 20
4.743200
  0
SEQEND
  8
0
  0
SOLID
  8
0
 62
    15
 10
6.427520
 20
4.805240
 11
6.431480
 21
5.559840
 12
6.450840
 22
4.743200
 13
6.455240
 23
5.497800
  0
POLYLINE
  8
0
  6
CONTINUOUS
 66
     1
 40
0.000000
 41
0.000000
  0
VERTEX
  8
0
  6
CONTINUOUS
 10
6.427520
 20
4.805240
  0
VERTEX
  8
0
  6
CONTINUOUS
 10
6.431480
 20
5.559840
  0
VERTEX
  8
0
  6
CONTINUOUS
 10
6.455240
 20
5.497800
  0
VERTEX
  8
0
  6
CONTINUOUS
 10
6.450840
 20
4.743200
  0
VERTEX
  8
0
  6
CONTINUOUS
 10
6.427520
 20
4.805240
  0
SEQEND
  8
0
  0
SOLID
  8
0
 62
    15
 10
6.401120
 20
4.858480
 11
6.405520
 21
5.613080
 12
6.427520
 22
4.805240
 13
6.431480
 23
5.559840
  0
POLYLINE
  8
0
  6
CONTINUOUS
 66
     1
 40
0.000000
 41
0.000000
  0
VERTEX
  8
0
  6
CONTINUOUS
 10
6.401120
 20
4.858480
  0
VERTEX
  8
0
  6
CONTINUOUS
 10
6.405520
 20
5.613080
  0
VERTEX
  8
0
  6
CONTINUOUS
 10
6.431480
 20
5.559840
  0
VERTEX
  8
0
  6
CONTINUOUS
 10
6.427520
 20
4.805240
  0
VERTEX
  8
0
  6
CONTINUOUS
 10
6.401120
 20
4.858480
  0
SEQEND
  8
0
  0
SOLID
  8
0
 62
    15
 10
6.837600
 20
4.376240
 11
6.842000
 21
5.130840
 12
6.837600
 22
4.358200
 13
6.842000
 23
5.112360
  0
POLYLINE
  8
0
  6
CONTINUOUS
 66
     1
 40
0.000000
 41
0.000000
  0
VERTEX
  8
0
  6
CONTINUOUS
 10
6.837600
 20
4.376240
  0
VERTEX
  8
0
  6
CONTINUOUS
 10
6.842000
 20
5.130840
  0
VERTEX
  8
0
  6
CONTINUOUS
 10
6.842000
 20
5.112360
  0
VERTEX
  8
0
  6
CONTINUOUS
 10
6.837600
 20
4.358200
  0
VERTEX
  8
0
  6
CONTINUOUS
 10
6.837600
 20
4.376240
  0
SEQEND
  8
0
  0
POLYLINE
  8
0
  6
CONTINUOUS
 66
     1
 40
0.000000
 41
0.000000
  0
VERTEX
  8
0
  6
CONTINUOUS
 10
6.837600
 20
4.358200
  0
VERTEX
  8
0
  6
CONTINUOUS
 10
1.832600
 20
4.358200
  0
VERTEX
  8
0
  6
CONTINUOUS
 10
1.832600
 20
5.108400
  0
VERTEX
  8
0
  6
CONTINUOUS
 10
4.825480
 20
5.108400
  0
VERTEX
  8
0
  6
CONTINUOUS
 10
4.825480
 20
4.999720
  0
VERTEX
  8
0
  6
CONTINUOUS
 10
5.181880
 20
4.999720
  0
VERTEX
  8
0
  6
CONTINUOUS
 10
5.210040
 20
4.939440
  0
VERTEX
  8
0
  6
CONTINUOUS
 10
5.243040
 20
4.887960
  0
VERTEX
  8
0
  6
CONTINUOUS
 10
5.280880
 20
4.845280
  0
VERTEX
  8
0
  6
CONTINUOUS
 10
5.322680
 20
4.810960
  0
VERTEX
  8
0
  6
CONTINUOUS
 10
5.367560
 20
4.784120
  0
VERTEX
  8
0
  6
CONTINUOUS
 10
5.415080
 20
4.765200
  0
VERTEX
  8
0
  6
CONTINUOUS
 10
5.464360
 20
4.752880
  0
VERTEX
  8
0
  6
CONTINUOUS
 10
5.515400
 20
4.747160
  0
VERTEX
  8
0
  6
CONTINUOUS
 10
5.566880
 20
4.747600
  0
VERTEX
  8
0
  6
CONTINUOUS
 10
5.618800
 20
4.753320
  0
VERTEX
  8
0
  6
CONTINUOUS
 10
5.669840
 20
4.764320
  0
VERTEX
  8
0
  6
CONTINUOUS
 10
5.719560
 20
4.780160
  0
VERTEX
  8
0
  6
CONTINUOUS
 10
5.767520
 20
4.800400
  0
VERTEX
  8
0
  6
CONTINUOUS
 10
5.813280
 20
4.824600
  0
VERTEX
  8
0
  6
CONTINUOUS
 10
5.855960
 20
4.851880
  0
VERTEX
  8
0
  6
CONTINUOUS
 10
5.894680
 20
4.882240
  0
VERTEX
  8
0
  6
CONTINUOUS
 10
5.969920
 20
4.939440
  0
VERTEX
  8
0
  6
CONTINUOUS
 10
6.008640
 20
4.963200
  0
VERTEX
  8
0
  6
CONTINUOUS
 10
6.047360
 20
4.982120
  0
VERTEX
  8
0
  6
CONTINUOUS
 10
6.086520
 20
4.997080
  0
VERTEX
  8
0
  6
CONTINUOUS
 10
6.125680
 20
5.006760
  0
VERTEX
  8
0
  6
CONTINUOUS
 10
6.163960
 20
5.011160
  0
VERTEX
  8
0
  6
CONTINUOUS
 10
6.202240
 20
5.009840
  0
VERTEX
  8
0
  6
CONTINUOUS
 10
6.239200
 20
5.002800
  0
VERTEX
  8
0
  6
CONTINUOUS
 10
6.274840
 20
4.988720
  0
VERTEX
  8
0
  6
CONTINUOUS
 10
6.309160
 20
4.967600
  0
VERTEX
  8
0
  6
CONTINUOUS
 10
6.341720
 20
4.939000
  0
VERTEX
  8
0
  6
CONTINUOUS
 10
6.372520
 20
4.902920
  0
VERTEX
  8
0
  6
CONTINUOUS
 10
6.401120
 20
4.858480
  0
VERTEX
  8
0
  6
CONTINUOUS
 10
6.427520
 20
4.805240
  0
VERTEX
  8
0
  6
CONTINUOUS
 10
6.450840
 20
4.743200
  0
VERTEX
  8
0
  6
CONTINUOUS
 10
6.837600
 20
4.743200
  0
VERTEX
  8
0
  6
CONTINUOUS
 10
6.837600
 20
4.376240
  0
VERTEX
  8
0
  6
CONTINUOUS
 10
6.837600
 20
4.358200
  0
SEQEND
  8
0
  0
TEXT
  8
0
 10
3.995640
 20
4.083640
 40
0.138251
  1
BA  
 41
1.000000
  7
SN0
 71
     0
 72
     5
 11
4.309424
 21
4.083640
  0
TEXT
  8
0
 10
4.309360
 20
4.083640
 40
0.138251
  1
1188
 41
1.000000
  7
SN0
 71
     0
 72
     5
 11
4.679001
 21
4.083640
  0
TEXT
  8
0
 10
3.995640
 20
3.892240
 40
0.138251
  1
3/4" x 5"
 41
1.000000
  7
SN0
 71
     0
 72
     5
 11
4.611709
 21
3.892240
  0
POLYLINE
  8
0
  6
CONTINUOUS
 66
     1
 40
0.014080
 41
0.014080
  0
VERTEX
  8
0
  6
CONTINUOUS
 10
6.839800
 20
6.636080
  0
VERTEX
  8
0
  6
CONTINUOUS
 10
1.834800
 20
6.636080
  0
VERTEX
  8
0
  6
CONTINUOUS
 10
1.834800
 20
7.386280
  0
VERTEX
  8
0
  6
CONTINUOUS
 10
4.827680
 20
7.386280
  0
VERTEX
  8
0
  6
CONTINUOUS
 10
4.827680
 20
7.277600
  0
VERTEX
  8
0
  6
CONTINUOUS
 10
5.184080
 20
7.277600
  0
VERTEX
  8
0
  6
CONTINUOUS
 10
5.204760
 20
7.231400
  0
VERTEX
  8
0
  6
CONTINUOUS
 10
5.236440
 20
7.177720
  0
VERTEX
  8
0
  6
CONTINUOUS
 10
5.263720
 20
7.143400
  0
VERTEX
  8
0
  6
CONTINUOUS
 10
5.283080
 20
7.123160
  0
VERTEX
  8
0
  6
CONTINUOUS
 10
5.303320
 20
7.105120
  0
VERTEX
  8
0
  6
CONTINUOUS
 10
5.324880
 20
7.088840
  0
VERTEX
  8
0
  6
CONTINUOUS
 10
5.369760
 20
7.062000
  0
VERTEX
  8
0
  6
CONTINUOUS
 10
5.417280
 20
7.043080
  0
VERTEX
  8
0
  6
CONTINUOUS
 10
5.441920
 20
7.036040
  0
VERTEX
  8
0
  6
CONTINUOUS
 10
5.466560
 20
7.030760
  0
VERTEX
  8
0
  6
CONTINUOUS
 10
5.517600
 20
7.025040
  0
VERTEX
  8
0
  6
CONTINUOUS
 10
5.543120
 20
7.024600
  0
VERTEX
  8
0
  6
CONTINUOUS
 10
5.595040
 20
7.027680
  0
VERTEX
  8
0
  6
CONTINUOUS
 10
5.646520
 20
7.036040
  0
VERTEX
  8
0
  6
CONTINUOUS
 10
5.697120
 20
7.049680
  0
VERTEX
  8
0
  6
CONTINUOUS
 10
5.745960
 20
7.067720
  0
VERTEX
  8
0
  6
CONTINUOUS
 10
5.793040
 20
7.090160
  0
VERTEX
  8
0
  6
CONTINUOUS
 10
5.837040
 20
7.116120
  0
VERTEX
  8
0
  6
CONTINUOUS
 10
5.877960
 20
7.145160
  0
VERTEX
  8
0
  6
CONTINUOUS
 10
5.933840
 20
7.190920
  0
VERTEX
  8
0
  6
CONTINUOUS
 10
5.991480
 20
7.230080
  0
VERTEX
  8
0
  6
CONTINUOUS
 10
6.049560
 20
7.260440
  0
VERTEX
  8
0
  6
CONTINUOUS
 10
6.088720
 20
7.274960
  0
VERTEX
  8
0
  6
CONTINUOUS
 10
6.127880
 20
7.285080
  0
VERTEX
  8
0
  6
CONTINUOUS
 10
6.166160
 20
7.289480
  0
VERTEX
  8
0
  6
CONTINUOUS
 10
6.185520
 20
7.289480
  0
VERTEX
  8
0
  6
CONTINUOUS
 10
6.222920
 20
7.285520
  0
VERTEX
  8
0
  6
CONTINUOUS
 10
6.259000
 20
7.274520
  0
VERTEX
  8
0
  6
CONTINUOUS
 10
6.294200
 20
7.257360
  0
VERTEX
  8
0
  6
CONTINUOUS
 10
6.328080
 20
7.232720
  0
VERTEX
  8
0
  6
CONTINUOUS
 10
6.359760
 20
7.200160
  0
VERTEX
  8
0
  6
CONTINUOUS
 10
6.389240
 20
7.160120
  0
VERTEX
  8
0
  6
CONTINUOUS
 10
6.416960
 20
7.111280
  0
VERTEX
  8
0
  6
CONTINUOUS
 10
6.441600
 20
7.053640
  0
VERTEX
  8
0
  6
CONTINUOUS
 10
6.453040
 20
7.021520
  0
VERTEX
  8
0
  6
CONTINUOUS
 10
6.839800
 20
7.021520
  0
VERTEX
  8
0
  6
CONTINUOUS
 10
6.839800
 20
6.636080
  0
SEQEND
  8
0
  0
TEXT
  8
0
 10
2.268640
 20
6.942320
 40
0.138251
  1
BA  
 41
1.000000
  7
SN0
 71
     0
 72
     5
 11
2.582424
 21
6.942320
  0
TEXT
  8
0
 10
2.582360
 20
6.942320
 40
0.138251
  1
1188
 41
1.000000
  7
SN0
 71
     0
 72
     5
 11
2.952001
 21
6.942320
  0
TEXT
  8
0
 10
2.268640
 20
6.750920
 40
0.138251
  1
3/4" x 5"
 41
1.000000
  7
SN0
 71
     0
 72
     5
 11
2.884709
 21
6.750920
  0
ENDSEC
  0
EOF
