  0
SECTION
  2
HEADER
  9
$ACADVER
  1
AC1006
  9
$EXTMIN
 10
2.257200
 20
3.123120
  9
$EXTMAX
 10
6.035040
 20
8.152760
  9
$LTSCALE
 40
0.044000
  9
$PDMODE
 70
    35
  9
$PDSIZE
 40
0.035200
  0
ENDSEC
  0
SECTION
  2
TABLES
  0
TABLE
  2
LTYPE
 70
     9
  0
LTYPE
  2
CONTINUOUS
 70
    64
  3
Solid line
 72
    65
 73
     0
 40
0.000000
  0
LTYPE
  2
DASHED
 70
    64
  3
__ __ __ __ __ __ __ __ __ __ __ __ __ __ __
 72
    65
 73
     2
 40
0.000330
 49
0.000220
 49
-0.000110
  0
LTYPE
  2
HIDDEN
 70
    64
  3
 _ _ _ _ _ _ _ _ _ _ _ _ _ _ _ _ _ _ _ _ _ _
 72
    65
 73
     2
 40
0.000165
 49
0.000110
 49
-0.000055
  0
LTYPE
  2
CENTER
 70
    64
  3
____ _ ____ _ ____ _ ____ _ ____ _ ____ _ ____
 72
    65
 73
     4
 40
0.000880
 49
0.000550
 49
-0.000110
 49
0.000110
 49
-0.000110
  0
LTYPE
  2
PHANTOM
 70
    64
  3
_____ _ _ _____ _ _ _____ _ _ _____ _ _ ____
 72
    65
 73
     6
 40
0.001100
 49
0.000550
 49
-0.000110
 49
0.000110
 49
-0.000110
 49
0.000110
 49
-0.000110
  0
LTYPE
  2
DOT
 70
    64
  3
...............................................
 72
    65
 73
     2
 40
0.000110
 49
0.000000
 49
-0.000110
  0
LTYPE
  2
DASHDOT
 70
    64
  3
__ . __ . __ . __ . __ . __ . __ . __ . __ . __
 72
    65
 73
     4
 40
0.000440
 49
0.000220
 49
-0.000110
 49
0.000000
 49
-0.000110
  0
LTYPE
  2
BORDER
 70
    64
  3
__ __ . __ __ . __ __ . __ __ . __ __ . __ __
 72
    65
 73
     6
 40
0.000770
 49
0.000220
 49
-0.000110
 49
0.000220
 49
-0.000110
 49
0.000000
 49
-0.000110
  0
LTYPE
  2
DIVIDE
 70
    64
  3
__ . . __ . . __ . . __ . . __ . . __ . . __
 72
    65
 73
     6
 40
0.000550
 49
0.000220
 49
-0.000110
 49
0.000000
 49
-0.000110
 49
0.000000
 49
-0.000110
  0
LTYPE
  2
DOTDOT
 70
    64
  3
 . .  . .  . .  . .  . .  . . 
 72
    65
 73
     5
 40
0.000242
 49
-0.000110
 49
0.000000
 49
-0.000110
 49
0.000000
 49
-0.000110
  0
ENDTAB
  0
TABLE
  2
STYLE
 70
     2
  0
STYLE
 70
     0
  2
SN0
 40
0.000000
 41
0.000440
 50
0.000000
 71
     0
 42
0.000000
  3
ROMAND
  0
STYLE
 70
    68
  2
SV0
 40
0.000000
 41
0.000440
 50
0.000000
 71
     0
 42
0.000000
  3
ROMAND
  0
ENDTAB
  0
TABLE
  2
LAYER
 70
     3
  0
LAYER
  2
FOREGROUND
 70
    64
 62
     7
  6
CONTINUOUS
  0
LAYER
  2
BACKGROUND
 70
    65
 62
    -7
  6
CONTINUOUS
  0
LAYER
  2
0
 70
    64
 62
     7
  6
CONTINUOUS
  0
ENDTAB
  0
ENDSEC
  0
SECTION
  2
ENTITIES
  0
POLYLINE
  8
FOREGROUND
  6
CONTINUOUS
 66
     1
 40
0.000000
 41
0.000000
  0
VERTEX
  8
FOREGROUND
  6
CONTINUOUS
 10
0.000000
 20
11.275880
  0
VERTEX
  8
FOREGROUND
  6
CONTINUOUS
 10
8.499920
 20
11.275880
  0
VERTEX
  8
FOREGROUND
  6
CONTINUOUS
 10
8.499920
 20
0.275880
  0
VERTEX
  8
FOREGROUND
  6
CONTINUOUS
 10
0.000000
 20
0.275880
  0
VERTEX
  8
FOREGROUND
  6
CONTINUOUS
 10
0.000000
 20
11.275880
  0
SEQEND
  8
0
  0
POLYLINE
  8
FOREGROUND
  6
CONTINUOUS
 66
     1
 40
0.000000
 41
0.000000
  0
VERTEX
  8
FOREGROUND
  6
CONTINUOUS
 10
0.000000
 20
11.275880
  0
VERTEX
  8
FOREGROUND
  6
CONTINUOUS
 10
8.499920
 20
11.275880
  0
VERTEX
  8
FOREGROUND
  6
CONTINUOUS
 10
8.499920
 20
0.275880
  0
VERTEX
  8
FOREGROUND
  6
CONTINUOUS
 10
0.000000
 20
0.275880
  0
VERTEX
  8
FOREGROUND
  6
CONTINUOUS
 10
0.000000
 20
11.275880
  0
SEQEND
  8
0
  0
POLYLINE
  8
0
  6
CONTINUOUS
 66
     1
 40
0.000000
 41
0.000000
  0
VERTEX
  8
0
  6
CONTINUOUS
 10
2.333760
 20
3.123120
  0
VERTEX
  8
0
  6
CONTINUOUS
 10
2.265120
 20
3.123120
  0
VERTEX
  8
0
  6
CONTINUOUS
 10
2.265120
 20
3.284600
  0
VERTEX
  8
0
  6
CONTINUOUS
 10
2.294600
 20
3.285040
  0
VERTEX
  8
0
  6
CONTINUOUS
 10
2.317040
 20
3.288120
  0
VERTEX
  8
0
  6
CONTINUOUS
 10
2.333760
 20
3.294720
  0
VERTEX
  8
0
  6
CONTINUOUS
 10
2.346520
 20
3.306600
  0
VERTEX
  8
0
  6
CONTINUOUS
 10
2.356200
 20
3.325520
  0
VERTEX
  8
0
  6
CONTINUOUS
 10
2.363680
 20
3.352360
  0
VERTEX
  8
0
  6
CONTINUOUS
 10
2.378640
 20
3.437280
  0
VERTEX
  8
0
  6
CONTINUOUS
 10
2.440240
 20
3.437280
  0
VERTEX
  8
0
  6
CONTINUOUS
 10
2.444640
 20
3.468520
  0
VERTEX
  8
0
  6
CONTINUOUS
 10
2.453440
 20
3.495360
  0
VERTEX
  8
0
  6
CONTINUOUS
 10
2.466200
 20
3.518240
  0
VERTEX
  8
0
  6
CONTINUOUS
 10
2.482480
 20
3.536720
  0
VERTEX
  8
0
  6
CONTINUOUS
 10
2.500960
 20
3.551240
  0
VERTEX
  8
0
  6
CONTINUOUS
 10
2.521640
 20
3.561800
  0
VERTEX
  8
0
  6
CONTINUOUS
 10
2.544080
 20
3.567960
  0
VERTEX
  8
0
  6
CONTINUOUS
 10
2.566960
 20
3.570600
  0
VERTEX
  8
0
  6
CONTINUOUS
 10
2.589400
 20
3.568840
  0
VERTEX
  8
0
  6
CONTINUOUS
 10
2.611840
 20
3.563560
  0
VERTEX
  8
0
  6
CONTINUOUS
 10
2.632960
 20
3.554320
  0
VERTEX
  8
0
  6
CONTINUOUS
 10
2.652320
 20
3.541120
  0
VERTEX
  8
0
  6
CONTINUOUS
 10
2.668600
 20
3.523960
  0
VERTEX
  8
0
  6
CONTINUOUS
 10
2.682240
 20
3.503720
  0
VERTEX
  8
0
  6
CONTINUOUS
 10
2.691920
 20
3.479080
  0
VERTEX
  8
0
  6
CONTINUOUS
 10
2.697200
 20
3.451360
  0
VERTEX
  8
0
  6
CONTINUOUS
 10
4.089800
 20
3.451360
  0
VERTEX
  8
0
  6
CONTINUOUS
 10
4.092440
 20
3.470720
  0
VERTEX
  8
0
  6
CONTINUOUS
 10
4.096840
 20
3.489640
  0
VERTEX
  8
0
  6
CONTINUOUS
 10
4.103000
 20
3.508120
  0
VERTEX
  8
0
  6
CONTINUOUS
 10
4.119280
 20
3.542000
  0
VERTEX
  8
0
  6
CONTINUOUS
 10
4.141280
 20
3.572360
  0
VERTEX
  8
0
  6
CONTINUOUS
 10
4.167680
 20
3.597880
  0
VERTEX
  8
0
  6
CONTINUOUS
 10
4.182640
 20
3.608880
  0
VERTEX
  8
0
  6
CONTINUOUS
 10
4.215640
 20
3.626040
  0
VERTEX
  8
0
  6
CONTINUOUS
 10
4.233680
 20
3.632640
  0
VERTEX
  8
0
  6
CONTINUOUS
 10
4.271960
 20
3.640120
  0
VERTEX
  8
0
  6
CONTINUOUS
 10
4.292200
 20
3.641000
  0
VERTEX
  8
0
  6
CONTINUOUS
 10
4.326080
 20
3.638360
  0
VERTEX
  8
0
  6
CONTINUOUS
 10
4.358200
 20
3.630000
  0
VERTEX
  8
0
  6
CONTINUOUS
 10
4.388560
 20
3.616360
  0
VERTEX
  8
0
  6
CONTINUOUS
 10
4.415840
 20
3.598760
  0
VERTEX
  8
0
  6
CONTINUOUS
 10
4.440040
 20
3.576760
  0
VERTEX
  8
0
  6
CONTINUOUS
 10
4.460720
 20
3.550800
  0
VERTEX
  8
0
  6
CONTINUOUS
 10
4.477000
 20
3.521760
  0
VERTEX
  8
0
  6
CONTINUOUS
 10
4.488440
 20
3.489640
  0
VERTEX
  8
0
  6
CONTINUOUS
 10
4.708880
 20
3.529240
  0
VERTEX
  8
0
  6
CONTINUOUS
 10
4.718120
 20
3.551680
  0
VERTEX
  8
0
  6
CONTINUOUS
 10
4.735280
 20
3.579840
  0
VERTEX
  8
0
  6
CONTINUOUS
 10
4.755520
 20
3.603160
  0
VERTEX
  8
0
  6
CONTINUOUS
 10
4.777960
 20
3.620320
  0
VERTEX
  8
0
  6
CONTINUOUS
 10
4.801720
 20
3.632640
  0
VERTEX
  8
0
  6
CONTINUOUS
 10
4.817560
 20
3.637480
  0
VERTEX
  8
0
  6
CONTINUOUS
 10
4.833840
 20
3.640560
  0
VERTEX
  8
0
  6
CONTINUOUS
 10
4.849680
 20
3.641000
  0
VERTEX
  8
0
  6
CONTINUOUS
 10
4.864640
 20
3.639240
  0
VERTEX
  8
0
  6
CONTINUOUS
 10
4.886200
 20
3.632640
  0
VERTEX
  8
0
  6
CONTINUOUS
 10
4.905120
 20
3.620760
  0
VERTEX
  8
0
  6
CONTINUOUS
 10
4.920960
 20
3.604480
  0
VERTEX
  8
0
  6
CONTINUOUS
 10
4.925360
 20
3.597880
  0
VERTEX
  8
0
  6
CONTINUOUS
 10
4.942960
 20
3.608880
  0
VERTEX
  8
0
  6
CONTINUOUS
 10
4.944720
 20
3.627800
  0
VERTEX
  8
0
  6
CONTINUOUS
 10
4.948240
 20
3.646280
  0
VERTEX
  8
0
  6
CONTINUOUS
 10
4.953520
 20
3.664760
  0
VERTEX
  8
0
  6
CONTINUOUS
 10
4.969800
 20
3.701280
  0
VERTEX
  8
0
  6
CONTINUOUS
 10
4.992680
 20
3.735600
  0
VERTEX
  8
0
  6
CONTINUOUS
 10
5.005880
 20
3.751880
  0
VERTEX
  8
0
  6
CONTINUOUS
 10
5.036680
 20
3.781800
  0
VERTEX
  8
0
  6
CONTINUOUS
 10
5.071440
 20
3.808200
  0
VERTEX
  8
0
  6
CONTINUOUS
 10
5.110160
 20
3.829760
  0
VERTEX
  8
0
  6
CONTINUOUS
 10
5.151080
 20
3.846040
  0
VERTEX
  8
0
  6
CONTINUOUS
 10
5.172200
 20
3.852200
  0
VERTEX
  8
0
  6
CONTINUOUS
 10
5.193760
 20
3.856600
  0
VERTEX
  8
0
  6
CONTINUOUS
 10
5.215760
 20
3.859240
  0
VERTEX
  8
0
  6
CONTINUOUS
 10
5.237760
 20
3.860120
  0
VERTEX
  8
0
  6
CONTINUOUS
 10
5.259760
 20
3.858800
  0
VERTEX
  8
0
  6
CONTINUOUS
 10
5.281760
 20
3.855720
  0
VERTEX
  8
0
  6
CONTINUOUS
 10
5.303760
 20
3.850440
  0
VERTEX
  8
0
  6
CONTINUOUS
 10
5.325320
 20
3.842960
  0
VERTEX
  8
0
  6
CONTINUOUS
 10
5.357000
 20
3.827560
  0
VERTEX
  8
0
  6
CONTINUOUS
 10
5.387360
 20
3.806880
  0
VERTEX
  8
0
  6
CONTINUOUS
 10
5.416400
 20
3.780040
  0
VERTEX
  8
0
  6
CONTINUOUS
 10
5.443680
 20
3.747040
  0
VERTEX
  8
0
  6
CONTINUOUS
 10
5.468320
 20
3.707440
  0
VERTEX
  8
0
  6
CONTINUOUS
 10
5.476240
 20
3.692920
  0
VERTEX
  8
0
  6
CONTINUOUS
 10
5.492080
 20
3.692920
  0
VERTEX
  8
0
  6
CONTINUOUS
 10
5.503080
 20
3.872000
  0
VERTEX
  8
0
  6
CONTINUOUS
 10
6.027560
 20
3.872000
  0
VERTEX
  8
0
  6
CONTINUOUS
 10
6.027560
 20
3.123560
  0
VERTEX
  8
0
  6
CONTINUOUS
 10
2.333760
 20
3.123120
  0
SEQEND
  8
0
  0
POLYLINE
  8
0
  6
CONTINUOUS
 66
     1
 40
0.000000
 41
0.000000
  0
VERTEX
  8
0
  6
CONTINUOUS
 10
5.958920
 20
4.136000
  0
VERTEX
  8
0
  6
CONTINUOUS
 10
6.027560
 20
4.136000
  0
VERTEX
  8
0
  6
CONTINUOUS
 10
6.027560
 20
4.297480
  0
VERTEX
  8
0
  6
CONTINUOUS
 10
5.998080
 20
4.297920
  0
VERTEX
  8
0
  6
CONTINUOUS
 10
5.975640
 20
4.301000
  0
VERTEX
  8
0
  6
CONTINUOUS
 10
5.958920
 20
4.307600
  0
VERTEX
  8
0
  6
CONTINUOUS
 10
5.951880
 20
4.312880
  0
VERTEX
  8
0
  6
CONTINUOUS
 10
5.946160
 20
4.319480
  0
VERTEX
  8
0
  6
CONTINUOUS
 10
5.936480
 20
4.338400
  0
VERTEX
  8
0
  6
CONTINUOUS
 10
5.929000
 20
4.365240
  0
VERTEX
  8
0
  6
CONTINUOUS
 10
5.914040
 20
4.450160
  0
VERTEX
  8
0
  6
CONTINUOUS
 10
5.852440
 20
4.450160
  0
VERTEX
  8
0
  6
CONTINUOUS
 10
5.848040
 20
4.481400
  0
VERTEX
  8
0
  6
CONTINUOUS
 10
5.839240
 20
4.508240
  0
VERTEX
  8
0
  6
CONTINUOUS
 10
5.826480
 20
4.531120
  0
VERTEX
  8
0
  6
CONTINUOUS
 10
5.810200
 20
4.549600
  0
VERTEX
  8
0
  6
CONTINUOUS
 10
5.791280
 20
4.564120
  0
VERTEX
  8
0
  6
CONTINUOUS
 10
5.770600
 20
4.574680
  0
VERTEX
  8
0
  6
CONTINUOUS
 10
5.748600
 20
4.580840
  0
VERTEX
  8
0
  6
CONTINUOUS
 10
5.725720
 20
4.583480
  0
VERTEX
  8
0
  6
CONTINUOUS
 10
5.702840
 20
4.581720
  0
VERTEX
  8
0
  6
CONTINUOUS
 10
5.680400
 20
4.576440
  0
VERTEX
  8
0
  6
CONTINUOUS
 10
5.659720
 20
4.567200
  0
VERTEX
  8
0
  6
CONTINUOUS
 10
5.640360
 20
4.554000
  0
VERTEX
  8
0
  6
CONTINUOUS
 10
5.623640
 20
4.536840
  0
VERTEX
  8
0
  6
CONTINUOUS
 10
5.610440
 20
4.516600
  0
VERTEX
  8
0
  6
CONTINUOUS
 10
5.600760
 20
4.491960
  0
VERTEX
  8
0
  6
CONTINUOUS
 10
5.595480
 20
4.464240
  0
VERTEX
  8
0
  6
CONTINUOUS
 10
4.202880
 20
4.464240
  0
VERTEX
  8
0
  6
CONTINUOUS
 10
4.200240
 20
4.483600
  0
VERTEX
  8
0
  6
CONTINUOUS
 10
4.195840
 20
4.502520
  0
VERTEX
  8
0
  6
CONTINUOUS
 10
4.182200
 20
4.538160
  0
VERTEX
  8
0
  6
CONTINUOUS
 10
4.163280
 20
4.570280
  0
VERTEX
  8
0
  6
CONTINUOUS
 10
4.138640
 20
4.598440
  0
VERTEX
  8
0
  6
CONTINUOUS
 10
4.110040
 20
4.621760
  0
VERTEX
  8
0
  6
CONTINUOUS
 10
4.077040
 20
4.638920
  0
VERTEX
  8
0
  6
CONTINUOUS
 10
4.059000
 20
4.645520
  0
VERTEX
  8
0
  6
CONTINUOUS
 10
4.020720
 20
4.653000
  0
VERTEX
  8
0
  6
CONTINUOUS
 10
4.000480
 20
4.653880
  0
VERTEX
  8
0
  6
CONTINUOUS
 10
3.966600
 20
4.651240
  0
VERTEX
  8
0
  6
CONTINUOUS
 10
3.934040
 20
4.642880
  0
VERTEX
  8
0
  6
CONTINUOUS
 10
3.904120
 20
4.629240
  0
VERTEX
  8
0
  6
CONTINUOUS
 10
3.876400
 20
4.611640
  0
VERTEX
  8
0
  6
CONTINUOUS
 10
3.852200
 20
4.589640
  0
VERTEX
  8
0
  6
CONTINUOUS
 10
3.831960
 20
4.563680
  0
VERTEX
  8
0
  6
CONTINUOUS
 10
3.815680
 20
4.534640
  0
VERTEX
  8
0
  6
CONTINUOUS
 10
3.809080
 20
4.518800
  0
VERTEX
  8
0
  6
CONTINUOUS
 10
3.804240
 20
4.502520
  0
VERTEX
  8
0
  6
CONTINUOUS
 10
3.583360
 20
4.542120
  0
VERTEX
  8
0
  6
CONTINUOUS
 10
3.568840
 20
4.574680
  0
VERTEX
  8
0
  6
CONTINUOUS
 10
3.550360
 20
4.601080
  0
VERTEX
  8
0
  6
CONTINUOUS
 10
3.529680
 20
4.622200
  0
VERTEX
  8
0
  6
CONTINUOUS
 10
3.506800
 20
4.638040
  0
VERTEX
  8
0
  6
CONTINUOUS
 10
3.490960
 20
4.645520
  0
VERTEX
  8
0
  6
CONTINUOUS
 10
3.475120
 20
4.650360
  0
VERTEX
  8
0
  6
CONTINUOUS
 10
3.458840
 20
4.653440
  0
VERTEX
  8
0
  6
CONTINUOUS
 10
3.443000
 20
4.653880
  0
VERTEX
  8
0
  6
CONTINUOUS
 10
3.428040
 20
4.652120
  0
VERTEX
  8
0
  6
CONTINUOUS
 10
3.406480
 20
4.645520
  0
VERTEX
  8
0
  6
CONTINUOUS
 10
3.387560
 20
4.633640
  0
VERTEX
  8
0
  6
CONTINUOUS
 10
3.371720
 20
4.617360
  0
VERTEX
  8
0
  6
CONTINUOUS
 10
3.367320
 20
4.610760
  0
VERTEX
  8
0
  6
CONTINUOUS
 10
3.349720
 20
4.621760
  0
VERTEX
  8
0
  6
CONTINUOUS
 10
3.347960
 20
4.640680
  0
VERTEX
  8
0
  6
CONTINUOUS
 10
3.344440
 20
4.659160
  0
VERTEX
  8
0
  6
CONTINUOUS
 10
3.339160
 20
4.677640
  0
VERTEX
  8
0
  6
CONTINUOUS
 10
3.322880
 20
4.714160
  0
VERTEX
  8
0
  6
CONTINUOUS
 10
3.300000
 20
4.748480
  0
VERTEX
  8
0
  6
CONTINUOUS
 10
3.286800
 20
4.764760
  0
VERTEX
  8
0
  6
CONTINUOUS
 10
3.256000
 20
4.794680
  0
VERTEX
  8
0
  6
CONTINUOUS
 10
3.221240
 20
4.821080
  0
VERTEX
  8
0
  6
CONTINUOUS
 10
3.182520
 20
4.842640
  0
VERTEX
  8
0
  6
CONTINUOUS
 10
3.141600
 20
4.858920
  0
VERTEX
  8
0
  6
CONTINUOUS
 10
3.120480
 20
4.865080
  0
VERTEX
  8
0
  6
CONTINUOUS
 10
3.098920
 20
4.869480
  0
VERTEX
  8
0
  6
CONTINUOUS
 10
3.076920
 20
4.872120
  0
VERTEX
  8
0
  6
CONTINUOUS
 10
3.054920
 20
4.873000
  0
VERTEX
  8
0
  6
CONTINUOUS
 10
3.032920
 20
4.871680
  0
VERTEX
  8
0
  6
CONTINUOUS
 10
3.010920
 20
4.868600
  0
VERTEX
  8
0
  6
CONTINUOUS
 10
2.988920
 20
4.863320
  0
VERTEX
  8
0
  6
CONTINUOUS
 10
2.967360
 20
4.855840
  0
VERTEX
  8
0
  6
CONTINUOUS
 10
2.935680
 20
4.840440
  0
VERTEX
  8
0
  6
CONTINUOUS
 10
2.905320
 20
4.819760
  0
VERTEX
  8
0
  6
CONTINUOUS
 10
2.876280
 20
4.792920
  0
VERTEX
  8
0
  6
CONTINUOUS
 10
2.849000
 20
4.759920
  0
VERTEX
  8
0
  6
CONTINUOUS
 10
2.824360
 20
4.720320
  0
VERTEX
  8
0
  6
CONTINUOUS
 10
2.816440
 20
4.705800
  0
VERTEX
  8
0
  6
CONTINUOUS
 10
2.800160
 20
4.705800
  0
VERTEX
  8
0
  6
CONTINUOUS
 10
2.789600
 20
4.884880
  0
VERTEX
  8
0
  6
CONTINUOUS
 10
2.265120
 20
4.884880
  0
VERTEX
  8
0
  6
CONTINUOUS
 10
2.265120
 20
4.136440
  0
VERTEX
  8
0
  6
CONTINUOUS
 10
5.958920
 20
4.136000
  0
SEQEND
  8
0
  0
SOLID
  8
0
 62
    15
 10
3.936240
 20
6.138440
 11
3.931840
 21
6.883360
 12
3.968800
 22
6.146800
 13
3.964400
 23
6.891720
  0
POLYLINE
  8
0
  6
CONTINUOUS
 66
     1
 40
0.000000
 41
0.000000
  0
VERTEX
  8
0
  6
CONTINUOUS
 10
3.936240
 20
6.138440
  0
VERTEX
  8
0
  6
CONTINUOUS
 10
3.931840
 20
6.883360
  0
VERTEX
  8
0
  6
CONTINUOUS
 10
3.964400
 20
6.891720
  0
VERTEX
  8
0
  6
CONTINUOUS
 10
3.968800
 20
6.146800
  0
VERTEX
  8
0
  6
CONTINUOUS
 10
3.936240
 20
6.138440
  0
SEQEND
  8
0
  0
SOLID
  8
0
 62
    15
 10
2.267320
 20
5.632440
 11
2.262920
 21
6.376920
 12
2.267320
 22
6.380880
 13
2.262920
 23
7.125360
  0
POLYLINE
  8
0
  6
CONTINUOUS
 66
     1
 40
0.000000
 41
0.000000
  0
VERTEX
  8
0
  6
CONTINUOUS
 10
2.267320
 20
5.632440
  0
VERTEX
  8
0
  6
CONTINUOUS
 10
2.262920
 20
6.376920
  0
VERTEX
  8
0
  6
CONTINUOUS
 10
2.262920
 20
7.125360
  0
VERTEX
  8
0
  6
CONTINUOUS
 10
2.267320
 20
6.380880
  0
VERTEX
  8
0
  6
CONTINUOUS
 10
2.267320
 20
5.632440
  0
SEQEND
  8
0
  0
SOLID
  8
0
 62
    15
 10
2.791360
 20
6.380880
 11
2.787400
 21
7.125360
 12
2.802360
 22
6.201800
 13
2.798400
 23
6.946720
  0
POLYLINE
  8
0
  6
CONTINUOUS
 66
     1
 40
0.000000
 41
0.000000
  0
VERTEX
  8
0
  6
CONTINUOUS
 10
2.791360
 20
6.380880
  0
VERTEX
  8
0
  6
CONTINUOUS
 10
2.787400
 20
7.125360
  0
VERTEX
  8
0
  6
CONTINUOUS
 10
2.798400
 20
6.946720
  0
VERTEX
  8
0
  6
CONTINUOUS
 10
2.802360
 20
6.201800
  0
VERTEX
  8
0
  6
CONTINUOUS
 10
2.791360
 20
6.380880
  0
SEQEND
  8
0
  0
SOLID
  8
0
 62
    15
 10
2.802360
 20
6.201800
 11
2.798400
 21
6.946720
 12
2.818640
 22
6.201800
 13
2.814240
 23
6.946720
  0
POLYLINE
  8
0
  6
CONTINUOUS
 66
     1
 40
0.000000
 41
0.000000
  0
VERTEX
  8
0
  6
CONTINUOUS
 10
2.802360
 20
6.201800
  0
VERTEX
  8
0
  6
CONTINUOUS
 10
2.798400
 20
6.946720
  0
VERTEX
  8
0
  6
CONTINUOUS
 10
2.814240
 20
6.946720
  0
VERTEX
  8
0
  6
CONTINUOUS
 10
2.818640
 20
6.201800
  0
VERTEX
  8
0
  6
CONTINUOUS
 10
2.802360
 20
6.201800
  0
SEQEND
  8
0
  0
SOLID
  8
0
 62
    15
 10
2.818640
 20
6.201800
 11
2.814240
 21
6.946720
 12
2.851200
 22
6.255920
 13
2.846800
 23
7.000400
  0
POLYLINE
  8
0
  6
CONTINUOUS
 66
     1
 40
0.000000
 41
0.000000
  0
VERTEX
  8
0
  6
CONTINUOUS
 10
2.818640
 20
6.201800
  0
VERTEX
  8
0
  6
CONTINUOUS
 10
2.814240
 20
6.946720
  0
VERTEX
  8
0
  6
CONTINUOUS
 10
2.846800
 20
7.000400
  0
VERTEX
  8
0
  6
CONTINUOUS
 10
2.851200
 20
6.255920
  0
VERTEX
  8
0
  6
CONTINUOUS
 10
2.818640
 20
6.201800
  0
SEQEND
  8
0
  0
SOLID
  8
0
 62
    15
 10
2.851200
 20
6.255920
 11
2.846800
 21
7.000400
 12
2.887720
 22
6.298160
 13
2.883320
 23
7.043080
  0
POLYLINE
  8
0
  6
CONTINUOUS
 66
     1
 40
0.000000
 41
0.000000
  0
VERTEX
  8
0
  6
CONTINUOUS
 10
2.851200
 20
6.255920
  0
VERTEX
  8
0
  6
CONTINUOUS
 10
2.846800
 20
7.000400
  0
VERTEX
  8
0
  6
CONTINUOUS
 10
2.883320
 20
7.043080
  0
VERTEX
  8
0
  6
CONTINUOUS
 10
2.887720
 20
6.298160
  0
VERTEX
  8
0
  6
CONTINUOUS
 10
2.851200
 20
6.255920
  0
SEQEND
  8
0
  0
SOLID
  8
0
 62
    15
 10
2.887720
 20
6.298160
 11
2.883320
 21
7.043080
 12
2.927320
 22
6.330280
 13
2.922920
 23
7.074760
  0
POLYLINE
  8
0
  6
CONTINUOUS
 66
     1
 40
0.000000
 41
0.000000
  0
VERTEX
  8
0
  6
CONTINUOUS
 10
2.887720
 20
6.298160
  0
VERTEX
  8
0
  6
CONTINUOUS
 10
2.883320
 20
7.043080
  0
VERTEX
  8
0
  6
CONTINUOUS
 10
2.922920
 20
7.074760
  0
VERTEX
  8
0
  6
CONTINUOUS
 10
2.927320
 20
6.330280
  0
VERTEX
  8
0
  6
CONTINUOUS
 10
2.887720
 20
6.298160
  0
SEQEND
  8
0
  0
SOLID
  8
0
 62
    15
 10
2.927320
 20
6.330280
 11
2.922920
 21
7.074760
 12
2.969560
 22
6.351840
 13
2.965160
 23
7.096760
  0
POLYLINE
  8
0
  6
CONTINUOUS
 66
     1
 40
0.000000
 41
0.000000
  0
VERTEX
  8
0
  6
CONTINUOUS
 10
2.927320
 20
6.330280
  0
VERTEX
  8
0
  6
CONTINUOUS
 10
2.922920
 20
7.074760
  0
VERTEX
  8
0
  6
CONTINUOUS
 10
2.965160
 20
7.096760
  0
VERTEX
  8
0
  6
CONTINUOUS
 10
2.969560
 20
6.351840
  0
VERTEX
  8
0
  6
CONTINUOUS
 10
2.927320
 20
6.330280
  0
SEQEND
  8
0
  0
SOLID
  8
0
 62
    15
 10
2.969560
 20
6.351840
 11
2.965160
 21
7.096760
 12
3.012680
 22
6.364600
 13
3.008280
 23
7.109520
  0
POLYLINE
  8
0
  6
CONTINUOUS
 66
     1
 40
0.000000
 41
0.000000
  0
VERTEX
  8
0
  6
CONTINUOUS
 10
2.969560
 20
6.351840
  0
VERTEX
  8
0
  6
CONTINUOUS
 10
2.965160
 20
7.096760
  0
VERTEX
  8
0
  6
CONTINUOUS
 10
3.008280
 20
7.109520
  0
VERTEX
  8
0
  6
CONTINUOUS
 10
3.012680
 20
6.364600
  0
VERTEX
  8
0
  6
CONTINUOUS
 10
2.969560
 20
6.351840
  0
SEQEND
  8
0
  0
SOLID
  8
0
 62
    15
 10
3.012680
 20
6.364600
 11
3.008280
 21
7.109520
 12
3.056680
 22
6.369000
 13
3.052720
 23
7.113480
  0
POLYLINE
  8
0
  6
CONTINUOUS
 66
     1
 40
0.000000
 41
0.000000
  0
VERTEX
  8
0
  6
CONTINUOUS
 10
3.012680
 20
6.364600
  0
VERTEX
  8
0
  6
CONTINUOUS
 10
3.008280
 20
7.109520
  0
VERTEX
  8
0
  6
CONTINUOUS
 10
3.052720
 20
7.113480
  0
VERTEX
  8
0
  6
CONTINUOUS
 10
3.056680
 20
6.369000
  0
VERTEX
  8
0
  6
CONTINUOUS
 10
3.012680
 20
6.364600
  0
SEQEND
  8
0
  0
SOLID
  8
0
 62
    15
 10
3.056680
 20
6.369000
 11
3.052720
 21
7.113480
 12
3.100680
 22
6.365480
 13
3.096280
 23
7.109960
  0
POLYLINE
  8
0
  6
CONTINUOUS
 66
     1
 40
0.000000
 41
0.000000
  0
VERTEX
  8
0
  6
CONTINUOUS
 10
3.056680
 20
6.369000
  0
VERTEX
  8
0
  6
CONTINUOUS
 10
3.052720
 20
7.113480
  0
VERTEX
  8
0
  6
CONTINUOUS
 10
3.096280
 20
7.109960
  0
VERTEX
  8
0
  6
CONTINUOUS
 10
3.100680
 20
6.365480
  0
VERTEX
  8
0
  6
CONTINUOUS
 10
3.056680
 20
6.369000
  0
SEQEND
  8
0
  0
SOLID
  8
0
 62
    15
 10
3.100680
 20
6.365480
 11
3.096280
 21
7.109960
 12
3.143800
 22
6.354920
 13
3.139400
 23
7.099840
  0
POLYLINE
  8
0
  6
CONTINUOUS
 66
     1
 40
0.000000
 41
0.000000
  0
VERTEX
  8
0
  6
CONTINUOUS
 10
3.100680
 20
6.365480
  0
VERTEX
  8
0
  6
CONTINUOUS
 10
3.096280
 20
7.109960
  0
VERTEX
  8
0
  6
CONTINUOUS
 10
3.139400
 20
7.099840
  0
VERTEX
  8
0
  6
CONTINUOUS
 10
3.143800
 20
6.354920
  0
VERTEX
  8
0
  6
CONTINUOUS
 10
3.100680
 20
6.365480
  0
SEQEND
  8
0
  0
SOLID
  8
0
 62
    15
 10
3.143800
 20
6.354920
 11
3.139400
 21
7.099840
 12
3.184720
 22
6.338640
 13
3.180320
 23
7.083120
  0
POLYLINE
  8
0
  6
CONTINUOUS
 66
     1
 40
0.000000
 41
0.000000
  0
VERTEX
  8
0
  6
CONTINUOUS
 10
3.143800
 20
6.354920
  0
VERTEX
  8
0
  6
CONTINUOUS
 10
3.139400
 20
7.099840
  0
VERTEX
  8
0
  6
CONTINUOUS
 10
3.180320
 20
7.083120
  0
VERTEX
  8
0
  6
CONTINUOUS
 10
3.184720
 20
6.338640
  0
VERTEX
  8
0
  6
CONTINUOUS
 10
3.143800
 20
6.354920
  0
SEQEND
  8
0
  0
SOLID
  8
0
 62
    15
 10
3.184720
 20
6.338640
 11
3.180320
 21
7.083120
 12
3.223440
 22
6.316640
 13
3.219040
 23
7.061560
  0
POLYLINE
  8
0
  6
CONTINUOUS
 66
     1
 40
0.000000
 41
0.000000
  0
VERTEX
  8
0
  6
CONTINUOUS
 10
3.184720
 20
6.338640
  0
VERTEX
  8
0
  6
CONTINUOUS
 10
3.180320
 20
7.083120
  0
VERTEX
  8
0
  6
CONTINUOUS
 10
3.219040
 20
7.061560
  0
VERTEX
  8
0
  6
CONTINUOUS
 10
3.223440
 20
6.316640
  0
VERTEX
  8
0
  6
CONTINUOUS
 10
3.184720
 20
6.338640
  0
SEQEND
  8
0
  0
SOLID
  8
0
 62
    15
 10
3.223440
 20
6.316640
 11
3.219040
 21
7.061560
 12
3.258200
 22
6.290680
 13
3.253800
 23
7.035160
  0
POLYLINE
  8
0
  6
CONTINUOUS
 66
     1
 40
0.000000
 41
0.000000
  0
VERTEX
  8
0
  6
CONTINUOUS
 10
3.223440
 20
6.316640
  0
VERTEX
  8
0
  6
CONTINUOUS
 10
3.219040
 20
7.061560
  0
VERTEX
  8
0
  6
CONTINUOUS
 10
3.253800
 20
7.035160
  0
VERTEX
  8
0
  6
CONTINUOUS
 10
3.258200
 20
6.290680
  0
VERTEX
  8
0
  6
CONTINUOUS
 10
3.223440
 20
6.316640
  0
SEQEND
  8
0
  0
SOLID
  8
0
 62
    15
 10
3.258200
 20
6.290680
 11
3.253800
 21
7.035160
 12
3.289000
 22
6.260320
 13
3.284600
 23
7.005240
  0
POLYLINE
  8
0
  6
CONTINUOUS
 66
     1
 40
0.000000
 41
0.000000
  0
VERTEX
  8
0
  6
CONTINUOUS
 10
3.258200
 20
6.290680
  0
VERTEX
  8
0
  6
CONTINUOUS
 10
3.253800
 20
7.035160
  0
VERTEX
  8
0
  6
CONTINUOUS
 10
3.284600
 20
7.005240
  0
VERTEX
  8
0
  6
CONTINUOUS
 10
3.289000
 20
6.260320
  0
VERTEX
  8
0
  6
CONTINUOUS
 10
3.258200
 20
6.290680
  0
SEQEND
  8
0
  0
SOLID
  8
0
 62
    15
 10
3.289000
 20
6.260320
 11
3.284600
 21
7.005240
 12
3.314520
 22
6.227320
 13
3.310120
 23
6.971800
  0
POLYLINE
  8
0
  6
CONTINUOUS
 66
     1
 40
0.000000
 41
0.000000
  0
VERTEX
  8
0
  6
CONTINUOUS
 10
3.289000
 20
6.260320
  0
VERTEX
  8
0
  6
CONTINUOUS
 10
3.284600
 20
7.005240
  0
VERTEX
  8
0
  6
CONTINUOUS
 10
3.310120
 20
6.971800
  0
VERTEX
  8
0
  6
CONTINUOUS
 10
3.314520
 20
6.227320
  0
VERTEX
  8
0
  6
CONTINUOUS
 10
3.289000
 20
6.260320
  0
SEQEND
  8
0
  0
SOLID
  8
0
 62
    15
 10
3.314520
 20
6.227320
 11
3.310120
 21
6.971800
 12
3.333880
 22
6.191680
 13
3.329480
 23
6.936600
  0
POLYLINE
  8
0
  6
CONTINUOUS
 66
     1
 40
0.000000
 41
0.000000
  0
VERTEX
  8
0
  6
CONTINUOUS
 10
3.314520
 20
6.227320
  0
VERTEX
  8
0
  6
CONTINUOUS
 10
3.310120
 20
6.971800
  0
VERTEX
  8
0
  6
CONTINUOUS
 10
3.329480
 20
6.936600
  0
VERTEX
  8
0
  6
CONTINUOUS
 10
3.333880
 20
6.191680
  0
VERTEX
  8
0
  6
CONTINUOUS
 10
3.314520
 20
6.227320
  0
SEQEND
  8
0
  0
SOLID
  8
0
 62
    15
 10
3.333880
 20
6.191680
 11
3.329480
 21
6.936600
 12
3.346640
 22
6.155160
 13
3.342240
 23
6.899640
  0
POLYLINE
  8
0
  6
CONTINUOUS
 66
     1
 40
0.000000
 41
0.000000
  0
VERTEX
  8
0
  6
CONTINUOUS
 10
3.333880
 20
6.191680
  0
VERTEX
  8
0
  6
CONTINUOUS
 10
3.329480
 20
6.936600
  0
VERTEX
  8
0
  6
CONTINUOUS
 10
3.342240
 20
6.899640
  0
VERTEX
  8
0
  6
CONTINUOUS
 10
3.346640
 20
6.155160
  0
VERTEX
  8
0
  6
CONTINUOUS
 10
3.333880
 20
6.191680
  0
SEQEND
  8
0
  0
SOLID
  8
0
 62
    15
 10
3.346640
 20
6.155160
 11
3.342240
 21
6.899640
 12
3.351920
 22
6.117320
 13
3.347520
 23
6.862240
  0
POLYLINE
  8
0
  6
CONTINUOUS
 66
     1
 40
0.000000
 41
0.000000
  0
VERTEX
  8
0
  6
CONTINUOUS
 10
3.346640
 20
6.155160
  0
VERTEX
  8
0
  6
CONTINUOUS
 10
3.342240
 20
6.899640
  0
VERTEX
  8
0
  6
CONTINUOUS
 10
3.347520
 20
6.862240
  0
VERTEX
  8
0
  6
CONTINUOUS
 10
3.351920
 20
6.117320
  0
VERTEX
  8
0
  6
CONTINUOUS
 10
3.346640
 20
6.155160
  0
SEQEND
  8
0
  0
SOLID
  8
0
 62
    15
 10
3.351920
 20
6.117320
 11
3.347520
 21
6.862240
 12
3.369520
 22
6.106320
 13
3.365120
 23
6.851240
  0
POLYLINE
  8
0
  6
CONTINUOUS
 66
     1
 40
0.000000
 41
0.000000
  0
VERTEX
  8
0
  6
CONTINUOUS
 10
3.351920
 20
6.117320
  0
VERTEX
  8
0
  6
CONTINUOUS
 10
3.347520
 20
6.862240
  0
VERTEX
  8
0
  6
CONTINUOUS
 10
3.365120
 20
6.851240
  0
VERTEX
  8
0
  6
CONTINUOUS
 10
3.369520
 20
6.106320
  0
VERTEX
  8
0
  6
CONTINUOUS
 10
3.351920
 20
6.117320
  0
SEQEND
  8
0
  0
SOLID
  8
0
 62
    15
 10
3.369520
 20
6.106320
 11
3.365120
 21
6.851240
 12
3.389320
 22
6.129200
 13
3.385360
 23
6.874120
  0
POLYLINE
  8
0
  6
CONTINUOUS
 66
     1
 40
0.000000
 41
0.000000
  0
VERTEX
  8
0
  6
CONTINUOUS
 10
3.369520
 20
6.106320
  0
VERTEX
  8
0
  6
CONTINUOUS
 10
3.365120
 20
6.851240
  0
VERTEX
  8
0
  6
CONTINUOUS
 10
3.385360
 20
6.874120
  0
VERTEX
  8
0
  6
CONTINUOUS
 10
3.389320
 20
6.129200
  0
VERTEX
  8
0
  6
CONTINUOUS
 10
3.369520
 20
6.106320
  0
SEQEND
  8
0
  0
SOLID
  8
0
 62
    15
 10
3.389320
 20
6.129200
 11
3.385360
 21
6.874120
 12
3.415280
 22
6.143720
 13
3.411320
 23
6.888640
  0
POLYLINE
  8
0
  6
CONTINUOUS
 66
     1
 40
0.000000
 41
0.000000
  0
VERTEX
  8
0
  6
CONTINUOUS
 10
3.389320
 20
6.129200
  0
VERTEX
  8
0
  6
CONTINUOUS
 10
3.385360
 20
6.874120
  0
VERTEX
  8
0
  6
CONTINUOUS
 10
3.411320
 20
6.888640
  0
VERTEX
  8
0
  6
CONTINUOUS
 10
3.415280
 20
6.143720
  0
VERTEX
  8
0
  6
CONTINUOUS
 10
3.389320
 20
6.129200
  0
SEQEND
  8
0
  0
SOLID
  8
0
 62
    15
 10
3.415280
 20
6.143720
 11
3.411320
 21
6.888640
 12
3.445200
 22
6.149440
 13
3.440800
 23
6.894360
  0
POLYLINE
  8
0
  6
CONTINUOUS
 66
     1
 40
0.000000
 41
0.000000
  0
VERTEX
  8
0
  6
CONTINUOUS
 10
3.415280
 20
6.143720
  0
VERTEX
  8
0
  6
CONTINUOUS
 10
3.411320
 20
6.888640
  0
VERTEX
  8
0
  6
CONTINUOUS
 10
3.440800
 20
6.894360
  0
VERTEX
  8
0
  6
CONTINUOUS
 10
3.445200
 20
6.149440
  0
VERTEX
  8
0
  6
CONTINUOUS
 10
3.415280
 20
6.143720
  0
SEQEND
  8
0
  0
SOLID
  8
0
 62
    15
 10
3.445200
 20
6.149440
 11
3.440800
 21
6.894360
 12
3.477320
 22
6.146360
 13
3.472920
 23
6.891280
  0
POLYLINE
  8
0
  6
CONTINUOUS
 66
     1
 40
0.000000
 41
0.000000
  0
VERTEX
  8
0
  6
CONTINUOUS
 10
3.445200
 20
6.149440
  0
VERTEX
  8
0
  6
CONTINUOUS
 10
3.440800
 20
6.894360
  0
VERTEX
  8
0
  6
CONTINUOUS
 10
3.472920
 20
6.891280
  0
VERTEX
  8
0
  6
CONTINUOUS
 10
3.477320
 20
6.146360
  0
VERTEX
  8
0
  6
CONTINUOUS
 10
3.445200
 20
6.149440
  0
SEQEND
  8
0
  0
SOLID
  8
0
 62
    15
 10
3.477320
 20
6.146360
 11
3.472920
 21
6.891280
 12
3.509000
 22
6.133600
 13
3.504600
 23
6.878520
  0
POLYLINE
  8
0
  6
CONTINUOUS
 66
     1
 40
0.000000
 41
0.000000
  0
VERTEX
  8
0
  6
CONTINUOUS
 10
3.477320
 20
6.146360
  0
VERTEX
  8
0
  6
CONTINUOUS
 10
3.472920
 20
6.891280
  0
VERTEX
  8
0
  6
CONTINUOUS
 10
3.504600
 20
6.878520
  0
VERTEX
  8
0
  6
CONTINUOUS
 10
3.509000
 20
6.133600
  0
VERTEX
  8
0
  6
CONTINUOUS
 10
3.477320
 20
6.146360
  0
SEQEND
  8
0
  0
SOLID
  8
0
 62
    15
 10
3.509000
 20
6.133600
 11
3.504600
 21
6.878520
 12
3.538920
 22
6.111600
 13
3.534520
 23
6.856520
  0
POLYLINE
  8
0
  6
CONTINUOUS
 66
     1
 40
0.000000
 41
0.000000
  0
VERTEX
  8
0
  6
CONTINUOUS
 10
3.509000
 20
6.133600
  0
VERTEX
  8
0
  6
CONTINUOUS
 10
3.504600
 20
6.878520
  0
VERTEX
  8
0
  6
CONTINUOUS
 10
3.534520
 20
6.856520
  0
VERTEX
  8
0
  6
CONTINUOUS
 10
3.538920
 20
6.111600
  0
VERTEX
  8
0
  6
CONTINUOUS
 10
3.509000
 20
6.133600
  0
SEQEND
  8
0
  0
SOLID
  8
0
 62
    15
 10
3.538920
 20
6.111600
 11
3.534520
 21
6.856520
 12
3.565320
 22
6.079920
 13
3.560920
 23
6.824400
  0
POLYLINE
  8
0
  6
CONTINUOUS
 66
     1
 40
0.000000
 41
0.000000
  0
VERTEX
  8
0
  6
CONTINUOUS
 10
3.538920
 20
6.111600
  0
VERTEX
  8
0
  6
CONTINUOUS
 10
3.534520
 20
6.856520
  0
VERTEX
  8
0
  6
CONTINUOUS
 10
3.560920
 20
6.824400
  0
VERTEX
  8
0
  6
CONTINUOUS
 10
3.565320
 20
6.079920
  0
VERTEX
  8
0
  6
CONTINUOUS
 10
3.538920
 20
6.111600
  0
SEQEND
  8
0
  0
SOLID
  8
0
 62
    15
 10
3.565320
 20
6.079920
 11
3.560920
 21
6.824400
 12
3.585560
 22
6.037680
 13
3.581160
 23
6.782600
  0
POLYLINE
  8
0
  6
CONTINUOUS
 66
     1
 40
0.000000
 41
0.000000
  0
VERTEX
  8
0
  6
CONTINUOUS
 10
3.565320
 20
6.079920
  0
VERTEX
  8
0
  6
CONTINUOUS
 10
3.560920
 20
6.824400
  0
VERTEX
  8
0
  6
CONTINUOUS
 10
3.581160
 20
6.782600
  0
VERTEX
  8
0
  6
CONTINUOUS
 10
3.585560
 20
6.037680
  0
VERTEX
  8
0
  6
CONTINUOUS
 10
3.565320
 20
6.079920
  0
SEQEND
  8
0
  0
SOLID
  8
0
 62
    15
 10
3.585560
 20
6.037680
 11
3.581160
 21
6.782600
 12
3.806440
 22
5.998520
 13
3.802040
 23
6.743440
  0
POLYLINE
  8
0
  6
CONTINUOUS
 66
     1
 40
0.000000
 41
0.000000
  0
VERTEX
  8
0
  6
CONTINUOUS
 10
3.585560
 20
6.037680
  0
VERTEX
  8
0
  6
CONTINUOUS
 10
3.581160
 20
6.782600
  0
VERTEX
  8
0
  6
CONTINUOUS
 10
3.802040
 20
6.743440
  0
VERTEX
  8
0
  6
CONTINUOUS
 10
3.806440
 20
5.998520
  0
VERTEX
  8
0
  6
CONTINUOUS
 10
3.585560
 20
6.037680
  0
SEQEND
  8
0
  0
SOLID
  8
0
 62
    15
 10
3.806440
 20
5.998520
 11
3.802040
 21
6.743440
 12
3.817880
 22
6.030640
 13
3.813480
 23
6.775120
  0
POLYLINE
  8
0
  6
CONTINUOUS
 66
     1
 40
0.000000
 41
0.000000
  0
VERTEX
  8
0
  6
CONTINUOUS
 10
3.806440
 20
5.998520
  0
VERTEX
  8
0
  6
CONTINUOUS
 10
3.802040
 20
6.743440
  0
VERTEX
  8
0
  6
CONTINUOUS
 10
3.813480
 20
6.775120
  0
VERTEX
  8
0
  6
CONTINUOUS
 10
3.817880
 20
6.030640
  0
VERTEX
  8
0
  6
CONTINUOUS
 10
3.806440
 20
5.998520
  0
SEQEND
  8
0
  0
SOLID
  8
0
 62
    15
 10
3.817880
 20
6.030640
 11
3.813480
 21
6.775120
 12
3.834160
 22
6.059680
 13
3.829760
 23
6.804160
  0
POLYLINE
  8
0
  6
CONTINUOUS
 66
     1
 40
0.000000
 41
0.000000
  0
VERTEX
  8
0
  6
CONTINUOUS
 10
3.817880
 20
6.030640
  0
VERTEX
  8
0
  6
CONTINUOUS
 10
3.813480
 20
6.775120
  0
VERTEX
  8
0
  6
CONTINUOUS
 10
3.829760
 20
6.804160
  0
VERTEX
  8
0
  6
CONTINUOUS
 10
3.834160
 20
6.059680
  0
VERTEX
  8
0
  6
CONTINUOUS
 10
3.817880
 20
6.030640
  0
SEQEND
  8
0
  0
SOLID
  8
0
 62
    15
 10
3.834160
 20
6.059680
 11
3.829760
 21
6.804160
 12
3.854400
 22
6.085200
 13
3.850000
 23
6.830120
  0
POLYLINE
  8
0
  6
CONTINUOUS
 66
     1
 40
0.000000
 41
0.000000
  0
VERTEX
  8
0
  6
CONTINUOUS
 10
3.834160
 20
6.059680
  0
VERTEX
  8
0
  6
CONTINUOUS
 10
3.829760
 20
6.804160
  0
VERTEX
  8
0
  6
CONTINUOUS
 10
3.850000
 20
6.830120
  0
VERTEX
  8
0
  6
CONTINUOUS
 10
3.854400
 20
6.085200
  0
VERTEX
  8
0
  6
CONTINUOUS
 10
3.834160
 20
6.059680
  0
SEQEND
  8
0
  0
SOLID
  8
0
 62
    15
 10
3.854400
 20
6.085200
 11
3.850000
 21
6.830120
 12
3.878600
 22
6.107200
 13
3.874200
 23
6.852120
  0
POLYLINE
  8
0
  6
CONTINUOUS
 66
     1
 40
0.000000
 41
0.000000
  0
VERTEX
  8
0
  6
CONTINUOUS
 10
3.854400
 20
6.085200
  0
VERTEX
  8
0
  6
CONTINUOUS
 10
3.850000
 20
6.830120
  0
VERTEX
  8
0
  6
CONTINUOUS
 10
3.874200
 20
6.852120
  0
VERTEX
  8
0
  6
CONTINUOUS
 10
3.878600
 20
6.107200
  0
VERTEX
  8
0
  6
CONTINUOUS
 10
3.854400
 20
6.085200
  0
SEQEND
  8
0
  0
SOLID
  8
0
 62
    15
 10
3.878600
 20
6.107200
 11
3.874200
 21
6.852120
 12
3.906320
 22
6.125240
 13
3.901920
 23
6.870160
  0
POLYLINE
  8
0
  6
CONTINUOUS
 66
     1
 40
0.000000
 41
0.000000
  0
VERTEX
  8
0
  6
CONTINUOUS
 10
3.878600
 20
6.107200
  0
VERTEX
  8
0
  6
CONTINUOUS
 10
3.874200
 20
6.852120
  0
VERTEX
  8
0
  6
CONTINUOUS
 10
3.901920
 20
6.870160
  0
VERTEX
  8
0
  6
CONTINUOUS
 10
3.906320
 20
6.125240
  0
VERTEX
  8
0
  6
CONTINUOUS
 10
3.878600
 20
6.107200
  0
SEQEND
  8
0
  0
SOLID
  8
0
 62
    15
 10
3.906320
 20
6.125240
 11
3.901920
 21
6.870160
 12
3.936240
 22
6.138440
 13
3.931840
 23
6.883360
  0
POLYLINE
  8
0
  6
CONTINUOUS
 66
     1
 40
0.000000
 41
0.000000
  0
VERTEX
  8
0
  6
CONTINUOUS
 10
3.906320
 20
6.125240
  0
VERTEX
  8
0
  6
CONTINUOUS
 10
3.901920
 20
6.870160
  0
VERTEX
  8
0
  6
CONTINUOUS
 10
3.931840
 20
6.883360
  0
VERTEX
  8
0
  6
CONTINUOUS
 10
3.936240
 20
6.138440
  0
VERTEX
  8
0
  6
CONTINUOUS
 10
3.906320
 20
6.125240
  0
SEQEND
  8
0
  0
SOLID
  8
0
 62
    15
 10
2.267320
 20
6.380880
 11
2.262920
 21
7.125360
 12
2.791360
 22
6.380880
 13
2.787400
 23
7.125360
  0
POLYLINE
  8
0
  6
CONTINUOUS
 66
     1
 40
0.000000
 41
0.000000
  0
VERTEX
  8
0
  6
CONTINUOUS
 10
2.267320
 20
6.380880
  0
VERTEX
  8
0
  6
CONTINUOUS
 10
2.262920
 20
7.125360
  0
VERTEX
  8
0
  6
CONTINUOUS
 10
2.787400
 20
7.125360
  0
VERTEX
  8
0
  6
CONTINUOUS
 10
2.791360
 20
6.380880
  0
VERTEX
  8
0
  6
CONTINUOUS
 10
2.267320
 20
6.380880
  0
SEQEND
  8
0
  0
SOLID
  8
0
 62
    15
 10
3.968800
 20
6.146800
 11
3.964400
 21
6.891720
 12
4.002680
 22
6.149440
 13
3.998280
 23
6.894360
  0
POLYLINE
  8
0
  6
CONTINUOUS
 66
     1
 40
0.000000
 41
0.000000
  0
VERTEX
  8
0
  6
CONTINUOUS
 10
3.968800
 20
6.146800
  0
VERTEX
  8
0
  6
CONTINUOUS
 10
3.964400
 20
6.891720
  0
VERTEX
  8
0
  6
CONTINUOUS
 10
3.998280
 20
6.894360
  0
VERTEX
  8
0
  6
CONTINUOUS
 10
4.002680
 20
6.149440
  0
VERTEX
  8
0
  6
CONTINUOUS
 10
3.968800
 20
6.146800
  0
SEQEND
  8
0
  0
SOLID
  8
0
 62
    15
 10
4.002680
 20
6.149440
 11
3.998280
 21
6.894360
 12
4.042280
 22
6.145920
 13
4.037880
 23
6.890400
  0
POLYLINE
  8
0
  6
CONTINUOUS
 66
     1
 40
0.000000
 41
0.000000
  0
VERTEX
  8
0
  6
CONTINUOUS
 10
4.002680
 20
6.149440
  0
VERTEX
  8
0
  6
CONTINUOUS
 10
3.998280
 20
6.894360
  0
VERTEX
  8
0
  6
CONTINUOUS
 10
4.037880
 20
6.890400
  0
VERTEX
  8
0
  6
CONTINUOUS
 10
4.042280
 20
6.145920
  0
VERTEX
  8
0
  6
CONTINUOUS
 10
4.002680
 20
6.149440
  0
SEQEND
  8
0
  0
SOLID
  8
0
 62
    15
 10
4.042280
 20
6.145920
 11
4.037880
 21
6.890400
 12
4.078800
 22
6.134920
 13
4.074400
 23
6.879400
  0
POLYLINE
  8
0
  6
CONTINUOUS
 66
     1
 40
0.000000
 41
0.000000
  0
VERTEX
  8
0
  6
CONTINUOUS
 10
4.042280
 20
6.145920
  0
VERTEX
  8
0
  6
CONTINUOUS
 10
4.037880
 20
6.890400
  0
VERTEX
  8
0
  6
CONTINUOUS
 10
4.074400
 20
6.879400
  0
VERTEX
  8
0
  6
CONTINUOUS
 10
4.078800
 20
6.134920
  0
VERTEX
  8
0
  6
CONTINUOUS
 10
4.042280
 20
6.145920
  0
SEQEND
  8
0
  0
SOLID
  8
0
 62
    15
 10
4.078800
 20
6.134920
 11
4.074400
 21
6.879400
 12
4.111800
 22
6.117320
 13
4.107840
 23
6.862240
  0
POLYLINE
  8
0
  6
CONTINUOUS
 66
     1
 40
0.000000
 41
0.000000
  0
VERTEX
  8
0
  6
CONTINUOUS
 10
4.078800
 20
6.134920
  0
VERTEX
  8
0
  6
CONTINUOUS
 10
4.074400
 20
6.879400
  0
VERTEX
  8
0
  6
CONTINUOUS
 10
4.107840
 20
6.862240
  0
VERTEX
  8
0
  6
CONTINUOUS
 10
4.111800
 20
6.117320
  0
VERTEX
  8
0
  6
CONTINUOUS
 10
4.078800
 20
6.134920
  0
SEQEND
  8
0
  0
SOLID
  8
0
 62
    15
 10
4.111800
 20
6.117320
 11
4.107840
 21
6.862240
 12
4.140840
 22
6.094440
 13
4.136440
 23
6.838920
  0
POLYLINE
  8
0
  6
CONTINUOUS
 66
     1
 40
0.000000
 41
0.000000
  0
VERTEX
  8
0
  6
CONTINUOUS
 10
4.111800
 20
6.117320
  0
VERTEX
  8
0
  6
CONTINUOUS
 10
4.107840
 20
6.862240
  0
VERTEX
  8
0
  6
CONTINUOUS
 10
4.136440
 20
6.838920
  0
VERTEX
  8
0
  6
CONTINUOUS
 10
4.140840
 20
6.094440
  0
VERTEX
  8
0
  6
CONTINUOUS
 10
4.111800
 20
6.117320
  0
SEQEND
  8
0
  0
SOLID
  8
0
 62
    15
 10
4.140840
 20
6.094440
 11
4.136440
 21
6.838920
 12
4.165040
 22
6.066280
 13
4.160640
 23
6.811200
  0
POLYLINE
  8
0
  6
CONTINUOUS
 66
     1
 40
0.000000
 41
0.000000
  0
VERTEX
  8
0
  6
CONTINUOUS
 10
4.140840
 20
6.094440
  0
VERTEX
  8
0
  6
CONTINUOUS
 10
4.136440
 20
6.838920
  0
VERTEX
  8
0
  6
CONTINUOUS
 10
4.160640
 20
6.811200
  0
VERTEX
  8
0
  6
CONTINUOUS
 10
4.165040
 20
6.066280
  0
VERTEX
  8
0
  6
CONTINUOUS
 10
4.140840
 20
6.094440
  0
SEQEND
  8
0
  0
SOLID
  8
0
 62
    15
 10
4.165040
 20
6.066280
 11
4.160640
 21
6.811200
 12
4.184400
 22
6.034160
 13
4.180000
 23
6.778640
  0
POLYLINE
  8
0
  6
CONTINUOUS
 66
     1
 40
0.000000
 41
0.000000
  0
VERTEX
  8
0
  6
CONTINUOUS
 10
4.165040
 20
6.066280
  0
VERTEX
  8
0
  6
CONTINUOUS
 10
4.160640
 20
6.811200
  0
VERTEX
  8
0
  6
CONTINUOUS
 10
4.180000
 20
6.778640
  0
VERTEX
  8
0
  6
CONTINUOUS
 10
4.184400
 20
6.034160
  0
VERTEX
  8
0
  6
CONTINUOUS
 10
4.165040
 20
6.066280
  0
SEQEND
  8
0
  0
SOLID
  8
0
 62
    15
 10
4.184400
 20
6.034160
 11
4.180000
 21
6.778640
 12
4.197600
 22
5.998520
 13
4.193200
 23
6.743000
  0
POLYLINE
  8
0
  6
CONTINUOUS
 66
     1
 40
0.000000
 41
0.000000
  0
VERTEX
  8
0
  6
CONTINUOUS
 10
4.184400
 20
6.034160
  0
VERTEX
  8
0
  6
CONTINUOUS
 10
4.180000
 20
6.778640
  0
VERTEX
  8
0
  6
CONTINUOUS
 10
4.193200
 20
6.743000
  0
VERTEX
  8
0
  6
CONTINUOUS
 10
4.197600
 20
5.998520
  0
VERTEX
  8
0
  6
CONTINUOUS
 10
4.184400
 20
6.034160
  0
SEQEND
  8
0
  0
SOLID
  8
0
 62
    15
 10
4.197600
 20
5.998520
 11
4.193200
 21
6.743000
 12
4.204640
 22
5.959800
 13
4.200680
 23
6.704720
  0
POLYLINE
  8
0
  6
CONTINUOUS
 66
     1
 40
0.000000
 41
0.000000
  0
VERTEX
  8
0
  6
CONTINUOUS
 10
4.197600
 20
5.998520
  0
VERTEX
  8
0
  6
CONTINUOUS
 10
4.193200
 20
6.743000
  0
VERTEX
  8
0
  6
CONTINUOUS
 10
4.200680
 20
6.704720
  0
VERTEX
  8
0
  6
CONTINUOUS
 10
4.204640
 20
5.959800
  0
VERTEX
  8
0
  6
CONTINUOUS
 10
4.197600
 20
5.998520
  0
SEQEND
  8
0
  0
SOLID
  8
0
 62
    15
 10
4.204640
 20
5.959800
 11
4.200680
 21
6.704720
 12
5.597680
 22
5.959800
 13
5.593280
 23
6.704720
  0
POLYLINE
  8
0
  6
CONTINUOUS
 66
     1
 40
0.000000
 41
0.000000
  0
VERTEX
  8
0
  6
CONTINUOUS
 10
4.204640
 20
5.959800
  0
VERTEX
  8
0
  6
CONTINUOUS
 10
4.200680
 20
6.704720
  0
VERTEX
  8
0
  6
CONTINUOUS
 10
5.593280
 20
6.704720
  0
VERTEX
  8
0
  6
CONTINUOUS
 10
5.597680
 20
5.959800
  0
VERTEX
  8
0
  6
CONTINUOUS
 10
4.204640
 20
5.959800
  0
SEQEND
  8
0
  0
SOLID
  8
0
 62
    15
 10
5.597680
 20
5.959800
 11
5.593280
 21
6.704720
 12
5.602960
 22
5.987960
 13
5.598560
 23
6.732440
  0
POLYLINE
  8
0
  6
CONTINUOUS
 66
     1
 40
0.000000
 41
0.000000
  0
VERTEX
  8
0
  6
CONTINUOUS
 10
5.597680
 20
5.959800
  0
VERTEX
  8
0
  6
CONTINUOUS
 10
5.593280
 20
6.704720
  0
VERTEX
  8
0
  6
CONTINUOUS
 10
5.598560
 20
6.732440
  0
VERTEX
  8
0
  6
CONTINUOUS
 10
5.602960
 20
5.987960
  0
VERTEX
  8
0
  6
CONTINUOUS
 10
5.597680
 20
5.959800
  0
SEQEND
  8
0
  0
SOLID
  8
0
 62
    15
 10
5.602960
 20
5.987960
 11
5.598560
 21
6.732440
 12
5.612640
 22
6.012160
 13
5.608240
 23
6.757080
  0
POLYLINE
  8
0
  6
CONTINUOUS
 66
     1
 40
0.000000
 41
0.000000
  0
VERTEX
  8
0
  6
CONTINUOUS
 10
5.602960
 20
5.987960
  0
VERTEX
  8
0
  6
CONTINUOUS
 10
5.598560
 20
6.732440
  0
VERTEX
  8
0
  6
CONTINUOUS
 10
5.608240
 20
6.757080
  0
VERTEX
  8
0
  6
CONTINUOUS
 10
5.612640
 20
6.012160
  0
VERTEX
  8
0
  6
CONTINUOUS
 10
5.602960
 20
5.987960
  0
SEQEND
  8
0
  0
SOLID
  8
0
 62
    15
 10
5.612640
 20
6.012160
 11
5.608240
 21
6.757080
 12
5.625840
 22
6.032840
 13
5.621440
 23
6.777760
  0
POLYLINE
  8
0
  6
CONTINUOUS
 66
     1
 40
0.000000
 41
0.000000
  0
VERTEX
  8
0
  6
CONTINUOUS
 10
5.612640
 20
6.012160
  0
VERTEX
  8
0
  6
CONTINUOUS
 10
5.608240
 20
6.757080
  0
VERTEX
  8
0
  6
CONTINUOUS
 10
5.621440
 20
6.777760
  0
VERTEX
  8
0
  6
CONTINUOUS
 10
5.625840
 20
6.032840
  0
VERTEX
  8
0
  6
CONTINUOUS
 10
5.612640
 20
6.012160
  0
SEQEND
  8
0
  0
SOLID
  8
0
 62
    15
 10
5.625840
 20
6.032840
 11
5.621440
 21
6.777760
 12
5.642560
 22
6.049560
 13
5.638160
 23
6.794480
  0
POLYLINE
  8
0
  6
CONTINUOUS
 66
     1
 40
0.000000
 41
0.000000
  0
VERTEX
  8
0
  6
CONTINUOUS
 10
5.625840
 20
6.032840
  0
VERTEX
  8
0
  6
CONTINUOUS
 10
5.621440
 20
6.777760
  0
VERTEX
  8
0
  6
CONTINUOUS
 10
5.638160
 20
6.794480
  0
VERTEX
  8
0
  6
CONTINUOUS
 10
5.642560
 20
6.049560
  0
VERTEX
  8
0
  6
CONTINUOUS
 10
5.625840
 20
6.032840
  0
SEQEND
  8
0
  0
SOLID
  8
0
 62
    15
 10
5.642560
 20
6.049560
 11
5.638160
 21
6.794480
 12
5.661920
 22
6.062760
 13
5.657520
 23
6.807680
  0
POLYLINE
  8
0
  6
CONTINUOUS
 66
     1
 40
0.000000
 41
0.000000
  0
VERTEX
  8
0
  6
CONTINUOUS
 10
5.642560
 20
6.049560
  0
VERTEX
  8
0
  6
CONTINUOUS
 10
5.638160
 20
6.794480
  0
VERTEX
  8
0
  6
CONTINUOUS
 10
5.657520
 20
6.807680
  0
VERTEX
  8
0
  6
CONTINUOUS
 10
5.661920
 20
6.062760
  0
VERTEX
  8
0
  6
CONTINUOUS
 10
5.642560
 20
6.049560
  0
SEQEND
  8
0
  0
SOLID
  8
0
 62
    15
 10
5.661920
 20
6.062760
 11
5.657520
 21
6.807680
 12
5.682600
 22
6.072440
 13
5.678640
 23
6.816920
  0
POLYLINE
  8
0
  6
CONTINUOUS
 66
     1
 40
0.000000
 41
0.000000
  0
VERTEX
  8
0
  6
CONTINUOUS
 10
5.661920
 20
6.062760
  0
VERTEX
  8
0
  6
CONTINUOUS
 10
5.657520
 20
6.807680
  0
VERTEX
  8
0
  6
CONTINUOUS
 10
5.678640
 20
6.816920
  0
VERTEX
  8
0
  6
CONTINUOUS
 10
5.682600
 20
6.072440
  0
VERTEX
  8
0
  6
CONTINUOUS
 10
5.661920
 20
6.062760
  0
SEQEND
  8
0
  0
SOLID
  8
0
 62
    15
 10
5.682600
 20
6.072440
 11
5.678640
 21
6.816920
 12
5.705040
 22
6.077720
 13
5.700640
 23
6.822640
  0
POLYLINE
  8
0
  6
CONTINUOUS
 66
     1
 40
0.000000
 41
0.000000
  0
VERTEX
  8
0
  6
CONTINUOUS
 10
5.682600
 20
6.072440
  0
VERTEX
  8
0
  6
CONTINUOUS
 10
5.678640
 20
6.816920
  0
VERTEX
  8
0
  6
CONTINUOUS
 10
5.700640
 20
6.822640
  0
VERTEX
  8
0
  6
CONTINUOUS
 10
5.705040
 20
6.077720
  0
VERTEX
  8
0
  6
CONTINUOUS
 10
5.682600
 20
6.072440
  0
SEQEND
  8
0
  0
SOLID
  8
0
 62
    15
 10
5.705040
 20
6.077720
 11
5.700640
 21
6.822640
 12
5.727920
 22
6.079480
 13
5.723520
 23
6.823960
  0
POLYLINE
  8
0
  6
CONTINUOUS
 66
     1
 40
0.000000
 41
0.000000
  0
VERTEX
  8
0
  6
CONTINUOUS
 10
5.705040
 20
6.077720
  0
VERTEX
  8
0
  6
CONTINUOUS
 10
5.700640
 20
6.822640
  0
VERTEX
  8
0
  6
CONTINUOUS
 10
5.723520
 20
6.823960
  0
VERTEX
  8
0
  6
CONTINUOUS
 10
5.727920
 20
6.079480
  0
VERTEX
  8
0
  6
CONTINUOUS
 10
5.705040
 20
6.077720
  0
SEQEND
  8
0
  0
SOLID
  8
0
 62
    15
 10
5.727920
 20
6.079480
 11
5.723520
 21
6.823960
 12
5.750800
 22
6.076840
 13
5.746400
 23
6.821760
  0
POLYLINE
  8
0
  6
CONTINUOUS
 66
     1
 40
0.000000
 41
0.000000
  0
VERTEX
  8
0
  6
CONTINUOUS
 10
5.727920
 20
6.079480
  0
VERTEX
  8
0
  6
CONTINUOUS
 10
5.723520
 20
6.823960
  0
VERTEX
  8
0
  6
CONTINUOUS
 10
5.746400
 20
6.821760
  0
VERTEX
  8
0
  6
CONTINUOUS
 10
5.750800
 20
6.076840
  0
VERTEX
  8
0
  6
CONTINUOUS
 10
5.727920
 20
6.079480
  0
SEQEND
  8
0
  0
SOLID
  8
0
 62
    15
 10
5.750800
 20
6.076840
 11
5.746400
 21
6.821760
 12
5.772800
 22
6.070680
 13
5.768400
 23
6.815160
  0
POLYLINE
  8
0
  6
CONTINUOUS
 66
     1
 40
0.000000
 41
0.000000
  0
VERTEX
  8
0
  6
CONTINUOUS
 10
5.750800
 20
6.076840
  0
VERTEX
  8
0
  6
CONTINUOUS
 10
5.746400
 20
6.821760
  0
VERTEX
  8
0
  6
CONTINUOUS
 10
5.768400
 20
6.815160
  0
VERTEX
  8
0
  6
CONTINUOUS
 10
5.772800
 20
6.070680
  0
VERTEX
  8
0
  6
CONTINUOUS
 10
5.750800
 20
6.076840
  0
SEQEND
  8
0
  0
SOLID
  8
0
 62
    15
 10
5.772800
 20
6.070680
 11
5.768400
 21
6.815160
 12
5.793480
 22
6.060120
 13
5.789080
 23
6.805040
  0
POLYLINE
  8
0
  6
CONTINUOUS
 66
     1
 40
0.000000
 41
0.000000
  0
VERTEX
  8
0
  6
CONTINUOUS
 10
5.772800
 20
6.070680
  0
VERTEX
  8
0
  6
CONTINUOUS
 10
5.768400
 20
6.815160
  0
VERTEX
  8
0
  6
CONTINUOUS
 10
5.789080
 20
6.805040
  0
VERTEX
  8
0
  6
CONTINUOUS
 10
5.793480
 20
6.060120
  0
VERTEX
  8
0
  6
CONTINUOUS
 10
5.772800
 20
6.070680
  0
SEQEND
  8
0
  0
SOLID
  8
0
 62
    15
 10
5.793480
 20
6.060120
 11
5.789080
 21
6.805040
 12
5.812400
 22
6.045600
 13
5.808000
 23
6.790520
  0
POLYLINE
  8
0
  6
CONTINUOUS
 66
     1
 40
0.000000
 41
0.000000
  0
VERTEX
  8
0
  6
CONTINUOUS
 10
5.793480
 20
6.060120
  0
VERTEX
  8
0
  6
CONTINUOUS
 10
5.789080
 20
6.805040
  0
VERTEX
  8
0
  6
CONTINUOUS
 10
5.808000
 20
6.790520
  0
VERTEX
  8
0
  6
CONTINUOUS
 10
5.812400
 20
6.045600
  0
VERTEX
  8
0
  6
CONTINUOUS
 10
5.793480
 20
6.060120
  0
SEQEND
  8
0
  0
SOLID
  8
0
 62
    15
 10
5.812400
 20
6.045600
 11
5.808000
 21
6.790520
 12
5.828240
 22
6.027120
 13
5.823840
 23
6.772040
  0
POLYLINE
  8
0
  6
CONTINUOUS
 66
     1
 40
0.000000
 41
0.000000
  0
VERTEX
  8
0
  6
CONTINUOUS
 10
5.812400
 20
6.045600
  0
VERTEX
  8
0
  6
CONTINUOUS
 10
5.808000
 20
6.790520
  0
VERTEX
  8
0
  6
CONTINUOUS
 10
5.823840
 20
6.772040
  0
VERTEX
  8
0
  6
CONTINUOUS
 10
5.828240
 20
6.027120
  0
VERTEX
  8
0
  6
CONTINUOUS
 10
5.812400
 20
6.045600
  0
SEQEND
  8
0
  0
SOLID
  8
0
 62
    15
 10
5.828240
 20
6.027120
 11
5.823840
 21
6.772040
 12
5.841000
 22
6.004240
 13
5.837040
 23
6.749160
  0
POLYLINE
  8
0
  6
CONTINUOUS
 66
     1
 40
0.000000
 41
0.000000
  0
VERTEX
  8
0
  6
CONTINUOUS
 10
5.828240
 20
6.027120
  0
VERTEX
  8
0
  6
CONTINUOUS
 10
5.823840
 20
6.772040
  0
VERTEX
  8
0
  6
CONTINUOUS
 10
5.837040
 20
6.749160
  0
VERTEX
  8
0
  6
CONTINUOUS
 10
5.841000
 20
6.004240
  0
VERTEX
  8
0
  6
CONTINUOUS
 10
5.828240
 20
6.027120
  0
SEQEND
  8
0
  0
SOLID
  8
0
 62
    15
 10
5.916240
 20
5.946160
 11
5.911840
 21
6.690640
 12
5.924160
 22
5.898200
 13
5.919760
 23
6.642680
  0
POLYLINE
  8
0
  6
CONTINUOUS
 66
     1
 40
0.000000
 41
0.000000
  0
VERTEX
  8
0
  6
CONTINUOUS
 10
5.916240
 20
5.946160
  0
VERTEX
  8
0
  6
CONTINUOUS
 10
5.911840
 20
6.690640
  0
VERTEX
  8
0
  6
CONTINUOUS
 10
5.919760
 20
6.642680
  0
VERTEX
  8
0
  6
CONTINUOUS
 10
5.924160
 20
5.898200
  0
VERTEX
  8
0
  6
CONTINUOUS
 10
5.916240
 20
5.946160
  0
SEQEND
  8
0
  0
SOLID
  8
0
 62
    15
 10
5.854200
 20
5.946160
 11
5.850240
 21
6.690640
 12
5.916240
 22
5.946160
 13
5.911840
 23
6.690640
  0
POLYLINE
  8
0
  6
CONTINUOUS
 66
     1
 40
0.000000
 41
0.000000
  0
VERTEX
  8
0
  6
CONTINUOUS
 10
5.854200
 20
5.946160
  0
VERTEX
  8
0
  6
CONTINUOUS
 10
5.850240
 20
6.690640
  0
VERTEX
  8
0
  6
CONTINUOUS
 10
5.911840
 20
6.690640
  0
VERTEX
  8
0
  6
CONTINUOUS
 10
5.916240
 20
5.946160
  0
VERTEX
  8
0
  6
CONTINUOUS
 10
5.854200
 20
5.946160
  0
SEQEND
  8
0
  0
SOLID
  8
0
 62
    15
 10
5.850240
 20
5.977400
 11
5.845840
 21
6.722320
 12
5.854200
 22
5.946160
 13
5.850240
 23
6.690640
  0
POLYLINE
  8
0
  6
CONTINUOUS
 66
     1
 40
0.000000
 41
0.000000
  0
VERTEX
  8
0
  6
CONTINUOUS
 10
5.850240
 20
5.977400
  0
VERTEX
  8
0
  6
CONTINUOUS
 10
5.845840
 20
6.722320
  0
VERTEX
  8
0
  6
CONTINUOUS
 10
5.850240
 20
6.690640
  0
VERTEX
  8
0
  6
CONTINUOUS
 10
5.854200
 20
5.946160
  0
VERTEX
  8
0
  6
CONTINUOUS
 10
5.850240
 20
5.977400
  0
SEQEND
  8
0
  0
SOLID
  8
0
 62
    15
 10
5.841000
 20
6.004240
 11
5.837040
 21
6.749160
 12
5.850240
 22
5.977400
 13
5.845840
 23
6.722320
  0
POLYLINE
  8
0
  6
CONTINUOUS
 66
     1
 40
0.000000
 41
0.000000
  0
VERTEX
  8
0
  6
CONTINUOUS
 10
5.841000
 20
6.004240
  0
VERTEX
  8
0
  6
CONTINUOUS
 10
5.837040
 20
6.749160
  0
VERTEX
  8
0
  6
CONTINUOUS
 10
5.845840
 20
6.722320
  0
VERTEX
  8
0
  6
CONTINUOUS
 10
5.850240
 20
5.977400
  0
VERTEX
  8
0
  6
CONTINUOUS
 10
5.841000
 20
6.004240
  0
SEQEND
  8
0
  0
SOLID
  8
0
 62
    15
 10
5.924160
 20
5.898200
 11
5.919760
 21
6.642680
 12
5.931200
 22
5.861240
 13
5.926800
 23
6.606160
  0
POLYLINE
  8
0
  6
CONTINUOUS
 66
     1
 40
0.000000
 41
0.000000
  0
VERTEX
  8
0
  6
CONTINUOUS
 10
5.924160
 20
5.898200
  0
VERTEX
  8
0
  6
CONTINUOUS
 10
5.919760
 20
6.642680
  0
VERTEX
  8
0
  6
CONTINUOUS
 10
5.926800
 20
6.606160
  0
VERTEX
  8
0
  6
CONTINUOUS
 10
5.931200
 20
5.861240
  0
VERTEX
  8
0
  6
CONTINUOUS
 10
5.924160
 20
5.898200
  0
SEQEND
  8
0
  0
SOLID
  8
0
 62
    15
 10
5.938680
 20
5.834400
 11
5.934280
 21
6.578880
 12
5.948360
 22
5.815480
 13
5.943960
 23
6.560400
  0
POLYLINE
  8
0
  6
CONTINUOUS
 66
     1
 40
0.000000
 41
0.000000
  0
VERTEX
  8
0
  6
CONTINUOUS
 10
5.938680
 20
5.834400
  0
VERTEX
  8
0
  6
CONTINUOUS
 10
5.934280
 20
6.578880
  0
VERTEX
  8
0
  6
CONTINUOUS
 10
5.943960
 20
6.560400
  0
VERTEX
  8
0
  6
CONTINUOUS
 10
5.948360
 20
5.815480
  0
VERTEX
  8
0
  6
CONTINUOUS
 10
5.938680
 20
5.834400
  0
SEQEND
  8
0
  0
SOLID
  8
0
 62
    15
 10
5.931200
 20
5.861240
 11
5.926800
 21
6.606160
 12
5.938680
 22
5.834400
 13
5.934280
 23
6.578880
  0
POLYLINE
  8
0
  6
CONTINUOUS
 66
     1
 40
0.000000
 41
0.000000
  0
VERTEX
  8
0
  6
CONTINUOUS
 10
5.931200
 20
5.861240
  0
VERTEX
  8
0
  6
CONTINUOUS
 10
5.926800
 20
6.606160
  0
VERTEX
  8
0
  6
CONTINUOUS
 10
5.934280
 20
6.578880
  0
VERTEX
  8
0
  6
CONTINUOUS
 10
5.938680
 20
5.834400
  0
VERTEX
  8
0
  6
CONTINUOUS
 10
5.931200
 20
5.861240
  0
SEQEND
  8
0
  0
SOLID
  8
0
 62
    15
 10
5.948360
 20
5.815480
 11
5.943960
 21
6.560400
 12
5.960680
 22
5.803600
 13
5.956280
 23
6.548520
  0
POLYLINE
  8
0
  6
CONTINUOUS
 66
     1
 40
0.000000
 41
0.000000
  0
VERTEX
  8
0
  6
CONTINUOUS
 10
5.948360
 20
5.815480
  0
VERTEX
  8
0
  6
CONTINUOUS
 10
5.943960
 20
6.560400
  0
VERTEX
  8
0
  6
CONTINUOUS
 10
5.956280
 20
6.548520
  0
VERTEX
  8
0
  6
CONTINUOUS
 10
5.960680
 20
5.803600
  0
VERTEX
  8
0
  6
CONTINUOUS
 10
5.948360
 20
5.815480
  0
SEQEND
  8
0
  0
SOLID
  8
0
 62
    15
 10
5.960680
 20
5.803600
 11
5.956280
 21
6.548520
 12
5.977840
 22
5.797000
 13
5.973440
 23
6.541480
  0
POLYLINE
  8
0
  6
CONTINUOUS
 66
     1
 40
0.000000
 41
0.000000
  0
VERTEX
  8
0
  6
CONTINUOUS
 10
5.960680
 20
5.803600
  0
VERTEX
  8
0
  6
CONTINUOUS
 10
5.956280
 20
6.548520
  0
VERTEX
  8
0
  6
CONTINUOUS
 10
5.973440
 20
6.541480
  0
VERTEX
  8
0
  6
CONTINUOUS
 10
5.977840
 20
5.797000
  0
VERTEX
  8
0
  6
CONTINUOUS
 10
5.960680
 20
5.803600
  0
SEQEND
  8
0
  0
SOLID
  8
0
 62
    15
 10
5.977840
 20
5.797000
 11
5.973440
 21
6.541480
 12
6.000280
 22
5.793920
 13
5.995880
 23
6.538840
  0
POLYLINE
  8
0
  6
CONTINUOUS
 66
     1
 40
0.000000
 41
0.000000
  0
VERTEX
  8
0
  6
CONTINUOUS
 10
5.977840
 20
5.797000
  0
VERTEX
  8
0
  6
CONTINUOUS
 10
5.973440
 20
6.541480
  0
VERTEX
  8
0
  6
CONTINUOUS
 10
5.995880
 20
6.538840
  0
VERTEX
  8
0
  6
CONTINUOUS
 10
6.000280
 20
5.793920
  0
VERTEX
  8
0
  6
CONTINUOUS
 10
5.977840
 20
5.797000
  0
SEQEND
  8
0
  0
SOLID
  8
0
 62
    15
 10
6.000280
 20
5.793920
 11
5.995880
 21
6.538840
 12
6.029760
 22
5.793480
 13
6.025360
 23
6.537960
  0
POLYLINE
  8
0
  6
CONTINUOUS
 66
     1
 40
0.000000
 41
0.000000
  0
VERTEX
  8
0
  6
CONTINUOUS
 10
6.000280
 20
5.793920
  0
VERTEX
  8
0
  6
CONTINUOUS
 10
5.995880
 20
6.538840
  0
VERTEX
  8
0
  6
CONTINUOUS
 10
6.025360
 20
6.537960
  0
VERTEX
  8
0
  6
CONTINUOUS
 10
6.029760
 20
5.793480
  0
VERTEX
  8
0
  6
CONTINUOUS
 10
6.000280
 20
5.793920
  0
SEQEND
  8
0
  0
POLYLINE
  8
0
  6
CONTINUOUS
 66
     1
 40
0.000000
 41
0.000000
  0
VERTEX
  8
0
  6
CONTINUOUS
 10
5.959800
 20
5.632440
  0
VERTEX
  8
0
  6
CONTINUOUS
 10
2.267320
 20
5.632440
  0
VERTEX
  8
0
  6
CONTINUOUS
 10
2.267320
 20
6.380880
  0
VERTEX
  8
0
  6
CONTINUOUS
 10
2.791360
 20
6.380880
  0
VERTEX
  8
0
  6
CONTINUOUS
 10
2.802360
 20
6.201800
  0
VERTEX
  8
0
  6
CONTINUOUS
 10
2.818640
 20
6.201800
  0
VERTEX
  8
0
  6
CONTINUOUS
 10
2.851200
 20
6.255920
  0
VERTEX
  8
0
  6
CONTINUOUS
 10
2.887720
 20
6.298160
  0
VERTEX
  8
0
  6
CONTINUOUS
 10
2.927320
 20
6.330280
  0
VERTEX
  8
0
  6
CONTINUOUS
 10
2.969560
 20
6.351840
  0
VERTEX
  8
0
  6
CONTINUOUS
 10
3.012680
 20
6.364600
  0
VERTEX
  8
0
  6
CONTINUOUS
 10
3.056680
 20
6.369000
  0
VERTEX
  8
0
  6
CONTINUOUS
 10
3.100680
 20
6.365480
  0
VERTEX
  8
0
  6
CONTINUOUS
 10
3.143800
 20
6.354920
  0
VERTEX
  8
0
  6
CONTINUOUS
 10
3.184720
 20
6.338640
  0
VERTEX
  8
0
  6
CONTINUOUS
 10
3.223440
 20
6.316640
  0
VERTEX
  8
0
  6
CONTINUOUS
 10
3.258200
 20
6.290680
  0
VERTEX
  8
0
  6
CONTINUOUS
 10
3.289000
 20
6.260320
  0
VERTEX
  8
0
  6
CONTINUOUS
 10
3.314520
 20
6.227320
  0
VERTEX
  8
0
  6
CONTINUOUS
 10
3.333880
 20
6.191680
  0
VERTEX
  8
0
  6
CONTINUOUS
 10
3.346640
 20
6.155160
  0
VERTEX
  8
0
  6
CONTINUOUS
 10
3.351920
 20
6.117320
  0
VERTEX
  8
0
  6
CONTINUOUS
 10
3.369520
 20
6.106320
  0
VERTEX
  8
0
  6
CONTINUOUS
 10
3.389320
 20
6.129200
  0
VERTEX
  8
0
  6
CONTINUOUS
 10
3.415280
 20
6.143720
  0
VERTEX
  8
0
  6
CONTINUOUS
 10
3.445200
 20
6.149440
  0
VERTEX
  8
0
  6
CONTINUOUS
 10
3.477320
 20
6.146360
  0
VERTEX
  8
0
  6
CONTINUOUS
 10
3.509000
 20
6.133600
  0
VERTEX
  8
0
  6
CONTINUOUS
 10
3.538920
 20
6.111600
  0
VERTEX
  8
0
  6
CONTINUOUS
 10
3.565320
 20
6.079920
  0
VERTEX
  8
0
  6
CONTINUOUS
 10
3.585560
 20
6.037680
  0
VERTEX
  8
0
  6
CONTINUOUS
 10
3.806440
 20
5.998520
  0
VERTEX
  8
0
  6
CONTINUOUS
 10
3.817880
 20
6.030640
  0
VERTEX
  8
0
  6
CONTINUOUS
 10
3.834160
 20
6.059680
  0
VERTEX
  8
0
  6
CONTINUOUS
 10
3.854400
 20
6.085200
  0
VERTEX
  8
0
  6
CONTINUOUS
 10
3.878600
 20
6.107200
  0
VERTEX
  8
0
  6
CONTINUOUS
 10
3.906320
 20
6.125240
  0
VERTEX
  8
0
  6
CONTINUOUS
 10
3.936240
 20
6.138440
  0
VERTEX
  8
0
  6
CONTINUOUS
 10
3.968800
 20
6.146800
  0
VERTEX
  8
0
  6
CONTINUOUS
 10
4.002680
 20
6.149440
  0
VERTEX
  8
0
  6
CONTINUOUS
 10
4.042280
 20
6.145920
  0
VERTEX
  8
0
  6
CONTINUOUS
 10
4.078800
 20
6.134920
  0
VERTEX
  8
0
  6
CONTINUOUS
 10
4.111800
 20
6.117320
  0
VERTEX
  8
0
  6
CONTINUOUS
 10
4.140840
 20
6.094440
  0
VERTEX
  8
0
  6
CONTINUOUS
 10
4.165040
 20
6.066280
  0
VERTEX
  8
0
  6
CONTINUOUS
 10
4.184400
 20
6.034160
  0
VERTEX
  8
0
  6
CONTINUOUS
 10
4.197600
 20
5.998520
  0
VERTEX
  8
0
  6
CONTINUOUS
 10
4.204640
 20
5.959800
  0
VERTEX
  8
0
  6
CONTINUOUS
 10
5.597680
 20
5.959800
  0
VERTEX
  8
0
  6
CONTINUOUS
 10
5.602960
 20
5.987960
  0
VERTEX
  8
0
  6
CONTINUOUS
 10
5.612640
 20
6.012160
  0
VERTEX
  8
0
  6
CONTINUOUS
 10
5.625840
 20
6.032840
  0
VERTEX
  8
0
  6
CONTINUOUS
 10
5.642560
 20
6.049560
  0
VERTEX
  8
0
  6
CONTINUOUS
 10
5.661920
 20
6.062760
  0
VERTEX
  8
0
  6
CONTINUOUS
 10
5.682600
 20
6.072440
  0
VERTEX
  8
0
  6
CONTINUOUS
 10
5.705040
 20
6.077720
  0
VERTEX
  8
0
  6
CONTINUOUS
 10
5.727920
 20
6.079480
  0
VERTEX
  8
0
  6
CONTINUOUS
 10
5.750800
 20
6.076840
  0
VERTEX
  8
0
  6
CONTINUOUS
 10
5.772800
 20
6.070680
  0
VERTEX
  8
0
  6
CONTINUOUS
 10
5.793480
 20
6.060120
  0
VERTEX
  8
0
  6
CONTINUOUS
 10
5.812400
 20
6.045600
  0
VERTEX
  8
0
  6
CONTINUOUS
 10
5.828240
 20
6.027120
  0
VERTEX
  8
0
  6
CONTINUOUS
 10
5.841000
 20
6.004240
  0
VERTEX
  8
0
  6
CONTINUOUS
 10
5.850240
 20
5.977400
  0
VERTEX
  8
0
  6
CONTINUOUS
 10
5.854200
 20
5.946160
  0
VERTEX
  8
0
  6
CONTINUOUS
 10
5.916240
 20
5.946160
  0
VERTEX
  8
0
  6
CONTINUOUS
 10
5.931200
 20
5.861240
  0
VERTEX
  8
0
  6
CONTINUOUS
 10
5.938680
 20
5.834400
  0
VERTEX
  8
0
  6
CONTINUOUS
 10
5.948360
 20
5.815480
  0
VERTEX
  8
0
  6
CONTINUOUS
 10
5.960680
 20
5.803600
  0
VERTEX
  8
0
  6
CONTINUOUS
 10
5.977840
 20
5.797000
  0
VERTEX
  8
0
  6
CONTINUOUS
 10
6.000280
 20
5.793920
  0
VERTEX
  8
0
  6
CONTINUOUS
 10
6.029760
 20
5.793480
  0
VERTEX
  8
0
  6
CONTINUOUS
 10
6.029760
 20
5.632000
  0
VERTEX
  8
0
  6
CONTINUOUS
 10
5.959800
 20
5.632440
  0
SEQEND
  8
0
  0
TEXT
  8
0
 10
3.804680
 20
5.377240
 40
0.138090
  1
BA  1187
 41
1.000000
  7
SN0
 71
     0
 72
     5
 11
4.487957
 21
5.377240
  0
TEXT
  8
0
 10
3.695120
 20
5.185400
 40
0.138090
  1
3/4" x 3-3/4"
 41
1.000000
  7
SN0
 71
     0
 72
     5
 11
4.596683
 21
5.185400
  0
POLYLINE
  8
0
  6
CONTINUOUS
 66
     1
 40
0.014080
 41
0.014080
  0
VERTEX
  8
0
  6
CONTINUOUS
 10
5.958920
 20
7.396840
  0
VERTEX
  8
0
  6
CONTINUOUS
 10
6.027560
 20
7.396840
  0
VERTEX
  8
0
  6
CONTINUOUS
 10
6.027560
 20
7.557880
  0
VERTEX
  8
0
  6
CONTINUOUS
 10
5.998080
 20
7.558320
  0
VERTEX
  8
0
  6
CONTINUOUS
 10
5.975640
 20
7.561400
  0
VERTEX
  8
0
  6
CONTINUOUS
 10
5.958920
 20
7.568000
  0
VERTEX
  8
0
  6
CONTINUOUS
 10
5.951880
 20
7.573280
  0
VERTEX
  8
0
  6
CONTINUOUS
 10
5.946160
 20
7.579880
  0
VERTEX
  8
0
  6
CONTINUOUS
 10
5.936480
 20
7.598800
  0
VERTEX
  8
0
  6
CONTINUOUS
 10
5.929000
 20
7.625640
  0
VERTEX
  8
0
  6
CONTINUOUS
 10
5.914040
 20
7.710560
  0
VERTEX
  8
0
  6
CONTINUOUS
 10
5.852440
 20
7.710560
  0
VERTEX
  8
0
  6
CONTINUOUS
 10
5.848040
 20
7.741800
  0
VERTEX
  8
0
  6
CONTINUOUS
 10
5.839240
 20
7.768640
  0
VERTEX
  8
0
  6
CONTINUOUS
 10
5.826480
 20
7.791520
  0
VERTEX
  8
0
  6
CONTINUOUS
 10
5.810200
 20
7.810000
  0
VERTEX
  8
0
  6
CONTINUOUS
 10
5.791280
 20
7.824520
  0
VERTEX
  8
0
  6
CONTINUOUS
 10
5.770600
 20
7.835080
  0
VERTEX
  8
0
  6
CONTINUOUS
 10
5.748600
 20
7.841240
  0
VERTEX
  8
0
  6
CONTINUOUS
 10
5.725720
 20
7.843880
  0
VERTEX
  8
0
  6
CONTINUOUS
 10
5.702840
 20
7.842120
  0
VERTEX
  8
0
  6
CONTINUOUS
 10
5.680400
 20
7.836840
  0
VERTEX
  8
0
  6
CONTINUOUS
 10
5.659720
 20
7.827600
  0
VERTEX
  8
0
  6
CONTINUOUS
 10
5.640360
 20
7.814400
  0
VERTEX
  8
0
  6
CONTINUOUS
 10
5.623640
 20
7.797240
  0
VERTEX
  8
0
  6
CONTINUOUS
 10
5.610440
 20
7.777000
  0
VERTEX
  8
0
  6
CONTINUOUS
 10
5.600760
 20
7.752360
  0
VERTEX
  8
0
  6
CONTINUOUS
 10
5.595480
 20
7.724640
  0
VERTEX
  8
0
  6
CONTINUOUS
 10
4.202880
 20
7.724640
  0
VERTEX
  8
0
  6
CONTINUOUS
 10
4.200240
 20
7.744000
  0
VERTEX
  8
0
  6
CONTINUOUS
 10
4.195840
 20
7.762920
  0
VERTEX
  8
0
  6
CONTINUOUS
 10
4.182200
 20
7.798560
  0
VERTEX
  8
0
  6
CONTINUOUS
 10
4.163280
 20
7.830680
  0
VERTEX
  8
0
  6
CONTINUOUS
 10
4.138640
 20
7.858840
  0
VERTEX
  8
0
  6
CONTINUOUS
 10
4.110040
 20
7.882160
  0
VERTEX
  8
0
  6
CONTINUOUS
 10
4.077040
 20
7.899320
  0
VERTEX
  8
0
  6
CONTINUOUS
 10
4.059000
 20
7.905920
  0
VERTEX
  8
0
  6
CONTINUOUS
 10
4.020720
 20
7.913400
  0
VERTEX
  8
0
  6
CONTINUOUS
 10
4.000480
 20
7.914280
  0
VERTEX
  8
0
  6
CONTINUOUS
 10
3.966600
 20
7.911640
  0
VERTEX
  8
0
  6
CONTINUOUS
 10
3.934040
 20
7.903280
  0
VERTEX
  8
0
  6
CONTINUOUS
 10
3.904120
 20
7.889640
  0
VERTEX
  8
0
  6
CONTINUOUS
 10
3.876400
 20
7.872040
  0
VERTEX
  8
0
  6
CONTINUOUS
 10
3.852200
 20
7.850040
  0
VERTEX
  8
0
  6
CONTINUOUS
 10
3.831960
 20
7.824080
  0
VERTEX
  8
0
  6
CONTINUOUS
 10
3.815680
 20
7.795040
  0
VERTEX
  8
0
  6
CONTINUOUS
 10
3.809080
 20
7.779200
  0
VERTEX
  8
0
  6
CONTINUOUS
 10
3.804240
 20
7.762920
  0
VERTEX
  8
0
  6
CONTINUOUS
 10
3.583360
 20
7.802520
  0
VERTEX
  8
0
  6
CONTINUOUS
 10
3.568840
 20
7.835080
  0
VERTEX
  8
0
  6
CONTINUOUS
 10
3.550360
 20
7.861480
  0
VERTEX
  8
0
  6
CONTINUOUS
 10
3.529680
 20
7.882600
  0
VERTEX
  8
0
  6
CONTINUOUS
 10
3.506800
 20
7.898440
  0
VERTEX
  8
0
  6
CONTINUOUS
 10
3.490960
 20
7.905920
  0
VERTEX
  8
0
  6
CONTINUOUS
 10
3.475120
 20
7.910760
  0
VERTEX
  8
0
  6
CONTINUOUS
 10
3.458840
 20
7.913840
  0
VERTEX
  8
0
  6
CONTINUOUS
 10
3.443000
 20
7.914280
  0
VERTEX
  8
0
  6
CONTINUOUS
 10
3.428040
 20
7.912520
  0
VERTEX
  8
0
  6
CONTINUOUS
 10
3.406480
 20
7.905920
  0
VERTEX
  8
0
  6
CONTINUOUS
 10
3.387560
 20
7.894040
  0
VERTEX
  8
0
  6
CONTINUOUS
 10
3.371720
 20
7.877760
  0
VERTEX
  8
0
  6
CONTINUOUS
 10
3.367320
 20
7.871160
  0
VERTEX
  8
0
  6
CONTINUOUS
 10
3.349720
 20
7.882160
  0
VERTEX
  8
0
  6
CONTINUOUS
 10
3.347960
 20
7.901080
  0
VERTEX
  8
0
  6
CONTINUOUS
 10
3.344440
 20
7.919560
  0
VERTEX
  8
0
  6
CONTINUOUS
 10
3.339160
 20
7.938040
  0
VERTEX
  8
0
  6
CONTINUOUS
 10
3.322880
 20
7.974560
  0
VERTEX
  8
0
  6
CONTINUOUS
 10
3.300000
 20
8.008880
  0
VERTEX
  8
0
  6
CONTINUOUS
 10
3.286800
 20
8.025160
  0
VERTEX
  8
0
  6
CONTINUOUS
 10
3.256000
 20
8.055080
  0
VERTEX
  8
0
  6
CONTINUOUS
 10
3.221240
 20
8.081480
  0
VERTEX
  8
0
  6
CONTINUOUS
 10
3.182520
 20
8.103040
  0
VERTEX
  8
0
  6
CONTINUOUS
 10
3.141600
 20
8.119320
  0
VERTEX
  8
0
  6
CONTINUOUS
 10
3.120480
 20
8.125480
  0
VERTEX
  8
0
  6
CONTINUOUS
 10
3.098920
 20
8.129880
  0
VERTEX
  8
0
  6
CONTINUOUS
 10
3.076920
 20
8.132520
  0
VERTEX
  8
0
  6
CONTINUOUS
 10
3.054920
 20
8.133400
  0
VERTEX
  8
0
  6
CONTINUOUS
 10
3.032920
 20
8.132080
  0
VERTEX
  8
0
  6
CONTINUOUS
 10
3.010920
 20
8.129000
  0
VERTEX
  8
0
  6
CONTINUOUS
 10
2.988920
 20
8.123720
  0
VERTEX
  8
0
  6
CONTINUOUS
 10
2.967360
 20
8.116240
  0
VERTEX
  8
0
  6
CONTINUOUS
 10
2.935680
 20
8.100840
  0
VERTEX
  8
0
  6
CONTINUOUS
 10
2.905320
 20
8.080160
  0
VERTEX
  8
0
  6
CONTINUOUS
 10
2.876280
 20
8.053320
  0
VERTEX
  8
0
  6
CONTINUOUS
 10
2.849000
 20
8.020320
  0
VERTEX
  8
0
  6
CONTINUOUS
 10
2.824360
 20
7.980720
  0
VERTEX
  8
0
  6
CONTINUOUS
 10
2.816440
 20
7.966200
  0
VERTEX
  8
0
  6
CONTINUOUS
 10
2.800160
 20
7.966200
  0
VERTEX
  8
0
  6
CONTINUOUS
 10
2.789600
 20
8.145280
  0
VERTEX
  8
0
  6
CONTINUOUS
 10
2.265120
 20
8.145280
  0
VERTEX
  8
0
  6
CONTINUOUS
 10
2.265120
 20
7.396840
  0
VERTEX
  8
0
  6
CONTINUOUS
 10
5.958920
 20
7.396840
  0
SEQEND
  8
0
  0
TEXT
  8
0
 10
2.574000
 20
7.684160
 40
0.138090
  1
BA  1187
 41
1.000000
  7
SN0
 71
     0
 72
     5
 11
3.257277
 21
7.684160
  0
TEXT
  8
0
 10
2.464000
 20
7.492760
 40
0.138090
  1
3/4" x 3-3/4"
 41
1.000000
  7
SN0
 71
     0
 72
     5
 11
3.365563
 21
7.492760
  0
ENDSEC
  0
EOF
