  0
SECTION
  2
HEADER
  9
$ACADVER
  1
AC1006
  9
$EXTMIN
 10
3.261280
 20
2.032800
  9
$EXTMAX
 10
5.541800
 20
8.206880
  9
$LTSCALE
 40
0.044000
  9
$PDMODE
 70
    35
  9
$PDSIZE
 40
0.035200
  0
ENDSEC
  0
SECTION
  2
TABLES
  0
TABLE
  2
LTYPE
 70
     9
  0
LTYPE
  2
CONTINUOUS
 70
    64
  3
Solid line
 72
    65
 73
     0
 40
0.000000
  0
LTYPE
  2
DASHED
 70
    64
  3
__ __ __ __ __ __ __ __ __ __ __ __ __ __ __
 72
    65
 73
     2
 40
0.000330
 49
0.000220
 49
-0.000110
  0
LTYPE
  2
HIDDEN
 70
    64
  3
 _ _ _ _ _ _ _ _ _ _ _ _ _ _ _ _ _ _ _ _ _ _
 72
    65
 73
     2
 40
0.000165
 49
0.000110
 49
-0.000055
  0
LTYPE
  2
CENTER
 70
    64
  3
____ _ ____ _ ____ _ ____ _ ____ _ ____ _ ____
 72
    65
 73
     4
 40
0.000880
 49
0.000550
 49
-0.000110
 49
0.000110
 49
-0.000110
  0
LTYPE
  2
PHANTOM
 70
    64
  3
_____ _ _ _____ _ _ _____ _ _ _____ _ _ ____
 72
    65
 73
     6
 40
0.001100
 49
0.000550
 49
-0.000110
 49
0.000110
 49
-0.000110
 49
0.000110
 49
-0.000110
  0
LTYPE
  2
DOT
 70
    64
  3
...............................................
 72
    65
 73
     2
 40
0.000110
 49
0.000000
 49
-0.000110
  0
LTYPE
  2
DASHDOT
 70
    64
  3
__ . __ . __ . __ . __ . __ . __ . __ . __ . __
 72
    65
 73
     4
 40
0.000440
 49
0.000220
 49
-0.000110
 49
0.000000
 49
-0.000110
  0
LTYPE
  2
BORDER
 70
    64
  3
__ __ . __ __ . __ __ . __ __ . __ __ . __ __
 72
    65
 73
     6
 40
0.000770
 49
0.000220
 49
-0.000110
 49
0.000220
 49
-0.000110
 49
0.000000
 49
-0.000110
  0
LTYPE
  2
DIVIDE
 70
    64
  3
__ . . __ . . __ . . __ . . __ . . __ . . __
 72
    65
 73
     6
 40
0.000550
 49
0.000220
 49
-0.000110
 49
0.000000
 49
-0.000110
 49
0.000000
 49
-0.000110
  0
LTYPE
  2
DOTDOT
 70
    64
  3
 . .  . .  . .  . .  . .  . . 
 72
    65
 73
     5
 40
0.000242
 49
-0.000110
 49
0.000000
 49
-0.000110
 49
0.000000
 49
-0.000110
  0
ENDTAB
  0
TABLE
  2
STYLE
 70
     2
  0
STYLE
 70
     0
  2
SN0
 40
0.000000
 41
0.000440
 50
0.000000
 71
     0
 42
0.000000
  3
ROMAND
  0
STYLE
 70
    68
  2
SV0
 40
0.000000
 41
0.000440
 50
0.000000
 71
     0
 42
0.000000
  3
ROMAND
  0
ENDTAB
  0
TABLE
  2
LAYER
 70
     3
  0
LAYER
  2
FOREGROUND
 70
    64
 62
     7
  6
CONTINUOUS
  0
LAYER
  2
BACKGROUND
 70
    65
 62
    -7
  6
CONTINUOUS
  0
LAYER
  2
0
 70
    64
 62
     7
  6
CONTINUOUS
  0
ENDTAB
  0
ENDSEC
  0
SECTION
  2
ENTITIES
  0
POLYLINE
  8
FOREGROUND
  6
CONTINUOUS
 66
     1
 40
0.000000
 41
0.000000
  0
VERTEX
  8
FOREGROUND
  6
CONTINUOUS
 10
0.000000
 20
10.239680
  0
VERTEX
  8
FOREGROUND
  6
CONTINUOUS
 10
8.499920
 20
10.239680
  0
VERTEX
  8
FOREGROUND
  6
CONTINUOUS
 10
8.499920
 20
-0.760320
  0
VERTEX
  8
FOREGROUND
  6
CONTINUOUS
 10
0.000000
 20
-0.760320
  0
VERTEX
  8
FOREGROUND
  6
CONTINUOUS
 10
0.000000
 20
10.239680
  0
SEQEND
  8
0
  0
POLYLINE
  8
FOREGROUND
  6
CONTINUOUS
 66
     1
 40
0.000000
 41
0.000000
  0
VERTEX
  8
FOREGROUND
  6
CONTINUOUS
 10
0.000000
 20
10.239680
  0
VERTEX
  8
FOREGROUND
  6
CONTINUOUS
 10
8.499920
 20
10.239680
  0
VERTEX
  8
FOREGROUND
  6
CONTINUOUS
 10
8.499920
 20
-0.760320
  0
VERTEX
  8
FOREGROUND
  6
CONTINUOUS
 10
0.000000
 20
-0.760320
  0
VERTEX
  8
FOREGROUND
  6
CONTINUOUS
 10
0.000000
 20
10.239680
  0
SEQEND
  8
0
  0
POLYLINE
  8
0
  6
CONTINUOUS
 66
     1
 40
0.000000
 41
0.000000
  0
VERTEX
  8
0
  6
CONTINUOUS
 10
5.155920
 20
3.425840
  0
VERTEX
  8
0
  6
CONTINUOUS
 10
5.078040
 20
3.430240
  0
VERTEX
  8
0
  6
CONTINUOUS
 10
5.064840
 20
3.471160
  0
VERTEX
  8
0
  6
CONTINUOUS
 10
5.047240
 20
3.507240
  0
VERTEX
  8
0
  6
CONTINUOUS
 10
5.032720
 20
3.529240
  0
VERTEX
  8
0
  6
CONTINUOUS
 10
5.005440
 20
3.558280
  0
VERTEX
  8
0
  6
CONTINUOUS
 10
4.983880
 20
3.575440
  0
VERTEX
  8
0
  6
CONTINUOUS
 10
4.944720
 20
3.597440
  0
VERTEX
  8
0
  6
CONTINUOUS
 10
4.914360
 20
3.609760
  0
VERTEX
  8
0
  6
CONTINUOUS
 10
4.860680
 20
3.624280
  0
VERTEX
  8
0
  6
CONTINUOUS
 10
4.796880
 20
3.634400
  0
VERTEX
  8
0
  6
CONTINUOUS
 10
4.722520
 20
3.640120
  0
VERTEX
  8
0
  6
CONTINUOUS
 10
4.636280
 20
3.641440
  0
VERTEX
  8
0
  6
CONTINUOUS
 10
4.571600
 20
3.640120
  0
VERTEX
  8
0
  6
CONTINUOUS
 10
4.565880
 20
3.730760
  0
VERTEX
  8
0
  6
CONTINUOUS
 10
4.489760
 20
3.734720
  0
VERTEX
  8
0
  6
CONTINUOUS
 10
4.454560
 20
3.738240
  0
VERTEX
  8
0
  6
CONTINUOUS
 10
4.421560
 20
3.743080
  0
VERTEX
  8
0
  6
CONTINUOUS
 10
4.390320
 20
3.749240
  0
VERTEX
  8
0
  6
CONTINUOUS
 10
4.361280
 20
3.756720
  0
VERTEX
  8
0
  6
CONTINUOUS
 10
4.334000
 20
3.765520
  0
VERTEX
  8
0
  6
CONTINUOUS
 10
4.296160
 20
3.782240
  0
VERTEX
  8
0
  6
CONTINUOUS
 10
4.262720
 20
3.803360
  0
VERTEX
  8
0
  6
CONTINUOUS
 10
4.242040
 20
3.820080
  0
VERTEX
  8
0
  6
CONTINUOUS
 10
4.214760
 20
3.849120
  0
VERTEX
  8
0
  6
CONTINUOUS
 10
4.191000
 20
3.883880
  0
VERTEX
  8
0
  6
CONTINUOUS
 10
4.170320
 20
3.924360
  0
VERTEX
  8
0
  6
CONTINUOUS
 10
4.164160
 20
3.939320
  0
VERTEX
  8
0
  6
CONTINUOUS
 10
3.647160
 20
3.939320
  0
VERTEX
  8
0
  6
CONTINUOUS
 10
3.647160
 20
3.199240
  0
VERTEX
  8
0
  6
CONTINUOUS
 10
5.156360
 20
3.199240
  0
VERTEX
  8
0
  6
CONTINUOUS
 10
5.155920
 20
3.425840
  0
SEQEND
  8
0
  0
POLYLINE
  8
0
  6
CONTINUOUS
 66
     1
 40
0.000000
 41
0.000000
  0
VERTEX
  8
0
  6
CONTINUOUS
 10
3.647600
 20
2.259840
  0
VERTEX
  8
0
  6
CONTINUOUS
 10
3.725480
 20
2.264240
  0
VERTEX
  8
0
  6
CONTINUOUS
 10
3.738680
 20
2.304720
  0
VERTEX
  8
0
  6
CONTINUOUS
 10
3.756280
 20
2.341240
  0
VERTEX
  8
0
  6
CONTINUOUS
 10
3.770800
 20
2.363240
  0
VERTEX
  8
0
  6
CONTINUOUS
 10
3.798080
 20
2.392280
  0
VERTEX
  8
0
  6
CONTINUOUS
 10
3.819640
 20
2.409000
  0
VERTEX
  8
0
  6
CONTINUOUS
 10
3.844720
 20
2.424400
  0
VERTEX
  8
0
  6
CONTINUOUS
 10
3.873320
 20
2.437600
  0
VERTEX
  8
0
  6
CONTINUOUS
 10
3.923920
 20
2.453440
  0
VERTEX
  8
0
  6
CONTINUOUS
 10
3.983760
 20
2.465320
  0
VERTEX
  8
0
  6
CONTINUOUS
 10
4.054600
 20
2.472360
  0
VERTEX
  8
0
  6
CONTINUOUS
 10
4.108280
 20
2.475000
  0
VERTEX
  8
0
  6
CONTINUOUS
 10
4.198920
 20
2.475000
  0
VERTEX
  8
0
  6
CONTINUOUS
 10
4.231920
 20
2.474120
  0
VERTEX
  8
0
  6
CONTINUOUS
 10
4.237640
 20
2.564760
  0
VERTEX
  8
0
  6
CONTINUOUS
 10
4.276800
 20
2.566080
  0
VERTEX
  8
0
  6
CONTINUOUS
 10
4.348960
 20
2.572240
  0
VERTEX
  8
0
  6
CONTINUOUS
 10
4.381960
 20
2.576640
  0
VERTEX
  8
0
  6
CONTINUOUS
 10
4.413200
 20
2.582800
  0
VERTEX
  8
0
  6
CONTINUOUS
 10
4.442240
 20
2.590280
  0
VERTEX
  8
0
  6
CONTINUOUS
 10
4.469520
 20
2.599080
  0
VERTEX
  8
0
  6
CONTINUOUS
 10
4.507360
 20
2.615800
  0
VERTEX
  8
0
  6
CONTINUOUS
 10
4.540800
 20
2.636920
  0
VERTEX
  8
0
  6
CONTINUOUS
 10
4.570720
 20
2.662880
  0
VERTEX
  8
0
  6
CONTINUOUS
 10
4.597120
 20
2.694120
  0
VERTEX
  8
0
  6
CONTINUOUS
 10
4.620000
 20
2.730640
  0
VERTEX
  8
0
  6
CONTINUOUS
 10
4.639360
 20
2.773320
  0
VERTEX
  8
0
  6
CONTINUOUS
 10
5.156360
 20
2.773320
  0
VERTEX
  8
0
  6
CONTINUOUS
 10
5.156360
 20
2.032800
  0
VERTEX
  8
0
  6
CONTINUOUS
 10
3.647160
 20
2.032800
  0
VERTEX
  8
0
  6
CONTINUOUS
 10
3.647600
 20
2.259840
  0
SEQEND
  8
0
  0
SOLID
  8
0
 62
    15
 10
3.703920
 20
5.243920
 11
4.337080
 21
4.881800
 12
3.701280
 22
5.190680
 13
4.334440
 23
4.828120
  0
POLYLINE
  8
0
  6
CONTINUOUS
 66
     1
 40
0.000000
 41
0.000000
  0
VERTEX
  8
0
  6
CONTINUOUS
 10
3.703920
 20
5.243920
  0
VERTEX
  8
0
  6
CONTINUOUS
 10
4.337080
 20
4.881800
  0
VERTEX
  8
0
  6
CONTINUOUS
 10
4.334440
 20
4.828120
  0
VERTEX
  8
0
  6
CONTINUOUS
 10
3.701280
 20
5.190680
  0
VERTEX
  8
0
  6
CONTINUOUS
 10
3.703920
 20
5.243920
  0
SEQEND
  8
0
  0
SOLID
  8
0
 62
    15
 10
4.002240
 20
6.292000
 11
4.634960
 21
5.929880
 12
4.002240
 22
5.775000
 13
4.634960
 23
5.412880
  0
POLYLINE
  8
0
  6
CONTINUOUS
 66
     1
 40
0.000000
 41
0.000000
  0
VERTEX
  8
0
  6
CONTINUOUS
 10
4.002240
 20
6.292000
  0
VERTEX
  8
0
  6
CONTINUOUS
 10
4.634960
 20
5.929880
  0
VERTEX
  8
0
  6
CONTINUOUS
 10
4.634960
 20
5.412880
  0
VERTEX
  8
0
  6
CONTINUOUS
 10
4.002240
 20
5.775000
  0
VERTEX
  8
0
  6
CONTINUOUS
 10
4.002240
 20
6.292000
  0
SEQEND
  8
0
  0
SOLID
  8
0
 62
    15
 10
4.002240
 20
5.775000
 11
4.634960
 21
5.412880
 12
3.946800
 22
5.748160
 13
4.579520
 23
5.386040
  0
POLYLINE
  8
0
  6
CONTINUOUS
 66
     1
 40
0.000000
 41
0.000000
  0
VERTEX
  8
0
  6
CONTINUOUS
 10
4.002240
 20
5.775000
  0
VERTEX
  8
0
  6
CONTINUOUS
 10
4.634960
 20
5.412880
  0
VERTEX
  8
0
  6
CONTINUOUS
 10
4.579520
 20
5.386040
  0
VERTEX
  8
0
  6
CONTINUOUS
 10
3.946800
 20
5.748160
  0
VERTEX
  8
0
  6
CONTINUOUS
 10
4.002240
 20
5.775000
  0
SEQEND
  8
0
  0
SOLID
  8
0
 62
    15
 10
3.946800
 20
5.748160
 11
4.579520
 21
5.386040
 12
3.901480
 22
5.715600
 13
4.534640
 23
5.353480
  0
POLYLINE
  8
0
  6
CONTINUOUS
 66
     1
 40
0.000000
 41
0.000000
  0
VERTEX
  8
0
  6
CONTINUOUS
 10
3.946800
 20
5.748160
  0
VERTEX
  8
0
  6
CONTINUOUS
 10
4.579520
 20
5.386040
  0
VERTEX
  8
0
  6
CONTINUOUS
 10
4.534640
 20
5.353480
  0
VERTEX
  8
0
  6
CONTINUOUS
 10
3.901480
 20
5.715600
  0
VERTEX
  8
0
  6
CONTINUOUS
 10
3.946800
 20
5.748160
  0
SEQEND
  8
0
  0
SOLID
  8
0
 62
    15
 10
3.901480
 20
5.715600
 11
4.534640
 21
5.353480
 12
3.866280
 22
5.676440
 13
4.499000
 23
5.314320
  0
POLYLINE
  8
0
  6
CONTINUOUS
 66
     1
 40
0.000000
 41
0.000000
  0
VERTEX
  8
0
  6
CONTINUOUS
 10
3.901480
 20
5.715600
  0
VERTEX
  8
0
  6
CONTINUOUS
 10
4.534640
 20
5.353480
  0
VERTEX
  8
0
  6
CONTINUOUS
 10
4.499000
 20
5.314320
  0
VERTEX
  8
0
  6
CONTINUOUS
 10
3.866280
 20
5.676440
  0
VERTEX
  8
0
  6
CONTINUOUS
 10
3.901480
 20
5.715600
  0
SEQEND
  8
0
  0
SOLID
  8
0
 62
    15
 10
3.866280
 20
5.676440
 11
4.499000
 21
5.314320
 12
3.839000
 22
5.630680
 13
4.472160
 23
5.268560
  0
POLYLINE
  8
0
  6
CONTINUOUS
 66
     1
 40
0.000000
 41
0.000000
  0
VERTEX
  8
0
  6
CONTINUOUS
 10
3.866280
 20
5.676440
  0
VERTEX
  8
0
  6
CONTINUOUS
 10
4.499000
 20
5.314320
  0
VERTEX
  8
0
  6
CONTINUOUS
 10
4.472160
 20
5.268560
  0
VERTEX
  8
0
  6
CONTINUOUS
 10
3.839000
 20
5.630680
  0
VERTEX
  8
0
  6
CONTINUOUS
 10
3.866280
 20
5.676440
  0
SEQEND
  8
0
  0
SOLID
  8
0
 62
    15
 10
3.839000
 20
5.630680
 11
4.472160
 21
5.268560
 12
3.819200
 22
5.577880
 13
4.452360
 23
5.215760
  0
POLYLINE
  8
0
  6
CONTINUOUS
 66
     1
 40
0.000000
 41
0.000000
  0
VERTEX
  8
0
  6
CONTINUOUS
 10
3.839000
 20
5.630680
  0
VERTEX
  8
0
  6
CONTINUOUS
 10
4.472160
 20
5.268560
  0
VERTEX
  8
0
  6
CONTINUOUS
 10
4.452360
 20
5.215760
  0
VERTEX
  8
0
  6
CONTINUOUS
 10
3.819200
 20
5.577880
  0
VERTEX
  8
0
  6
CONTINUOUS
 10
3.839000
 20
5.630680
  0
SEQEND
  8
0
  0
SOLID
  8
0
 62
    15
 10
3.819200
 20
5.577880
 11
4.452360
 21
5.215760
 12
3.805560
 22
5.517600
 13
4.438720
 23
5.155040
  0
POLYLINE
  8
0
  6
CONTINUOUS
 66
     1
 40
0.000000
 41
0.000000
  0
VERTEX
  8
0
  6
CONTINUOUS
 10
3.819200
 20
5.577880
  0
VERTEX
  8
0
  6
CONTINUOUS
 10
4.452360
 20
5.215760
  0
VERTEX
  8
0
  6
CONTINUOUS
 10
4.438720
 20
5.155040
  0
VERTEX
  8
0
  6
CONTINUOUS
 10
3.805560
 20
5.517600
  0
VERTEX
  8
0
  6
CONTINUOUS
 10
3.819200
 20
5.577880
  0
SEQEND
  8
0
  0
SOLID
  8
0
 62
    15
 10
3.805560
 20
5.517600
 11
4.438720
 21
5.155040
 12
3.797640
 22
5.449400
 13
4.430800
 23
5.087280
  0
POLYLINE
  8
0
  6
CONTINUOUS
 66
     1
 40
0.000000
 41
0.000000
  0
VERTEX
  8
0
  6
CONTINUOUS
 10
3.805560
 20
5.517600
  0
VERTEX
  8
0
  6
CONTINUOUS
 10
4.438720
 20
5.155040
  0
VERTEX
  8
0
  6
CONTINUOUS
 10
4.430800
 20
5.087280
  0
VERTEX
  8
0
  6
CONTINUOUS
 10
3.797640
 20
5.449400
  0
VERTEX
  8
0
  6
CONTINUOUS
 10
3.805560
 20
5.517600
  0
SEQEND
  8
0
  0
SOLID
  8
0
 62
    15
 10
3.797640
 20
5.449400
 11
4.430800
 21
5.087280
 12
3.793680
 22
5.373280
 13
4.426400
 23
5.010720
  0
POLYLINE
  8
0
  6
CONTINUOUS
 66
     1
 40
0.000000
 41
0.000000
  0
VERTEX
  8
0
  6
CONTINUOUS
 10
3.797640
 20
5.449400
  0
VERTEX
  8
0
  6
CONTINUOUS
 10
4.430800
 20
5.087280
  0
VERTEX
  8
0
  6
CONTINUOUS
 10
4.426400
 20
5.010720
  0
VERTEX
  8
0
  6
CONTINUOUS
 10
3.793680
 20
5.373280
  0
VERTEX
  8
0
  6
CONTINUOUS
 10
3.797640
 20
5.449400
  0
SEQEND
  8
0
  0
SOLID
  8
0
 62
    15
 10
3.793680
 20
5.373280
 11
4.426400
 21
5.010720
 12
3.703040
 22
5.367560
 13
4.336200
 23
5.005440
  0
POLYLINE
  8
0
  6
CONTINUOUS
 66
     1
 40
0.000000
 41
0.000000
  0
VERTEX
  8
0
  6
CONTINUOUS
 10
3.793680
 20
5.373280
  0
VERTEX
  8
0
  6
CONTINUOUS
 10
4.426400
 20
5.010720
  0
VERTEX
  8
0
  6
CONTINUOUS
 10
4.336200
 20
5.005440
  0
VERTEX
  8
0
  6
CONTINUOUS
 10
3.703040
 20
5.367560
  0
VERTEX
  8
0
  6
CONTINUOUS
 10
3.793680
 20
5.373280
  0
SEQEND
  8
0
  0
SOLID
  8
0
 62
    15
 10
3.703040
 20
5.367560
 11
4.336200
 21
5.005440
 12
3.704360
 22
5.302880
 13
4.337520
 23
4.940760
  0
POLYLINE
  8
0
  6
CONTINUOUS
 66
     1
 40
0.000000
 41
0.000000
  0
VERTEX
  8
0
  6
CONTINUOUS
 10
3.703040
 20
5.367560
  0
VERTEX
  8
0
  6
CONTINUOUS
 10
4.336200
 20
5.005440
  0
VERTEX
  8
0
  6
CONTINUOUS
 10
4.337520
 20
4.940760
  0
VERTEX
  8
0
  6
CONTINUOUS
 10
3.704360
 20
5.302880
  0
VERTEX
  8
0
  6
CONTINUOUS
 10
3.703040
 20
5.367560
  0
SEQEND
  8
0
  0
SOLID
  8
0
 62
    15
 10
3.704360
 20
5.302880
 11
4.337520
 21
4.940760
 12
3.703920
 22
5.243920
 13
4.337080
 23
4.881800
  0
POLYLINE
  8
0
  6
CONTINUOUS
 66
     1
 40
0.000000
 41
0.000000
  0
VERTEX
  8
0
  6
CONTINUOUS
 10
3.704360
 20
5.302880
  0
VERTEX
  8
0
  6
CONTINUOUS
 10
4.337520
 20
4.940760
  0
VERTEX
  8
0
  6
CONTINUOUS
 10
4.337080
 20
4.881800
  0
VERTEX
  8
0
  6
CONTINUOUS
 10
3.703920
 20
5.243920
  0
VERTEX
  8
0
  6
CONTINUOUS
 10
3.704360
 20
5.302880
  0
SEQEND
  8
0
  0
SOLID
  8
0
 62
    15
 10
3.488760
 20
4.782800
 11
4.121480
 21
4.420680
 12
3.262160
 22
4.782800
 13
3.894880
 23
4.420680
  0
POLYLINE
  8
0
  6
CONTINUOUS
 66
     1
 40
0.000000
 41
0.000000
  0
VERTEX
  8
0
  6
CONTINUOUS
 10
3.488760
 20
4.782800
  0
VERTEX
  8
0
  6
CONTINUOUS
 10
4.121480
 20
4.420680
  0
VERTEX
  8
0
  6
CONTINUOUS
 10
3.894880
 20
4.420680
  0
VERTEX
  8
0
  6
CONTINUOUS
 10
3.262160
 20
4.782800
  0
VERTEX
  8
0
  6
CONTINUOUS
 10
3.488760
 20
4.782800
  0
SEQEND
  8
0
  0
SOLID
  8
0
 62
    15
 10
3.701280
 20
5.190680
 11
4.334440
 21
4.828120
 12
3.696880
 22
5.142280
 13
4.330040
 23
4.779720
  0
POLYLINE
  8
0
  6
CONTINUOUS
 66
     1
 40
0.000000
 41
0.000000
  0
VERTEX
  8
0
  6
CONTINUOUS
 10
3.701280
 20
5.190680
  0
VERTEX
  8
0
  6
CONTINUOUS
 10
4.334440
 20
4.828120
  0
VERTEX
  8
0
  6
CONTINUOUS
 10
4.330040
 20
4.779720
  0
VERTEX
  8
0
  6
CONTINUOUS
 10
3.696880
 20
5.142280
  0
VERTEX
  8
0
  6
CONTINUOUS
 10
3.701280
 20
5.190680
  0
SEQEND
  8
0
  0
SOLID
  8
0
 62
    15
 10
3.696880
 20
5.142280
 11
4.330040
 21
4.779720
 12
3.690720
 22
5.098720
 13
4.323880
 23
4.736160
  0
POLYLINE
  8
0
  6
CONTINUOUS
 66
     1
 40
0.000000
 41
0.000000
  0
VERTEX
  8
0
  6
CONTINUOUS
 10
3.696880
 20
5.142280
  0
VERTEX
  8
0
  6
CONTINUOUS
 10
4.330040
 20
4.779720
  0
VERTEX
  8
0
  6
CONTINUOUS
 10
4.323880
 20
4.736160
  0
VERTEX
  8
0
  6
CONTINUOUS
 10
3.690720
 20
5.098720
  0
VERTEX
  8
0
  6
CONTINUOUS
 10
3.696880
 20
5.142280
  0
SEQEND
  8
0
  0
SOLID
  8
0
 62
    15
 10
3.690720
 20
5.098720
 11
4.323880
 21
4.736160
 12
3.682360
 22
5.059560
 13
4.315520
 23
4.697440
  0
POLYLINE
  8
0
  6
CONTINUOUS
 66
     1
 40
0.000000
 41
0.000000
  0
VERTEX
  8
0
  6
CONTINUOUS
 10
3.690720
 20
5.098720
  0
VERTEX
  8
0
  6
CONTINUOUS
 10
4.323880
 20
4.736160
  0
VERTEX
  8
0
  6
CONTINUOUS
 10
4.315520
 20
4.697440
  0
VERTEX
  8
0
  6
CONTINUOUS
 10
3.682360
 20
5.059560
  0
VERTEX
  8
0
  6
CONTINUOUS
 10
3.690720
 20
5.098720
  0
SEQEND
  8
0
  0
SOLID
  8
0
 62
    15
 10
3.682360
 20
5.059560
 11
4.315520
 21
4.697440
 12
3.672240
 22
5.024800
 13
4.305400
 23
4.662680
  0
POLYLINE
  8
0
  6
CONTINUOUS
 66
     1
 40
0.000000
 41
0.000000
  0
VERTEX
  8
0
  6
CONTINUOUS
 10
3.682360
 20
5.059560
  0
VERTEX
  8
0
  6
CONTINUOUS
 10
4.315520
 20
4.697440
  0
VERTEX
  8
0
  6
CONTINUOUS
 10
4.305400
 20
4.662680
  0
VERTEX
  8
0
  6
CONTINUOUS
 10
3.672240
 20
5.024800
  0
VERTEX
  8
0
  6
CONTINUOUS
 10
3.682360
 20
5.059560
  0
SEQEND
  8
0
  0
SOLID
  8
0
 62
    15
 10
3.672240
 20
5.024800
 11
4.305400
 21
4.662680
 12
3.659920
 22
4.994440
 13
4.293080
 23
4.631880
  0
POLYLINE
  8
0
  6
CONTINUOUS
 66
     1
 40
0.000000
 41
0.000000
  0
VERTEX
  8
0
  6
CONTINUOUS
 10
3.672240
 20
5.024800
  0
VERTEX
  8
0
  6
CONTINUOUS
 10
4.305400
 20
4.662680
  0
VERTEX
  8
0
  6
CONTINUOUS
 10
4.293080
 20
4.631880
  0
VERTEX
  8
0
  6
CONTINUOUS
 10
3.659920
 20
4.994440
  0
VERTEX
  8
0
  6
CONTINUOUS
 10
3.672240
 20
5.024800
  0
SEQEND
  8
0
  0
SOLID
  8
0
 62
    15
 10
3.659920
 20
4.994440
 11
4.293080
 21
4.631880
 12
3.645840
 22
4.967600
 13
4.279000
 23
4.605040
  0
POLYLINE
  8
0
  6
CONTINUOUS
 66
     1
 40
0.000000
 41
0.000000
  0
VERTEX
  8
0
  6
CONTINUOUS
 10
3.659920
 20
4.994440
  0
VERTEX
  8
0
  6
CONTINUOUS
 10
4.293080
 20
4.631880
  0
VERTEX
  8
0
  6
CONTINUOUS
 10
4.279000
 20
4.605040
  0
VERTEX
  8
0
  6
CONTINUOUS
 10
3.645840
 20
4.967600
  0
VERTEX
  8
0
  6
CONTINUOUS
 10
3.659920
 20
4.994440
  0
SEQEND
  8
0
  0
SOLID
  8
0
 62
    15
 10
3.645840
 20
4.967600
 11
4.279000
 21
4.605040
 12
3.630000
 22
4.943840
 13
4.262720
 23
4.581720
  0
POLYLINE
  8
0
  6
CONTINUOUS
 66
     1
 40
0.000000
 41
0.000000
  0
VERTEX
  8
0
  6
CONTINUOUS
 10
3.645840
 20
4.967600
  0
VERTEX
  8
0
  6
CONTINUOUS
 10
4.279000
 20
4.605040
  0
VERTEX
  8
0
  6
CONTINUOUS
 10
4.262720
 20
4.581720
  0
VERTEX
  8
0
  6
CONTINUOUS
 10
3.630000
 20
4.943840
  0
VERTEX
  8
0
  6
CONTINUOUS
 10
3.645840
 20
4.967600
  0
SEQEND
  8
0
  0
SOLID
  8
0
 62
    15
 10
3.630000
 20
4.943840
 11
4.262720
 21
4.581720
 12
3.611960
 22
4.924040
 13
4.245120
 23
4.561480
  0
POLYLINE
  8
0
  6
CONTINUOUS
 66
     1
 40
0.000000
 41
0.000000
  0
VERTEX
  8
0
  6
CONTINUOUS
 10
3.630000
 20
4.943840
  0
VERTEX
  8
0
  6
CONTINUOUS
 10
4.262720
 20
4.581720
  0
VERTEX
  8
0
  6
CONTINUOUS
 10
4.245120
 20
4.561480
  0
VERTEX
  8
0
  6
CONTINUOUS
 10
3.611960
 20
4.924040
  0
VERTEX
  8
0
  6
CONTINUOUS
 10
3.630000
 20
4.943840
  0
SEQEND
  8
0
  0
SOLID
  8
0
 62
    15
 10
3.611960
 20
4.924040
 11
4.245120
 21
4.561480
 12
3.592160
 22
4.906440
 13
4.224880
 23
4.544320
  0
POLYLINE
  8
0
  6
CONTINUOUS
 66
     1
 40
0.000000
 41
0.000000
  0
VERTEX
  8
0
  6
CONTINUOUS
 10
3.611960
 20
4.924040
  0
VERTEX
  8
0
  6
CONTINUOUS
 10
4.245120
 20
4.561480
  0
VERTEX
  8
0
  6
CONTINUOUS
 10
4.224880
 20
4.544320
  0
VERTEX
  8
0
  6
CONTINUOUS
 10
3.592160
 20
4.906440
  0
VERTEX
  8
0
  6
CONTINUOUS
 10
3.611960
 20
4.924040
  0
SEQEND
  8
0
  0
SOLID
  8
0
 62
    15
 10
3.592160
 20
4.906440
 11
4.224880
 21
4.544320
 12
3.546400
 22
4.879600
 13
4.179560
 23
4.517480
  0
POLYLINE
  8
0
  6
CONTINUOUS
 66
     1
 40
0.000000
 41
0.000000
  0
VERTEX
  8
0
  6
CONTINUOUS
 10
3.592160
 20
4.906440
  0
VERTEX
  8
0
  6
CONTINUOUS
 10
4.224880
 20
4.544320
  0
VERTEX
  8
0
  6
CONTINUOUS
 10
4.179560
 20
4.517480
  0
VERTEX
  8
0
  6
CONTINUOUS
 10
3.546400
 20
4.879600
  0
VERTEX
  8
0
  6
CONTINUOUS
 10
3.592160
 20
4.906440
  0
SEQEND
  8
0
  0
SOLID
  8
0
 62
    15
 10
3.546400
 20
4.879600
 11
4.179560
 21
4.517480
 12
3.493160
 22
4.861120
 13
4.125880
 23
4.498560
  0
POLYLINE
  8
0
  6
CONTINUOUS
 66
     1
 40
0.000000
 41
0.000000
  0
VERTEX
  8
0
  6
CONTINUOUS
 10
3.546400
 20
4.879600
  0
VERTEX
  8
0
  6
CONTINUOUS
 10
4.179560
 20
4.517480
  0
VERTEX
  8
0
  6
CONTINUOUS
 10
4.125880
 20
4.498560
  0
VERTEX
  8
0
  6
CONTINUOUS
 10
3.493160
 20
4.861120
  0
VERTEX
  8
0
  6
CONTINUOUS
 10
3.546400
 20
4.879600
  0
SEQEND
  8
0
  0
SOLID
  8
0
 62
    15
 10
3.493160
 20
4.861120
 11
4.125880
 21
4.498560
 12
3.488760
 22
4.783240
 13
4.121480
 23
4.421120
  0
POLYLINE
  8
0
  6
CONTINUOUS
 66
     1
 40
0.000000
 41
0.000000
  0
VERTEX
  8
0
  6
CONTINUOUS
 10
3.493160
 20
4.861120
  0
VERTEX
  8
0
  6
CONTINUOUS
 10
4.125880
 20
4.498560
  0
VERTEX
  8
0
  6
CONTINUOUS
 10
4.121480
 20
4.421120
  0
VERTEX
  8
0
  6
CONTINUOUS
 10
3.488760
 20
4.783240
  0
VERTEX
  8
0
  6
CONTINUOUS
 10
3.493160
 20
4.861120
  0
SEQEND
  8
0
  0
SOLID
  8
0
 62
    15
 10
3.488760
 20
4.783240
 11
4.121480
 21
4.421120
 12
3.488760
 22
4.782800
 13
4.121480
 23
4.420680
  0
POLYLINE
  8
0
  6
CONTINUOUS
 66
     1
 40
0.000000
 41
0.000000
  0
VERTEX
  8
0
  6
CONTINUOUS
 10
3.488760
 20
4.783240
  0
VERTEX
  8
0
  6
CONTINUOUS
 10
4.121480
 20
4.421120
  0
VERTEX
  8
0
  6
CONTINUOUS
 10
4.121480
 20
4.420680
  0
VERTEX
  8
0
  6
CONTINUOUS
 10
3.488760
 20
4.782800
  0
VERTEX
  8
0
  6
CONTINUOUS
 10
3.488760
 20
4.783240
  0
SEQEND
  8
0
  0
POLYLINE
  8
0
  6
CONTINUOUS
 66
     1
 40
0.000000
 41
0.000000
  0
VERTEX
  8
0
  6
CONTINUOUS
 10
3.488760
 20
4.782800
  0
VERTEX
  8
0
  6
CONTINUOUS
 10
3.262160
 20
4.782800
  0
VERTEX
  8
0
  6
CONTINUOUS
 10
3.262160
 20
6.292000
  0
VERTEX
  8
0
  6
CONTINUOUS
 10
4.002240
 20
6.292000
  0
VERTEX
  8
0
  6
CONTINUOUS
 10
4.002240
 20
5.775000
  0
VERTEX
  8
0
  6
CONTINUOUS
 10
3.946800
 20
5.748160
  0
VERTEX
  8
0
  6
CONTINUOUS
 10
3.901480
 20
5.715600
  0
VERTEX
  8
0
  6
CONTINUOUS
 10
3.866280
 20
5.676440
  0
VERTEX
  8
0
  6
CONTINUOUS
 10
3.839000
 20
5.630680
  0
VERTEX
  8
0
  6
CONTINUOUS
 10
3.819200
 20
5.577880
  0
VERTEX
  8
0
  6
CONTINUOUS
 10
3.805560
 20
5.517600
  0
VERTEX
  8
0
  6
CONTINUOUS
 10
3.797640
 20
5.449400
  0
VERTEX
  8
0
  6
CONTINUOUS
 10
3.793680
 20
5.373280
  0
VERTEX
  8
0
  6
CONTINUOUS
 10
3.703040
 20
5.367560
  0
VERTEX
  8
0
  6
CONTINUOUS
 10
3.704360
 20
5.302880
  0
VERTEX
  8
0
  6
CONTINUOUS
 10
3.703920
 20
5.243920
  0
VERTEX
  8
0
  6
CONTINUOUS
 10
3.701280
 20
5.190680
  0
VERTEX
  8
0
  6
CONTINUOUS
 10
3.696880
 20
5.142280
  0
VERTEX
  8
0
  6
CONTINUOUS
 10
3.690720
 20
5.098720
  0
VERTEX
  8
0
  6
CONTINUOUS
 10
3.682360
 20
5.059560
  0
VERTEX
  8
0
  6
CONTINUOUS
 10
3.672240
 20
5.024800
  0
VERTEX
  8
0
  6
CONTINUOUS
 10
3.659920
 20
4.994440
  0
VERTEX
  8
0
  6
CONTINUOUS
 10
3.645840
 20
4.967600
  0
VERTEX
  8
0
  6
CONTINUOUS
 10
3.630000
 20
4.943840
  0
VERTEX
  8
0
  6
CONTINUOUS
 10
3.611960
 20
4.924040
  0
VERTEX
  8
0
  6
CONTINUOUS
 10
3.592160
 20
4.906440
  0
VERTEX
  8
0
  6
CONTINUOUS
 10
3.546400
 20
4.879600
  0
VERTEX
  8
0
  6
CONTINUOUS
 10
3.493160
 20
4.861120
  0
VERTEX
  8
0
  6
CONTINUOUS
 10
3.488760
 20
4.783240
  0
VERTEX
  8
0
  6
CONTINUOUS
 10
3.488760
 20
4.782800
  0
SEQEND
  8
0
  0
TEXT
  8
0
 10
4.432560
 20
4.600200
 40
0.138099
  1
BA  1184
 41
1.000000
  7
SN0
 71
     0
 72
     5
 11
5.115722
 21
4.600200
  0
TEXT
  8
0
 10
4.432560
 20
4.408800
 40
0.138099
  1
3/4" x 1-1/2"
 41
1.000000
  7
SN0
 71
     0
 72
     5
 11
5.333667
 21
4.408800
  0
POLYLINE
  8
0
  6
CONTINUOUS
 66
     1
 40
0.014080
 41
0.014080
  0
VERTEX
  8
0
  6
CONTINUOUS
 10
5.155920
 20
6.952000
  0
VERTEX
  8
0
  6
CONTINUOUS
 10
5.078040
 20
6.956400
  0
VERTEX
  8
0
  6
CONTINUOUS
 10
5.064840
 20
6.996880
  0
VERTEX
  8
0
  6
CONTINUOUS
 10
5.047240
 20
7.033400
  0
VERTEX
  8
0
  6
CONTINUOUS
 10
5.032720
 20
7.055400
  0
VERTEX
  8
0
  6
CONTINUOUS
 10
5.005440
 20
7.084440
  0
VERTEX
  8
0
  6
CONTINUOUS
 10
4.971560
 20
7.109080
  0
VERTEX
  8
0
  6
CONTINUOUS
 10
4.944720
 20
7.123160
  0
VERTEX
  8
0
  6
CONTINUOUS
 10
4.914360
 20
7.135480
  0
VERTEX
  8
0
  6
CONTINUOUS
 10
4.860680
 20
7.150000
  0
VERTEX
  8
0
  6
CONTINUOUS
 10
4.819320
 20
7.157480
  0
VERTEX
  8
0
  6
CONTINUOUS
 10
4.773560
 20
7.162760
  0
VERTEX
  8
0
  6
CONTINUOUS
 10
4.695240
 20
7.167160
  0
VERTEX
  8
0
  6
CONTINUOUS
 10
4.604600
 20
7.167160
  0
VERTEX
  8
0
  6
CONTINUOUS
 10
4.571600
 20
7.166280
  0
VERTEX
  8
0
  6
CONTINUOUS
 10
4.565880
 20
7.256920
  0
VERTEX
  8
0
  6
CONTINUOUS
 10
4.526720
 20
7.258240
  0
VERTEX
  8
0
  6
CONTINUOUS
 10
4.454560
 20
7.264400
  0
VERTEX
  8
0
  6
CONTINUOUS
 10
4.390320
 20
7.274960
  0
VERTEX
  8
0
  6
CONTINUOUS
 10
4.361280
 20
7.282440
  0
VERTEX
  8
0
  6
CONTINUOUS
 10
4.334000
 20
7.291680
  0
VERTEX
  8
0
  6
CONTINUOUS
 10
4.296160
 20
7.308400
  0
VERTEX
  8
0
  6
CONTINUOUS
 10
4.262720
 20
7.329520
  0
VERTEX
  8
0
  6
CONTINUOUS
 10
4.242040
 20
7.346240
  0
VERTEX
  8
0
  6
CONTINUOUS
 10
4.214760
 20
7.375280
  0
VERTEX
  8
0
  6
CONTINUOUS
 10
4.191000
 20
7.410040
  0
VERTEX
  8
0
  6
CONTINUOUS
 10
4.170320
 20
7.450520
  0
VERTEX
  8
0
  6
CONTINUOUS
 10
4.164160
 20
7.465480
  0
VERTEX
  8
0
  6
CONTINUOUS
 10
3.647160
 20
7.465480
  0
VERTEX
  8
0
  6
CONTINUOUS
 10
3.647160
 20
6.725400
  0
VERTEX
  8
0
  6
CONTINUOUS
 10
5.156360
 20
6.725400
  0
VERTEX
  8
0
  6
CONTINUOUS
 10
5.155920
 20
6.952000
  0
SEQEND
  8
0
  0
TEXT
  8
0
 10
3.767280
 20
7.026800
 40
0.138099
  1
BA  1184
 41
1.000000
  7
SN0
 71
     0
 72
     5
 11
4.450442
 21
7.026800
  0
TEXT
  8
0
 10
3.767280
 20
6.835400
 40
0.138099
  1
3/4" x 1-1/2"
 41
1.000000
  7
SN0
 71
     0
 72
     5
 11
4.668387
 21
6.835400
  0
TEXT
  8
0
 10
3.614160
 20
7.964880
 40
0.219599
  1
Solid Crown
 41
1.000000
  7
SN0
 71
     0
 72
     5
 11
5.037594
 21
7.964880
  0
ENDSEC
  0
EOF
