  0
SECTION
  2
HEADER
  9
$ACADVER
  1
AC1006
  9
$EXTMIN
 10
3.078680
 20
2.505360
  9
$EXTMAX
 10
4.556200
 20
7.727720
  9
$LTSCALE
 40
0.044000
  9
$PDMODE
 70
    35
  9
$PDSIZE
 40
0.035200
  0
ENDSEC
  0
SECTION
  2
TABLES
  0
TABLE
  2
LTYPE
 70
     9
  0
LTYPE
  2
CONTINUOUS
 70
    64
  3
Solid line
 72
    65
 73
     0
 40
0.000000
  0
LTYPE
  2
DASHED
 70
    64
  3
__ __ __ __ __ __ __ __ __ __ __ __ __ __ __
 72
    65
 73
     2
 40
0.000330
 49
0.000220
 49
-0.000110
  0
LTYPE
  2
HIDDEN
 70
    64
  3
 _ _ _ _ _ _ _ _ _ _ _ _ _ _ _ _ _ _ _ _ _ _
 72
    65
 73
     2
 40
0.000165
 49
0.000110
 49
-0.000055
  0
LTYPE
  2
CENTER
 70
    64
  3
____ _ ____ _ ____ _ ____ _ ____ _ ____ _ ____
 72
    65
 73
     4
 40
0.000880
 49
0.000550
 49
-0.000110
 49
0.000110
 49
-0.000110
  0
LTYPE
  2
PHANTOM
 70
    64
  3
_____ _ _ _____ _ _ _____ _ _ _____ _ _ ____
 72
    65
 73
     6
 40
0.001100
 49
0.000550
 49
-0.000110
 49
0.000110
 49
-0.000110
 49
0.000110
 49
-0.000110
  0
LTYPE
  2
DOT
 70
    64
  3
...............................................
 72
    65
 73
     2
 40
0.000110
 49
0.000000
 49
-0.000110
  0
LTYPE
  2
DASHDOT
 70
    64
  3
__ . __ . __ . __ . __ . __ . __ . __ . __ . __
 72
    65
 73
     4
 40
0.000440
 49
0.000220
 49
-0.000110
 49
0.000000
 49
-0.000110
  0
LTYPE
  2
BORDER
 70
    64
  3
__ __ . __ __ . __ __ . __ __ . __ __ . __ __
 72
    65
 73
     6
 40
0.000770
 49
0.000220
 49
-0.000110
 49
0.000220
 49
-0.000110
 49
0.000000
 49
-0.000110
  0
LTYPE
  2
DIVIDE
 70
    64
  3
__ . . __ . . __ . . __ . . __ . . __ . . __
 72
    65
 73
     6
 40
0.000550
 49
0.000220
 49
-0.000110
 49
0.000000
 49
-0.000110
 49
0.000000
 49
-0.000110
  0
LTYPE
  2
DOTDOT
 70
    64
  3
 . .  . .  . .  . .  . .  . . 
 72
    65
 73
     5
 40
0.000242
 49
-0.000110
 49
0.000000
 49
-0.000110
 49
0.000000
 49
-0.000110
  0
ENDTAB
  0
TABLE
  2
STYLE
 70
     2
  0
STYLE
 70
     0
  2
SN0
 40
0.000000
 41
0.000440
 50
0.000000
 71
     0
 42
0.000000
  3
ROMAND
  0
STYLE
 70
    68
  2
SV0
 40
0.000000
 41
0.000440
 50
0.000000
 71
     0
 42
0.000000
  3
ROMAND
  0
ENDTAB
  0
TABLE
  2
LAYER
 70
     3
  0
LAYER
  2
FOREGROUND
 70
    64
 62
     7
  6
CONTINUOUS
  0
LAYER
  2
BACKGROUND
 70
    65
 62
    -7
  6
CONTINUOUS
  0
LAYER
  2
0
 70
    64
 62
     7
  6
CONTINUOUS
  0
ENDTAB
  0
ENDSEC
  0
SECTION
  2
ENTITIES
  0
POLYLINE
  8
FOREGROUND
  6
CONTINUOUS
 66
     1
 40
0.000000
 41
0.000000
  0
VERTEX
  8
FOREGROUND
  6
CONTINUOUS
 10
0.000000
 20
10.233080
  0
VERTEX
  8
FOREGROUND
  6
CONTINUOUS
 10
8.499920
 20
10.233080
  0
VERTEX
  8
FOREGROUND
  6
CONTINUOUS
 10
8.499920
 20
-0.766920
  0
VERTEX
  8
FOREGROUND
  6
CONTINUOUS
 10
0.000000
 20
-0.766920
  0
VERTEX
  8
FOREGROUND
  6
CONTINUOUS
 10
0.000000
 20
10.233080
  0
SEQEND
  8
0
  0
POLYLINE
  8
FOREGROUND
  6
CONTINUOUS
 66
     1
 40
0.000000
 41
0.000000
  0
VERTEX
  8
FOREGROUND
  6
CONTINUOUS
 10
0.000000
 20
10.233080
  0
VERTEX
  8
FOREGROUND
  6
CONTINUOUS
 10
8.499920
 20
10.233080
  0
VERTEX
  8
FOREGROUND
  6
CONTINUOUS
 10
8.499920
 20
-0.766920
  0
VERTEX
  8
FOREGROUND
  6
CONTINUOUS
 10
0.000000
 20
-0.766920
  0
VERTEX
  8
FOREGROUND
  6
CONTINUOUS
 10
0.000000
 20
10.233080
  0
SEQEND
  8
0
  0
POLYLINE
  8
0
  6
CONTINUOUS
 66
     1
 40
0.000000
 41
0.000000
  0
VERTEX
  8
0
  6
CONTINUOUS
 10
4.548720
 20
2.507120
  0
VERTEX
  8
0
  6
CONTINUOUS
 10
4.548720
 20
2.646600
  0
VERTEX
  8
0
  6
CONTINUOUS
 10
4.514840
 20
2.654080
  0
VERTEX
  8
0
  6
CONTINUOUS
 10
4.501200
 20
2.659360
  0
VERTEX
  8
0
  6
CONTINUOUS
 10
4.477880
 20
2.673440
  0
VERTEX
  8
0
  6
CONTINUOUS
 10
4.468640
 20
2.681800
  0
VERTEX
  8
0
  6
CONTINUOUS
 10
4.454560
 20
2.701600
  0
VERTEX
  8
0
  6
CONTINUOUS
 10
4.448840
 20
2.713040
  0
VERTEX
  8
0
  6
CONTINUOUS
 10
4.441360
 20
2.739440
  0
VERTEX
  8
0
  6
CONTINUOUS
 10
4.436960
 20
2.769800
  0
VERTEX
  8
0
  6
CONTINUOUS
 10
4.434320
 20
2.823920
  0
VERTEX
  8
0
  6
CONTINUOUS
 10
4.348960
 20
2.823920
  0
VERTEX
  8
0
  6
CONTINUOUS
 10
4.338400
 20
2.851640
  0
VERTEX
  8
0
  6
CONTINUOUS
 10
4.324760
 20
2.874960
  0
VERTEX
  8
0
  6
CONTINUOUS
 10
4.308920
 20
2.894320
  0
VERTEX
  8
0
  6
CONTINUOUS
 10
4.291320
 20
2.909280
  0
VERTEX
  8
0
  6
CONTINUOUS
 10
4.271520
 20
2.919840
  0
VERTEX
  8
0
  6
CONTINUOUS
 10
4.250840
 20
2.926880
  0
VERTEX
  8
0
  6
CONTINUOUS
 10
4.229720
 20
2.929960
  0
VERTEX
  8
0
  6
CONTINUOUS
 10
4.207720
 20
2.929080
  0
VERTEX
  8
0
  6
CONTINUOUS
 10
4.185720
 20
2.924240
  0
VERTEX
  8
0
  6
CONTINUOUS
 10
4.164600
 20
2.916320
  0
VERTEX
  8
0
  6
CONTINUOUS
 10
4.134240
 20
2.897400
  0
VERTEX
  8
0
  6
CONTINUOUS
 10
4.107840
 20
2.870560
  0
VERTEX
  8
0
  6
CONTINUOUS
 10
4.092440
 20
2.849000
  0
VERTEX
  8
0
  6
CONTINUOUS
 10
4.079680
 20
2.823920
  0
VERTEX
  8
0
  6
CONTINUOUS
 10
4.070000
 20
2.795760
  0
VERTEX
  8
0
  6
CONTINUOUS
 10
3.981560
 20
2.796640
  0
VERTEX
  8
0
  6
CONTINUOUS
 10
3.975840
 20
2.769800
  0
VERTEX
  8
0
  6
CONTINUOUS
 10
3.967480
 20
2.752200
  0
VERTEX
  8
0
  6
CONTINUOUS
 10
3.955160
 20
2.735480
  0
VERTEX
  8
0
  6
CONTINUOUS
 10
3.938440
 20
2.720080
  0
VERTEX
  8
0
  6
CONTINUOUS
 10
3.916880
 20
2.707320
  0
VERTEX
  8
0
  6
CONTINUOUS
 10
3.890480
 20
2.697640
  0
VERTEX
  8
0
  6
CONTINUOUS
 10
3.857920
 20
2.691040
  0
VERTEX
  8
0
  6
CONTINUOUS
 10
3.817000
 20
2.688400
  0
VERTEX
  8
0
  6
CONTINUOUS
 10
3.597440
 20
2.683560
  0
VERTEX
  8
0
  6
CONTINUOUS
 10
3.495360
 20
2.684440
  0
VERTEX
  8
0
  6
CONTINUOUS
 10
3.454000
 20
2.688400
  0
VERTEX
  8
0
  6
CONTINUOUS
 10
3.451800
 20
2.709960
  0
VERTEX
  8
0
  6
CONTINUOUS
 10
3.446080
 20
2.729320
  0
VERTEX
  8
0
  6
CONTINUOUS
 10
3.436840
 20
2.745600
  0
VERTEX
  8
0
  6
CONTINUOUS
 10
3.417920
 20
2.764960
  0
VERTEX
  8
0
  6
CONTINUOUS
 10
3.394600
 20
2.777720
  0
VERTEX
  8
0
  6
CONTINUOUS
 10
3.368640
 20
2.783880
  0
VERTEX
  8
0
  6
CONTINUOUS
 10
3.351480
 20
2.783880
  0
VERTEX
  8
0
  6
CONTINUOUS
 10
3.333880
 20
2.781240
  0
VERTEX
  8
0
  6
CONTINUOUS
 10
3.310120
 20
2.771120
  0
VERTEX
  8
0
  6
CONTINUOUS
 10
3.296040
 20
2.760120
  0
VERTEX
  8
0
  6
CONTINUOUS
 10
3.284160
 20
2.746040
  0
VERTEX
  8
0
  6
CONTINUOUS
 10
3.274920
 20
2.728440
  0
VERTEX
  8
0
  6
CONTINUOUS
 10
3.269200
 20
2.707760
  0
VERTEX
  8
0
  6
CONTINUOUS
 10
3.267440
 20
2.683120
  0
VERTEX
  8
0
  6
CONTINUOUS
 10
3.186040
 20
2.683120
  0
VERTEX
  8
0
  6
CONTINUOUS
 10
3.178560
 20
2.656720
  0
VERTEX
  8
0
  6
CONTINUOUS
 10
3.171960
 20
2.642200
  0
VERTEX
  8
0
  6
CONTINUOUS
 10
3.157440
 20
2.625480
  0
VERTEX
  8
0
  6
CONTINUOUS
 10
3.144240
 20
2.617120
  0
VERTEX
  8
0
  6
CONTINUOUS
 10
3.128400
 20
2.611400
  0
VERTEX
  8
0
  6
CONTINUOUS
 10
3.098040
 20
2.607440
  0
VERTEX
  8
0
  6
CONTINUOUS
 10
3.086160
 20
2.607000
  0
VERTEX
  8
0
  6
CONTINUOUS
 10
3.086160
 20
2.505360
  0
VERTEX
  8
0
  6
CONTINUOUS
 10
4.548720
 20
2.505360
  0
VERTEX
  8
0
  6
CONTINUOUS
 10
4.548720
 20
2.507120
  0
SEQEND
  8
0
  0
POLYLINE
  8
0
  6
CONTINUOUS
 66
     1
 40
0.000000
 41
0.000000
  0
VERTEX
  8
0
  6
CONTINUOUS
 10
3.086160
 20
3.534960
  0
VERTEX
  8
0
  6
CONTINUOUS
 10
3.086160
 20
3.674880
  0
VERTEX
  8
0
  6
CONTINUOUS
 10
3.120040
 20
3.682360
  0
VERTEX
  8
0
  6
CONTINUOUS
 10
3.134120
 20
3.687640
  0
VERTEX
  8
0
  6
CONTINUOUS
 10
3.157000
 20
3.701720
  0
VERTEX
  8
0
  6
CONTINUOUS
 10
3.174160
 20
3.719320
  0
VERTEX
  8
0
  6
CONTINUOUS
 10
3.186040
 20
3.741320
  0
VERTEX
  8
0
  6
CONTINUOUS
 10
3.193960
 20
3.767720
  0
VERTEX
  8
0
  6
CONTINUOUS
 10
3.198360
 20
3.798080
  0
VERTEX
  8
0
  6
CONTINUOUS
 10
3.201000
 20
3.852200
  0
VERTEX
  8
0
  6
CONTINUOUS
 10
3.285920
 20
3.852200
  0
VERTEX
  8
0
  6
CONTINUOUS
 10
3.296480
 20
3.879920
  0
VERTEX
  8
0
  6
CONTINUOUS
 10
3.310120
 20
3.903240
  0
VERTEX
  8
0
  6
CONTINUOUS
 10
3.325960
 20
3.922160
  0
VERTEX
  8
0
  6
CONTINUOUS
 10
3.353240
 20
3.943280
  0
VERTEX
  8
0
  6
CONTINUOUS
 10
3.373480
 20
3.952080
  0
VERTEX
  8
0
  6
CONTINUOUS
 10
3.394600
 20
3.956920
  0
VERTEX
  8
0
  6
CONTINUOUS
 10
3.416600
 20
3.957800
  0
VERTEX
  8
0
  6
CONTINUOUS
 10
3.438160
 20
3.955160
  0
VERTEX
  8
0
  6
CONTINUOUS
 10
3.460160
 20
3.949000
  0
VERTEX
  8
0
  6
CONTINUOUS
 10
3.490960
 20
3.932720
  0
VERTEX
  8
0
  6
CONTINUOUS
 10
3.509880
 20
3.917320
  0
VERTEX
  8
0
  6
CONTINUOUS
 10
3.527480
 20
3.898840
  0
VERTEX
  8
0
  6
CONTINUOUS
 10
3.542880
 20
3.877280
  0
VERTEX
  8
0
  6
CONTINUOUS
 10
3.555640
 20
3.852200
  0
VERTEX
  8
0
  6
CONTINUOUS
 10
3.565320
 20
3.824040
  0
VERTEX
  8
0
  6
CONTINUOUS
 10
3.653320
 20
3.824480
  0
VERTEX
  8
0
  6
CONTINUOUS
 10
3.656400
 20
3.806880
  0
VERTEX
  8
0
  6
CONTINUOUS
 10
3.663000
 20
3.788840
  0
VERTEX
  8
0
  6
CONTINUOUS
 10
3.673120
 20
3.771680
  0
VERTEX
  8
0
  6
CONTINUOUS
 10
3.687640
 20
3.755840
  0
VERTEX
  8
0
  6
CONTINUOUS
 10
3.706560
 20
3.741760
  0
VERTEX
  8
0
  6
CONTINUOUS
 10
3.730760
 20
3.730320
  0
VERTEX
  8
0
  6
CONTINUOUS
 10
3.760240
 20
3.721520
  0
VERTEX
  8
0
  6
CONTINUOUS
 10
3.795440
 20
3.717120
  0
VERTEX
  8
0
  6
CONTINUOUS
 10
3.970120
 20
3.712280
  0
VERTEX
  8
0
  6
CONTINUOUS
 10
4.100360
 20
3.711400
  0
VERTEX
  8
0
  6
CONTINUOUS
 10
4.160640
 20
3.713600
  0
VERTEX
  8
0
  6
CONTINUOUS
 10
4.181320
 20
3.716240
  0
VERTEX
  8
0
  6
CONTINUOUS
 10
4.183520
 20
3.738240
  0
VERTEX
  8
0
  6
CONTINUOUS
 10
4.189240
 20
3.757160
  0
VERTEX
  8
0
  6
CONTINUOUS
 10
4.198480
 20
3.773440
  0
VERTEX
  8
0
  6
CONTINUOUS
 10
4.217400
 20
3.792800
  0
VERTEX
  8
0
  6
CONTINUOUS
 10
4.240720
 20
3.805560
  0
VERTEX
  8
0
  6
CONTINUOUS
 10
4.257440
 20
3.810400
  0
VERTEX
  8
0
  6
CONTINUOUS
 10
4.275040
 20
3.812160
  0
VERTEX
  8
0
  6
CONTINUOUS
 10
4.292640
 20
3.811280
  0
VERTEX
  8
0
  6
CONTINUOUS
 10
4.309360
 20
3.806880
  0
VERTEX
  8
0
  6
CONTINUOUS
 10
4.332680
 20
3.794120
  0
VERTEX
  8
0
  6
CONTINUOUS
 10
4.351160
 20
3.774320
  0
VERTEX
  8
0
  6
CONTINUOUS
 10
4.360400
 20
3.756720
  0
VERTEX
  8
0
  6
CONTINUOUS
 10
4.366120
 20
3.735600
  0
VERTEX
  8
0
  6
CONTINUOUS
 10
4.367880
 20
3.711400
  0
VERTEX
  8
0
  6
CONTINUOUS
 10
4.449280
 20
3.711400
  0
VERTEX
  8
0
  6
CONTINUOUS
 10
4.456320
 20
3.684560
  0
VERTEX
  8
0
  6
CONTINUOUS
 10
4.467320
 20
3.663880
  0
VERTEX
  8
0
  6
CONTINUOUS
 10
4.477880
 20
3.653320
  0
VERTEX
  8
0
  6
CONTINUOUS
 10
4.490640
 20
3.644960
  0
VERTEX
  8
0
  6
CONTINUOUS
 10
4.506480
 20
3.639240
  0
VERTEX
  8
0
  6
CONTINUOUS
 10
4.536840
 20
3.635280
  0
VERTEX
  8
0
  6
CONTINUOUS
 10
4.548720
 20
3.634840
  0
VERTEX
  8
0
  6
CONTINUOUS
 10
4.548720
 20
3.533640
  0
VERTEX
  8
0
  6
CONTINUOUS
 10
3.086160
 20
3.533640
  0
VERTEX
  8
0
  6
CONTINUOUS
 10
3.086160
 20
3.534960
  0
SEQEND
  8
0
  0
SOLID
  8
0
 62
    15
 10
3.761120
 20
5.199920
 11
3.759360
 21
5.948360
 12
3.796320
 22
5.195520
 13
3.795000
 23
5.943520
  0
POLYLINE
  8
0
  6
CONTINUOUS
 66
     1
 40
0.000000
 41
0.000000
  0
VERTEX
  8
0
  6
CONTINUOUS
 10
3.761120
 20
5.199920
  0
VERTEX
  8
0
  6
CONTINUOUS
 10
3.759360
 20
5.948360
  0
VERTEX
  8
0
  6
CONTINUOUS
 10
3.795000
 20
5.943520
  0
VERTEX
  8
0
  6
CONTINUOUS
 10
3.796320
 20
5.195520
  0
VERTEX
  8
0
  6
CONTINUOUS
 10
3.761120
 20
5.199920
  0
SEQEND
  8
0
  0
SOLID
  8
0
 62
    15
 10
3.087040
 20
5.013360
 11
3.085280
 21
5.761800
 12
3.087040
 22
5.152840
 13
3.085280
 23
5.901280
  0
POLYLINE
  8
0
  6
CONTINUOUS
 66
     1
 40
0.000000
 41
0.000000
  0
VERTEX
  8
0
  6
CONTINUOUS
 10
3.087040
 20
5.013360
  0
VERTEX
  8
0
  6
CONTINUOUS
 10
3.085280
 20
5.761800
  0
VERTEX
  8
0
  6
CONTINUOUS
 10
3.085280
 20
5.901280
  0
VERTEX
  8
0
  6
CONTINUOUS
 10
3.087040
 20
5.152840
  0
VERTEX
  8
0
  6
CONTINUOUS
 10
3.087040
 20
5.013360
  0
SEQEND
  8
0
  0
SOLID
  8
0
 62
    15
 10
3.105080
 20
5.156360
 11
3.103320
 21
5.904360
 12
3.120920
 22
5.160760
 13
3.119160
 23
5.908760
  0
POLYLINE
  8
0
  6
CONTINUOUS
 66
     1
 40
0.000000
 41
0.000000
  0
VERTEX
  8
0
  6
CONTINUOUS
 10
3.105080
 20
5.156360
  0
VERTEX
  8
0
  6
CONTINUOUS
 10
3.103320
 20
5.904360
  0
VERTEX
  8
0
  6
CONTINUOUS
 10
3.119160
 20
5.908760
  0
VERTEX
  8
0
  6
CONTINUOUS
 10
3.120920
 20
5.160760
  0
VERTEX
  8
0
  6
CONTINUOUS
 10
3.105080
 20
5.156360
  0
SEQEND
  8
0
  0
SOLID
  8
0
 62
    15
 10
3.120920
 20
5.160760
 11
3.119160
 21
5.908760
 12
3.135000
 22
5.166040
 13
3.133240
 23
5.914040
  0
POLYLINE
  8
0
  6
CONTINUOUS
 66
     1
 40
0.000000
 41
0.000000
  0
VERTEX
  8
0
  6
CONTINUOUS
 10
3.120920
 20
5.160760
  0
VERTEX
  8
0
  6
CONTINUOUS
 10
3.119160
 20
5.908760
  0
VERTEX
  8
0
  6
CONTINUOUS
 10
3.133240
 20
5.914040
  0
VERTEX
  8
0
  6
CONTINUOUS
 10
3.135000
 20
5.166040
  0
VERTEX
  8
0
  6
CONTINUOUS
 10
3.120920
 20
5.160760
  0
SEQEND
  8
0
  0
SOLID
  8
0
 62
    15
 10
3.135000
 20
5.166040
 11
3.133240
 21
5.914040
 12
3.147320
 22
5.172200
 13
3.145560
 23
5.920640
  0
POLYLINE
  8
0
  6
CONTINUOUS
 66
     1
 40
0.000000
 41
0.000000
  0
VERTEX
  8
0
  6
CONTINUOUS
 10
3.135000
 20
5.166040
  0
VERTEX
  8
0
  6
CONTINUOUS
 10
3.133240
 20
5.914040
  0
VERTEX
  8
0
  6
CONTINUOUS
 10
3.145560
 20
5.920640
  0
VERTEX
  8
0
  6
CONTINUOUS
 10
3.147320
 20
5.172200
  0
VERTEX
  8
0
  6
CONTINUOUS
 10
3.135000
 20
5.166040
  0
SEQEND
  8
0
  0
SOLID
  8
0
 62
    15
 10
3.147320
 20
5.172200
 11
3.145560
 21
5.920640
 12
3.167120
 22
5.188040
 13
3.165360
 23
5.936480
  0
POLYLINE
  8
0
  6
CONTINUOUS
 66
     1
 40
0.000000
 41
0.000000
  0
VERTEX
  8
0
  6
CONTINUOUS
 10
3.147320
 20
5.172200
  0
VERTEX
  8
0
  6
CONTINUOUS
 10
3.145560
 20
5.920640
  0
VERTEX
  8
0
  6
CONTINUOUS
 10
3.165360
 20
5.936480
  0
VERTEX
  8
0
  6
CONTINUOUS
 10
3.167120
 20
5.188040
  0
VERTEX
  8
0
  6
CONTINUOUS
 10
3.147320
 20
5.172200
  0
SEQEND
  8
0
  0
SOLID
  8
0
 62
    15
 10
3.167120
 20
5.188040
 11
3.165360
 21
5.936480
 12
3.181640
 22
5.207840
 13
3.179880
 23
5.956280
  0
POLYLINE
  8
0
  6
CONTINUOUS
 66
     1
 40
0.000000
 41
0.000000
  0
VERTEX
  8
0
  6
CONTINUOUS
 10
3.167120
 20
5.188040
  0
VERTEX
  8
0
  6
CONTINUOUS
 10
3.165360
 20
5.936480
  0
VERTEX
  8
0
  6
CONTINUOUS
 10
3.179880
 20
5.956280
  0
VERTEX
  8
0
  6
CONTINUOUS
 10
3.181640
 20
5.207840
  0
VERTEX
  8
0
  6
CONTINUOUS
 10
3.167120
 20
5.188040
  0
SEQEND
  8
0
  0
SOLID
  8
0
 62
    15
 10
3.181640
 20
5.207840
 11
3.179880
 21
5.956280
 12
3.191320
 22
5.232040
 13
3.189560
 23
5.980480
  0
POLYLINE
  8
0
  6
CONTINUOUS
 66
     1
 40
0.000000
 41
0.000000
  0
VERTEX
  8
0
  6
CONTINUOUS
 10
3.181640
 20
5.207840
  0
VERTEX
  8
0
  6
CONTINUOUS
 10
3.179880
 20
5.956280
  0
VERTEX
  8
0
  6
CONTINUOUS
 10
3.189560
 20
5.980480
  0
VERTEX
  8
0
  6
CONTINUOUS
 10
3.191320
 20
5.232040
  0
VERTEX
  8
0
  6
CONTINUOUS
 10
3.181640
 20
5.207840
  0
SEQEND
  8
0
  0
SOLID
  8
0
 62
    15
 10
3.191320
 20
5.232040
 11
3.189560
 21
5.980480
 12
3.197480
 22
5.260640
 13
3.195720
 23
6.008640
  0
POLYLINE
  8
0
  6
CONTINUOUS
 66
     1
 40
0.000000
 41
0.000000
  0
VERTEX
  8
0
  6
CONTINUOUS
 10
3.191320
 20
5.232040
  0
VERTEX
  8
0
  6
CONTINUOUS
 10
3.189560
 20
5.980480
  0
VERTEX
  8
0
  6
CONTINUOUS
 10
3.195720
 20
6.008640
  0
VERTEX
  8
0
  6
CONTINUOUS
 10
3.197480
 20
5.260640
  0
VERTEX
  8
0
  6
CONTINUOUS
 10
3.191320
 20
5.232040
  0
SEQEND
  8
0
  0
SOLID
  8
0
 62
    15
 10
3.197480
 20
5.260640
 11
3.195720
 21
6.008640
 12
3.200560
 22
5.293200
 13
3.198800
 23
6.041640
  0
POLYLINE
  8
0
  6
CONTINUOUS
 66
     1
 40
0.000000
 41
0.000000
  0
VERTEX
  8
0
  6
CONTINUOUS
 10
3.197480
 20
5.260640
  0
VERTEX
  8
0
  6
CONTINUOUS
 10
3.195720
 20
6.008640
  0
VERTEX
  8
0
  6
CONTINUOUS
 10
3.198800
 20
6.041640
  0
VERTEX
  8
0
  6
CONTINUOUS
 10
3.200560
 20
5.293200
  0
VERTEX
  8
0
  6
CONTINUOUS
 10
3.197480
 20
5.260640
  0
SEQEND
  8
0
  0
SOLID
  8
0
 62
    15
 10
3.200560
 20
5.293200
 11
3.198800
 21
6.041640
 12
3.201440
 22
5.330160
 13
3.200120
 23
6.078600
  0
POLYLINE
  8
0
  6
CONTINUOUS
 66
     1
 40
0.000000
 41
0.000000
  0
VERTEX
  8
0
  6
CONTINUOUS
 10
3.200560
 20
5.293200
  0
VERTEX
  8
0
  6
CONTINUOUS
 10
3.198800
 20
6.041640
  0
VERTEX
  8
0
  6
CONTINUOUS
 10
3.200120
 20
6.078600
  0
VERTEX
  8
0
  6
CONTINUOUS
 10
3.201440
 20
5.330160
  0
VERTEX
  8
0
  6
CONTINUOUS
 10
3.200560
 20
5.293200
  0
SEQEND
  8
0
  0
SOLID
  8
0
 62
    15
 10
3.201440
 20
5.330160
 11
3.200120
 21
6.078600
 12
3.286800
 22
5.330160
 13
3.285480
 23
6.078600
  0
POLYLINE
  8
0
  6
CONTINUOUS
 66
     1
 40
0.000000
 41
0.000000
  0
VERTEX
  8
0
  6
CONTINUOUS
 10
3.201440
 20
5.330160
  0
VERTEX
  8
0
  6
CONTINUOUS
 10
3.200120
 20
6.078600
  0
VERTEX
  8
0
  6
CONTINUOUS
 10
3.285480
 20
6.078600
  0
VERTEX
  8
0
  6
CONTINUOUS
 10
3.286800
 20
5.330160
  0
VERTEX
  8
0
  6
CONTINUOUS
 10
3.201440
 20
5.330160
  0
SEQEND
  8
0
  0
SOLID
  8
0
 62
    15
 10
3.286800
 20
5.330160
 11
3.285480
 21
6.078600
 12
3.297360
 22
5.357880
 13
3.296040
 23
6.106320
  0
POLYLINE
  8
0
  6
CONTINUOUS
 66
     1
 40
0.000000
 41
0.000000
  0
VERTEX
  8
0
  6
CONTINUOUS
 10
3.286800
 20
5.330160
  0
VERTEX
  8
0
  6
CONTINUOUS
 10
3.285480
 20
6.078600
  0
VERTEX
  8
0
  6
CONTINUOUS
 10
3.296040
 20
6.106320
  0
VERTEX
  8
0
  6
CONTINUOUS
 10
3.297360
 20
5.357880
  0
VERTEX
  8
0
  6
CONTINUOUS
 10
3.286800
 20
5.330160
  0
SEQEND
  8
0
  0
SOLID
  8
0
 62
    15
 10
3.297360
 20
5.357880
 11
3.296040
 21
6.106320
 12
3.311000
 22
5.381200
 13
3.309240
 23
6.129640
  0
POLYLINE
  8
0
  6
CONTINUOUS
 66
     1
 40
0.000000
 41
0.000000
  0
VERTEX
  8
0
  6
CONTINUOUS
 10
3.297360
 20
5.357880
  0
VERTEX
  8
0
  6
CONTINUOUS
 10
3.296040
 20
6.106320
  0
VERTEX
  8
0
  6
CONTINUOUS
 10
3.309240
 20
6.129640
  0
VERTEX
  8
0
  6
CONTINUOUS
 10
3.311000
 20
5.381200
  0
VERTEX
  8
0
  6
CONTINUOUS
 10
3.297360
 20
5.357880
  0
SEQEND
  8
0
  0
SOLID
  8
0
 62
    15
 10
3.311000
 20
5.381200
 11
3.309240
 21
6.129640
 12
3.326840
 22
5.400560
 13
3.325080
 23
6.148560
  0
POLYLINE
  8
0
  6
CONTINUOUS
 66
     1
 40
0.000000
 41
0.000000
  0
VERTEX
  8
0
  6
CONTINUOUS
 10
3.311000
 20
5.381200
  0
VERTEX
  8
0
  6
CONTINUOUS
 10
3.309240
 20
6.129640
  0
VERTEX
  8
0
  6
CONTINUOUS
 10
3.325080
 20
6.148560
  0
VERTEX
  8
0
  6
CONTINUOUS
 10
3.326840
 20
5.400560
  0
VERTEX
  8
0
  6
CONTINUOUS
 10
3.311000
 20
5.381200
  0
SEQEND
  8
0
  0
SOLID
  8
0
 62
    15
 10
3.326840
 20
5.400560
 11
3.325080
 21
6.148560
 12
3.344880
 22
5.415520
 13
3.343120
 23
6.163520
  0
POLYLINE
  8
0
  6
CONTINUOUS
 66
     1
 40
0.000000
 41
0.000000
  0
VERTEX
  8
0
  6
CONTINUOUS
 10
3.326840
 20
5.400560
  0
VERTEX
  8
0
  6
CONTINUOUS
 10
3.325080
 20
6.148560
  0
VERTEX
  8
0
  6
CONTINUOUS
 10
3.343120
 20
6.163520
  0
VERTEX
  8
0
  6
CONTINUOUS
 10
3.344880
 20
5.415520
  0
VERTEX
  8
0
  6
CONTINUOUS
 10
3.326840
 20
5.400560
  0
SEQEND
  8
0
  0
SOLID
  8
0
 62
    15
 10
3.344880
 20
5.415520
 11
3.343120
 21
6.163520
 12
3.364240
 22
5.426080
 13
3.362480
 23
6.174520
  0
POLYLINE
  8
0
  6
CONTINUOUS
 66
     1
 40
0.000000
 41
0.000000
  0
VERTEX
  8
0
  6
CONTINUOUS
 10
3.344880
 20
5.415520
  0
VERTEX
  8
0
  6
CONTINUOUS
 10
3.343120
 20
6.163520
  0
VERTEX
  8
0
  6
CONTINUOUS
 10
3.362480
 20
6.174520
  0
VERTEX
  8
0
  6
CONTINUOUS
 10
3.364240
 20
5.426080
  0
VERTEX
  8
0
  6
CONTINUOUS
 10
3.344880
 20
5.415520
  0
SEQEND
  8
0
  0
SOLID
  8
0
 62
    15
 10
3.364240
 20
5.426080
 11
3.362480
 21
6.174520
 12
3.384920
 22
5.433120
 13
3.383160
 23
6.181120
  0
POLYLINE
  8
0
  6
CONTINUOUS
 66
     1
 40
0.000000
 41
0.000000
  0
VERTEX
  8
0
  6
CONTINUOUS
 10
3.364240
 20
5.426080
  0
VERTEX
  8
0
  6
CONTINUOUS
 10
3.362480
 20
6.174520
  0
VERTEX
  8
0
  6
CONTINUOUS
 10
3.383160
 20
6.181120
  0
VERTEX
  8
0
  6
CONTINUOUS
 10
3.384920
 20
5.433120
  0
VERTEX
  8
0
  6
CONTINUOUS
 10
3.364240
 20
5.426080
  0
SEQEND
  8
0
  0
SOLID
  8
0
 62
    15
 10
3.384920
 20
5.433120
 11
3.383160
 21
6.181120
 12
3.406480
 22
5.436200
 13
3.404720
 23
6.184200
  0
POLYLINE
  8
0
  6
CONTINUOUS
 66
     1
 40
0.000000
 41
0.000000
  0
VERTEX
  8
0
  6
CONTINUOUS
 10
3.384920
 20
5.433120
  0
VERTEX
  8
0
  6
CONTINUOUS
 10
3.383160
 20
6.181120
  0
VERTEX
  8
0
  6
CONTINUOUS
 10
3.404720
 20
6.184200
  0
VERTEX
  8
0
  6
CONTINUOUS
 10
3.406480
 20
5.436200
  0
VERTEX
  8
0
  6
CONTINUOUS
 10
3.384920
 20
5.433120
  0
SEQEND
  8
0
  0
SOLID
  8
0
 62
    15
 10
3.406480
 20
5.436200
 11
3.404720
 21
6.184200
 12
3.428480
 22
5.435320
 13
3.426720
 23
6.183320
  0
POLYLINE
  8
0
  6
CONTINUOUS
 66
     1
 40
0.000000
 41
0.000000
  0
VERTEX
  8
0
  6
CONTINUOUS
 10
3.406480
 20
5.436200
  0
VERTEX
  8
0
  6
CONTINUOUS
 10
3.404720
 20
6.184200
  0
VERTEX
  8
0
  6
CONTINUOUS
 10
3.426720
 20
6.183320
  0
VERTEX
  8
0
  6
CONTINUOUS
 10
3.428480
 20
5.435320
  0
VERTEX
  8
0
  6
CONTINUOUS
 10
3.406480
 20
5.436200
  0
SEQEND
  8
0
  0
SOLID
  8
0
 62
    15
 10
3.428480
 20
5.435320
 11
3.426720
 21
6.183320
 12
3.450040
 22
5.430920
 13
3.448280
 23
6.178920
  0
POLYLINE
  8
0
  6
CONTINUOUS
 66
     1
 40
0.000000
 41
0.000000
  0
VERTEX
  8
0
  6
CONTINUOUS
 10
3.428480
 20
5.435320
  0
VERTEX
  8
0
  6
CONTINUOUS
 10
3.426720
 20
6.183320
  0
VERTEX
  8
0
  6
CONTINUOUS
 10
3.448280
 20
6.178920
  0
VERTEX
  8
0
  6
CONTINUOUS
 10
3.450040
 20
5.430920
  0
VERTEX
  8
0
  6
CONTINUOUS
 10
3.428480
 20
5.435320
  0
SEQEND
  8
0
  0
SOLID
  8
0
 62
    15
 10
3.450040
 20
5.430920
 11
3.448280
 21
6.178920
 12
3.471160
 22
5.422560
 13
3.469840
 23
6.170560
  0
POLYLINE
  8
0
  6
CONTINUOUS
 66
     1
 40
0.000000
 41
0.000000
  0
VERTEX
  8
0
  6
CONTINUOUS
 10
3.450040
 20
5.430920
  0
VERTEX
  8
0
  6
CONTINUOUS
 10
3.448280
 20
6.178920
  0
VERTEX
  8
0
  6
CONTINUOUS
 10
3.469840
 20
6.170560
  0
VERTEX
  8
0
  6
CONTINUOUS
 10
3.471160
 20
5.422560
  0
VERTEX
  8
0
  6
CONTINUOUS
 10
3.450040
 20
5.430920
  0
SEQEND
  8
0
  0
SOLID
  8
0
 62
    15
 10
3.471160
 20
5.422560
 11
3.469840
 21
6.170560
 12
3.491840
 22
5.410680
 13
3.490080
 23
6.159120
  0
POLYLINE
  8
0
  6
CONTINUOUS
 66
     1
 40
0.000000
 41
0.000000
  0
VERTEX
  8
0
  6
CONTINUOUS
 10
3.471160
 20
5.422560
  0
VERTEX
  8
0
  6
CONTINUOUS
 10
3.469840
 20
6.170560
  0
VERTEX
  8
0
  6
CONTINUOUS
 10
3.490080
 20
6.159120
  0
VERTEX
  8
0
  6
CONTINUOUS
 10
3.491840
 20
5.410680
  0
VERTEX
  8
0
  6
CONTINUOUS
 10
3.471160
 20
5.422560
  0
SEQEND
  8
0
  0
SOLID
  8
0
 62
    15
 10
3.491840
 20
5.410680
 11
3.490080
 21
6.159120
 12
3.510760
 22
5.395720
 13
3.509440
 23
6.143720
  0
POLYLINE
  8
0
  6
CONTINUOUS
 66
     1
 40
0.000000
 41
0.000000
  0
VERTEX
  8
0
  6
CONTINUOUS
 10
3.491840
 20
5.410680
  0
VERTEX
  8
0
  6
CONTINUOUS
 10
3.490080
 20
6.159120
  0
VERTEX
  8
0
  6
CONTINUOUS
 10
3.509440
 20
6.143720
  0
VERTEX
  8
0
  6
CONTINUOUS
 10
3.510760
 20
5.395720
  0
VERTEX
  8
0
  6
CONTINUOUS
 10
3.491840
 20
5.410680
  0
SEQEND
  8
0
  0
SOLID
  8
0
 62
    15
 10
3.510760
 20
5.395720
 11
3.509440
 21
6.143720
 12
3.528360
 22
5.377240
 13
3.526600
 23
6.125240
  0
POLYLINE
  8
0
  6
CONTINUOUS
 66
     1
 40
0.000000
 41
0.000000
  0
VERTEX
  8
0
  6
CONTINUOUS
 10
3.510760
 20
5.395720
  0
VERTEX
  8
0
  6
CONTINUOUS
 10
3.509440
 20
6.143720
  0
VERTEX
  8
0
  6
CONTINUOUS
 10
3.526600
 20
6.125240
  0
VERTEX
  8
0
  6
CONTINUOUS
 10
3.528360
 20
5.377240
  0
VERTEX
  8
0
  6
CONTINUOUS
 10
3.510760
 20
5.395720
  0
SEQEND
  8
0
  0
SOLID
  8
0
 62
    15
 10
3.528360
 20
5.377240
 11
3.526600
 21
6.125240
 12
3.543760
 22
5.355240
 13
3.542000
 23
6.103240
  0
POLYLINE
  8
0
  6
CONTINUOUS
 66
     1
 40
0.000000
 41
0.000000
  0
VERTEX
  8
0
  6
CONTINUOUS
 10
3.528360
 20
5.377240
  0
VERTEX
  8
0
  6
CONTINUOUS
 10
3.526600
 20
6.125240
  0
VERTEX
  8
0
  6
CONTINUOUS
 10
3.542000
 20
6.103240
  0
VERTEX
  8
0
  6
CONTINUOUS
 10
3.543760
 20
5.355240
  0
VERTEX
  8
0
  6
CONTINUOUS
 10
3.528360
 20
5.377240
  0
SEQEND
  8
0
  0
SOLID
  8
0
 62
    15
 10
3.543760
 20
5.355240
 11
3.542000
 21
6.103240
 12
3.556080
 22
5.330160
 13
3.554760
 23
6.078600
  0
POLYLINE
  8
0
  6
CONTINUOUS
 66
     1
 40
0.000000
 41
0.000000
  0
VERTEX
  8
0
  6
CONTINUOUS
 10
3.543760
 20
5.355240
  0
VERTEX
  8
0
  6
CONTINUOUS
 10
3.542000
 20
6.103240
  0
VERTEX
  8
0
  6
CONTINUOUS
 10
3.554760
 20
6.078600
  0
VERTEX
  8
0
  6
CONTINUOUS
 10
3.556080
 20
5.330160
  0
VERTEX
  8
0
  6
CONTINUOUS
 10
3.543760
 20
5.355240
  0
SEQEND
  8
0
  0
SOLID
  8
0
 62
    15
 10
3.556080
 20
5.330160
 11
3.554760
 21
6.078600
 12
3.566200
 22
5.302000
 13
3.564440
 23
6.050440
  0
POLYLINE
  8
0
  6
CONTINUOUS
 66
     1
 40
0.000000
 41
0.000000
  0
VERTEX
  8
0
  6
CONTINUOUS
 10
3.556080
 20
5.330160
  0
VERTEX
  8
0
  6
CONTINUOUS
 10
3.554760
 20
6.078600
  0
VERTEX
  8
0
  6
CONTINUOUS
 10
3.564440
 20
6.050440
  0
VERTEX
  8
0
  6
CONTINUOUS
 10
3.566200
 20
5.302000
  0
VERTEX
  8
0
  6
CONTINUOUS
 10
3.556080
 20
5.330160
  0
SEQEND
  8
0
  0
SOLID
  8
0
 62
    15
 10
3.566200
 20
5.302000
 11
3.564440
 21
6.050440
 12
3.654200
 22
5.302880
 13
3.652440
 23
6.050880
  0
POLYLINE
  8
0
  6
CONTINUOUS
 66
     1
 40
0.000000
 41
0.000000
  0
VERTEX
  8
0
  6
CONTINUOUS
 10
3.566200
 20
5.302000
  0
VERTEX
  8
0
  6
CONTINUOUS
 10
3.564440
 20
6.050440
  0
VERTEX
  8
0
  6
CONTINUOUS
 10
3.652440
 20
6.050880
  0
VERTEX
  8
0
  6
CONTINUOUS
 10
3.654200
 20
5.302880
  0
VERTEX
  8
0
  6
CONTINUOUS
 10
3.566200
 20
5.302000
  0
SEQEND
  8
0
  0
SOLID
  8
0
 62
    15
 10
3.654200
 20
5.302880
 11
3.652440
 21
6.050880
 12
3.657280
 22
5.284840
 13
3.655520
 23
6.033280
  0
POLYLINE
  8
0
  6
CONTINUOUS
 66
     1
 40
0.000000
 41
0.000000
  0
VERTEX
  8
0
  6
CONTINUOUS
 10
3.654200
 20
5.302880
  0
VERTEX
  8
0
  6
CONTINUOUS
 10
3.652440
 20
6.050880
  0
VERTEX
  8
0
  6
CONTINUOUS
 10
3.655520
 20
6.033280
  0
VERTEX
  8
0
  6
CONTINUOUS
 10
3.657280
 20
5.284840
  0
VERTEX
  8
0
  6
CONTINUOUS
 10
3.654200
 20
5.302880
  0
SEQEND
  8
0
  0
SOLID
  8
0
 62
    15
 10
3.657280
 20
5.284840
 11
3.655520
 21
6.033280
 12
3.663880
 22
5.267240
 13
3.662120
 23
6.015240
  0
POLYLINE
  8
0
  6
CONTINUOUS
 66
     1
 40
0.000000
 41
0.000000
  0
VERTEX
  8
0
  6
CONTINUOUS
 10
3.657280
 20
5.284840
  0
VERTEX
  8
0
  6
CONTINUOUS
 10
3.655520
 20
6.033280
  0
VERTEX
  8
0
  6
CONTINUOUS
 10
3.662120
 20
6.015240
  0
VERTEX
  8
0
  6
CONTINUOUS
 10
3.663880
 20
5.267240
  0
VERTEX
  8
0
  6
CONTINUOUS
 10
3.657280
 20
5.284840
  0
SEQEND
  8
0
  0
SOLID
  8
0
 62
    15
 10
3.663880
 20
5.267240
 11
3.662120
 21
6.015240
 12
3.674000
 22
5.250080
 13
3.672240
 23
5.998080
  0
POLYLINE
  8
0
  6
CONTINUOUS
 66
     1
 40
0.000000
 41
0.000000
  0
VERTEX
  8
0
  6
CONTINUOUS
 10
3.663880
 20
5.267240
  0
VERTEX
  8
0
  6
CONTINUOUS
 10
3.662120
 20
6.015240
  0
VERTEX
  8
0
  6
CONTINUOUS
 10
3.672240
 20
5.998080
  0
VERTEX
  8
0
  6
CONTINUOUS
 10
3.674000
 20
5.250080
  0
VERTEX
  8
0
  6
CONTINUOUS
 10
3.663880
 20
5.267240
  0
SEQEND
  8
0
  0
SOLID
  8
0
 62
    15
 10
3.674000
 20
5.250080
 11
3.672240
 21
5.998080
 12
3.688520
 22
5.233800
 13
3.686760
 23
5.982240
  0
POLYLINE
  8
0
  6
CONTINUOUS
 66
     1
 40
0.000000
 41
0.000000
  0
VERTEX
  8
0
  6
CONTINUOUS
 10
3.674000
 20
5.250080
  0
VERTEX
  8
0
  6
CONTINUOUS
 10
3.672240
 20
5.998080
  0
VERTEX
  8
0
  6
CONTINUOUS
 10
3.686760
 20
5.982240
  0
VERTEX
  8
0
  6
CONTINUOUS
 10
3.688520
 20
5.233800
  0
VERTEX
  8
0
  6
CONTINUOUS
 10
3.674000
 20
5.250080
  0
SEQEND
  8
0
  0
SOLID
  8
0
 62
    15
 10
3.688520
 20
5.233800
 11
3.686760
 21
5.982240
 12
3.707440
 22
5.219720
 13
3.705680
 23
5.968160
  0
POLYLINE
  8
0
  6
CONTINUOUS
 66
     1
 40
0.000000
 41
0.000000
  0
VERTEX
  8
0
  6
CONTINUOUS
 10
3.688520
 20
5.233800
  0
VERTEX
  8
0
  6
CONTINUOUS
 10
3.686760
 20
5.982240
  0
VERTEX
  8
0
  6
CONTINUOUS
 10
3.705680
 20
5.968160
  0
VERTEX
  8
0
  6
CONTINUOUS
 10
3.707440
 20
5.219720
  0
VERTEX
  8
0
  6
CONTINUOUS
 10
3.688520
 20
5.233800
  0
SEQEND
  8
0
  0
SOLID
  8
0
 62
    15
 10
3.707440
 20
5.219720
 11
3.705680
 21
5.968160
 12
3.731640
 22
5.208280
 13
3.729880
 23
5.956720
  0
POLYLINE
  8
0
  6
CONTINUOUS
 66
     1
 40
0.000000
 41
0.000000
  0
VERTEX
  8
0
  6
CONTINUOUS
 10
3.707440
 20
5.219720
  0
VERTEX
  8
0
  6
CONTINUOUS
 10
3.705680
 20
5.968160
  0
VERTEX
  8
0
  6
CONTINUOUS
 10
3.729880
 20
5.956720
  0
VERTEX
  8
0
  6
CONTINUOUS
 10
3.731640
 20
5.208280
  0
VERTEX
  8
0
  6
CONTINUOUS
 10
3.707440
 20
5.219720
  0
SEQEND
  8
0
  0
SOLID
  8
0
 62
    15
 10
3.731640
 20
5.208280
 11
3.729880
 21
5.956720
 12
3.761120
 22
5.199920
 13
3.759360
 23
5.948360
  0
POLYLINE
  8
0
  6
CONTINUOUS
 66
     1
 40
0.000000
 41
0.000000
  0
VERTEX
  8
0
  6
CONTINUOUS
 10
3.731640
 20
5.208280
  0
VERTEX
  8
0
  6
CONTINUOUS
 10
3.729880
 20
5.956720
  0
VERTEX
  8
0
  6
CONTINUOUS
 10
3.759360
 20
5.948360
  0
VERTEX
  8
0
  6
CONTINUOUS
 10
3.761120
 20
5.199920
  0
VERTEX
  8
0
  6
CONTINUOUS
 10
3.731640
 20
5.208280
  0
SEQEND
  8
0
  0
SOLID
  8
0
 62
    15
 10
3.087040
 20
5.152840
 11
3.085280
 21
5.901280
 12
3.105080
 22
5.156360
 13
3.103320
 23
5.904360
  0
POLYLINE
  8
0
  6
CONTINUOUS
 66
     1
 40
0.000000
 41
0.000000
  0
VERTEX
  8
0
  6
CONTINUOUS
 10
3.087040
 20
5.152840
  0
VERTEX
  8
0
  6
CONTINUOUS
 10
3.085280
 20
5.901280
  0
VERTEX
  8
0
  6
CONTINUOUS
 10
3.103320
 20
5.904360
  0
VERTEX
  8
0
  6
CONTINUOUS
 10
3.105080
 20
5.156360
  0
VERTEX
  8
0
  6
CONTINUOUS
 10
3.087040
 20
5.152840
  0
SEQEND
  8
0
  0
SOLID
  8
0
 62
    15
 10
3.796320
 20
5.195520
 11
3.795000
 21
5.943520
 12
3.850000
 22
5.193760
 13
3.848240
 23
5.941760
  0
POLYLINE
  8
0
  6
CONTINUOUS
 66
     1
 40
0.000000
 41
0.000000
  0
VERTEX
  8
0
  6
CONTINUOUS
 10
3.796320
 20
5.195520
  0
VERTEX
  8
0
  6
CONTINUOUS
 10
3.795000
 20
5.943520
  0
VERTEX
  8
0
  6
CONTINUOUS
 10
3.848240
 20
5.941760
  0
VERTEX
  8
0
  6
CONTINUOUS
 10
3.850000
 20
5.193760
  0
VERTEX
  8
0
  6
CONTINUOUS
 10
3.796320
 20
5.195520
  0
SEQEND
  8
0
  0
SOLID
  8
0
 62
    15
 10
3.850000
 20
5.193760
 11
3.848240
 21
5.941760
 12
3.905440
 22
5.192000
 13
3.904120
 23
5.940440
  0
POLYLINE
  8
0
  6
CONTINUOUS
 66
     1
 40
0.000000
 41
0.000000
  0
VERTEX
  8
0
  6
CONTINUOUS
 10
3.850000
 20
5.193760
  0
VERTEX
  8
0
  6
CONTINUOUS
 10
3.848240
 20
5.941760
  0
VERTEX
  8
0
  6
CONTINUOUS
 10
3.904120
 20
5.940440
  0
VERTEX
  8
0
  6
CONTINUOUS
 10
3.905440
 20
5.192000
  0
VERTEX
  8
0
  6
CONTINUOUS
 10
3.850000
 20
5.193760
  0
SEQEND
  8
0
  0
SOLID
  8
0
 62
    15
 10
3.905440
 20
5.192000
 11
3.904120
 21
5.940440
 12
3.971000
 22
5.190680
 13
3.969240
 23
5.939120
  0
POLYLINE
  8
0
  6
CONTINUOUS
 66
     1
 40
0.000000
 41
0.000000
  0
VERTEX
  8
0
  6
CONTINUOUS
 10
3.905440
 20
5.192000
  0
VERTEX
  8
0
  6
CONTINUOUS
 10
3.904120
 20
5.940440
  0
VERTEX
  8
0
  6
CONTINUOUS
 10
3.969240
 20
5.939120
  0
VERTEX
  8
0
  6
CONTINUOUS
 10
3.971000
 20
5.190680
  0
VERTEX
  8
0
  6
CONTINUOUS
 10
3.905440
 20
5.192000
  0
SEQEND
  8
0
  0
SOLID
  8
0
 62
    15
 10
3.971000
 20
5.190680
 11
3.969240
 21
5.939120
 12
4.038760
 22
5.189800
 13
4.037000
 23
5.937800
  0
POLYLINE
  8
0
  6
CONTINUOUS
 66
     1
 40
0.000000
 41
0.000000
  0
VERTEX
  8
0
  6
CONTINUOUS
 10
3.971000
 20
5.190680
  0
VERTEX
  8
0
  6
CONTINUOUS
 10
3.969240
 20
5.939120
  0
VERTEX
  8
0
  6
CONTINUOUS
 10
4.037000
 20
5.937800
  0
VERTEX
  8
0
  6
CONTINUOUS
 10
4.038760
 20
5.189800
  0
VERTEX
  8
0
  6
CONTINUOUS
 10
3.971000
 20
5.190680
  0
SEQEND
  8
0
  0
SOLID
  8
0
 62
    15
 10
4.038760
 20
5.189800
 11
4.037000
 21
5.937800
 12
4.070880
 22
5.189800
 13
4.069560
 23
5.937800
  0
POLYLINE
  8
0
  6
CONTINUOUS
 66
     1
 40
0.000000
 41
0.000000
  0
VERTEX
  8
0
  6
CONTINUOUS
 10
4.038760
 20
5.189800
  0
VERTEX
  8
0
  6
CONTINUOUS
 10
4.037000
 20
5.937800
  0
VERTEX
  8
0
  6
CONTINUOUS
 10
4.069560
 20
5.937800
  0
VERTEX
  8
0
  6
CONTINUOUS
 10
4.070880
 20
5.189800
  0
VERTEX
  8
0
  6
CONTINUOUS
 10
4.038760
 20
5.189800
  0
SEQEND
  8
0
  0
SOLID
  8
0
 62
    15
 10
4.070880
 20
5.189800
 11
4.069560
 21
5.937800
 12
4.101240
 22
5.189800
 13
4.099480
 23
5.938240
  0
POLYLINE
  8
0
  6
CONTINUOUS
 66
     1
 40
0.000000
 41
0.000000
  0
VERTEX
  8
0
  6
CONTINUOUS
 10
4.070880
 20
5.189800
  0
VERTEX
  8
0
  6
CONTINUOUS
 10
4.069560
 20
5.937800
  0
VERTEX
  8
0
  6
CONTINUOUS
 10
4.099480
 20
5.938240
  0
VERTEX
  8
0
  6
CONTINUOUS
 10
4.101240
 20
5.189800
  0
VERTEX
  8
0
  6
CONTINUOUS
 10
4.070880
 20
5.189800
  0
SEQEND
  8
0
  0
SOLID
  8
0
 62
    15
 10
4.101240
 20
5.189800
 11
4.099480
 21
5.938240
 12
4.128520
 22
5.190240
 13
4.126760
 23
5.938680
  0
POLYLINE
  8
0
  6
CONTINUOUS
 66
     1
 40
0.000000
 41
0.000000
  0
VERTEX
  8
0
  6
CONTINUOUS
 10
4.101240
 20
5.189800
  0
VERTEX
  8
0
  6
CONTINUOUS
 10
4.099480
 20
5.938240
  0
VERTEX
  8
0
  6
CONTINUOUS
 10
4.126760
 20
5.938680
  0
VERTEX
  8
0
  6
CONTINUOUS
 10
4.128520
 20
5.190240
  0
VERTEX
  8
0
  6
CONTINUOUS
 10
4.101240
 20
5.189800
  0
SEQEND
  8
0
  0
SOLID
  8
0
 62
    15
 10
4.128520
 20
5.190240
 11
4.126760
 21
5.938680
 12
4.151400
 22
5.191560
 13
4.149640
 23
5.939560
  0
POLYLINE
  8
0
  6
CONTINUOUS
 66
     1
 40
0.000000
 41
0.000000
  0
VERTEX
  8
0
  6
CONTINUOUS
 10
4.128520
 20
5.190240
  0
VERTEX
  8
0
  6
CONTINUOUS
 10
4.126760
 20
5.938680
  0
VERTEX
  8
0
  6
CONTINUOUS
 10
4.149640
 20
5.939560
  0
VERTEX
  8
0
  6
CONTINUOUS
 10
4.151400
 20
5.191560
  0
VERTEX
  8
0
  6
CONTINUOUS
 10
4.128520
 20
5.190240
  0
SEQEND
  8
0
  0
SOLID
  8
0
 62
    15
 10
4.151400
 20
5.191560
 11
4.149640
 21
5.939560
 12
4.169440
 22
5.192880
 13
4.168120
 23
5.940880
  0
POLYLINE
  8
0
  6
CONTINUOUS
 66
     1
 40
0.000000
 41
0.000000
  0
VERTEX
  8
0
  6
CONTINUOUS
 10
4.151400
 20
5.191560
  0
VERTEX
  8
0
  6
CONTINUOUS
 10
4.149640
 20
5.939560
  0
VERTEX
  8
0
  6
CONTINUOUS
 10
4.168120
 20
5.940880
  0
VERTEX
  8
0
  6
CONTINUOUS
 10
4.169440
 20
5.192880
  0
VERTEX
  8
0
  6
CONTINUOUS
 10
4.151400
 20
5.191560
  0
SEQEND
  8
0
  0
SOLID
  8
0
 62
    15
 10
4.169440
 20
5.192880
 11
4.168120
 21
5.940880
 12
4.181760
 22
5.194640
 13
4.180440
 23
5.942640
  0
POLYLINE
  8
0
  6
CONTINUOUS
 66
     1
 40
0.000000
 41
0.000000
  0
VERTEX
  8
0
  6
CONTINUOUS
 10
4.169440
 20
5.192880
  0
VERTEX
  8
0
  6
CONTINUOUS
 10
4.168120
 20
5.940880
  0
VERTEX
  8
0
  6
CONTINUOUS
 10
4.180440
 20
5.942640
  0
VERTEX
  8
0
  6
CONTINUOUS
 10
4.181760
 20
5.194640
  0
VERTEX
  8
0
  6
CONTINUOUS
 10
4.169440
 20
5.192880
  0
SEQEND
  8
0
  0
SOLID
  8
0
 62
    15
 10
4.181760
 20
5.194640
 11
4.180440
 21
5.942640
 12
4.183960
 22
5.216200
 13
4.182200
 23
5.964640
  0
POLYLINE
  8
0
  6
CONTINUOUS
 66
     1
 40
0.000000
 41
0.000000
  0
VERTEX
  8
0
  6
CONTINUOUS
 10
4.181760
 20
5.194640
  0
VERTEX
  8
0
  6
CONTINUOUS
 10
4.180440
 20
5.942640
  0
VERTEX
  8
0
  6
CONTINUOUS
 10
4.182200
 20
5.964640
  0
VERTEX
  8
0
  6
CONTINUOUS
 10
4.183960
 20
5.216200
  0
VERTEX
  8
0
  6
CONTINUOUS
 10
4.181760
 20
5.194640
  0
SEQEND
  8
0
  0
SOLID
  8
0
 62
    15
 10
4.183960
 20
5.216200
 11
4.182200
 21
5.964640
 12
4.190120
 22
5.235560
 13
4.188360
 23
5.983560
  0
POLYLINE
  8
0
  6
CONTINUOUS
 66
     1
 40
0.000000
 41
0.000000
  0
VERTEX
  8
0
  6
CONTINUOUS
 10
4.183960
 20
5.216200
  0
VERTEX
  8
0
  6
CONTINUOUS
 10
4.182200
 20
5.964640
  0
VERTEX
  8
0
  6
CONTINUOUS
 10
4.188360
 20
5.983560
  0
VERTEX
  8
0
  6
CONTINUOUS
 10
4.190120
 20
5.235560
  0
VERTEX
  8
0
  6
CONTINUOUS
 10
4.183960
 20
5.216200
  0
SEQEND
  8
0
  0
SOLID
  8
0
 62
    15
 10
4.190120
 20
5.235560
 11
4.188360
 21
5.983560
 12
4.199360
 22
5.251840
 13
4.197600
 23
5.999840
  0
POLYLINE
  8
0
  6
CONTINUOUS
 66
     1
 40
0.000000
 41
0.000000
  0
VERTEX
  8
0
  6
CONTINUOUS
 10
4.190120
 20
5.235560
  0
VERTEX
  8
0
  6
CONTINUOUS
 10
4.188360
 20
5.983560
  0
VERTEX
  8
0
  6
CONTINUOUS
 10
4.197600
 20
5.999840
  0
VERTEX
  8
0
  6
CONTINUOUS
 10
4.199360
 20
5.251840
  0
VERTEX
  8
0
  6
CONTINUOUS
 10
4.190120
 20
5.235560
  0
SEQEND
  8
0
  0
SOLID
  8
0
 62
    15
 10
4.199360
 20
5.251840
 11
4.197600
 21
5.999840
 12
4.211240
 22
5.265480
 13
4.209480
 23
6.013480
  0
POLYLINE
  8
0
  6
CONTINUOUS
 66
     1
 40
0.000000
 41
0.000000
  0
VERTEX
  8
0
  6
CONTINUOUS
 10
4.199360
 20
5.251840
  0
VERTEX
  8
0
  6
CONTINUOUS
 10
4.197600
 20
5.999840
  0
VERTEX
  8
0
  6
CONTINUOUS
 10
4.209480
 20
6.013480
  0
VERTEX
  8
0
  6
CONTINUOUS
 10
4.211240
 20
5.265480
  0
VERTEX
  8
0
  6
CONTINUOUS
 10
4.199360
 20
5.251840
  0
SEQEND
  8
0
  0
SOLID
  8
0
 62
    15
 10
4.211240
 20
5.265480
 11
4.209480
 21
6.013480
 12
4.225320
 22
5.276040
 13
4.224000
 23
6.024480
  0
POLYLINE
  8
0
  6
CONTINUOUS
 66
     1
 40
0.000000
 41
0.000000
  0
VERTEX
  8
0
  6
CONTINUOUS
 10
4.211240
 20
5.265480
  0
VERTEX
  8
0
  6
CONTINUOUS
 10
4.209480
 20
6.013480
  0
VERTEX
  8
0
  6
CONTINUOUS
 10
4.224000
 20
6.024480
  0
VERTEX
  8
0
  6
CONTINUOUS
 10
4.225320
 20
5.276040
  0
VERTEX
  8
0
  6
CONTINUOUS
 10
4.211240
 20
5.265480
  0
SEQEND
  8
0
  0
SOLID
  8
0
 62
    15
 10
4.225320
 20
5.276040
 11
4.224000
 21
6.024480
 12
4.241160
 22
5.283960
 13
4.239840
 23
6.031960
  0
POLYLINE
  8
0
  6
CONTINUOUS
 66
     1
 40
0.000000
 41
0.000000
  0
VERTEX
  8
0
  6
CONTINUOUS
 10
4.225320
 20
5.276040
  0
VERTEX
  8
0
  6
CONTINUOUS
 10
4.224000
 20
6.024480
  0
VERTEX
  8
0
  6
CONTINUOUS
 10
4.239840
 20
6.031960
  0
VERTEX
  8
0
  6
CONTINUOUS
 10
4.241160
 20
5.283960
  0
VERTEX
  8
0
  6
CONTINUOUS
 10
4.225320
 20
5.276040
  0
SEQEND
  8
0
  0
SOLID
  8
0
 62
    15
 10
4.241160
 20
5.283960
 11
4.239840
 21
6.031960
 12
4.258320
 22
5.288800
 13
4.256560
 23
6.036800
  0
POLYLINE
  8
0
  6
CONTINUOUS
 66
     1
 40
0.000000
 41
0.000000
  0
VERTEX
  8
0
  6
CONTINUOUS
 10
4.241160
 20
5.283960
  0
VERTEX
  8
0
  6
CONTINUOUS
 10
4.239840
 20
6.031960
  0
VERTEX
  8
0
  6
CONTINUOUS
 10
4.256560
 20
6.036800
  0
VERTEX
  8
0
  6
CONTINUOUS
 10
4.258320
 20
5.288800
  0
VERTEX
  8
0
  6
CONTINUOUS
 10
4.241160
 20
5.283960
  0
SEQEND
  8
0
  0
SOLID
  8
0
 62
    15
 10
4.258320
 20
5.288800
 11
4.256560
 21
6.036800
 12
4.275920
 22
5.290560
 13
4.274160
 23
6.039000
  0
POLYLINE
  8
0
  6
CONTINUOUS
 66
     1
 40
0.000000
 41
0.000000
  0
VERTEX
  8
0
  6
CONTINUOUS
 10
4.258320
 20
5.288800
  0
VERTEX
  8
0
  6
CONTINUOUS
 10
4.256560
 20
6.036800
  0
VERTEX
  8
0
  6
CONTINUOUS
 10
4.274160
 20
6.039000
  0
VERTEX
  8
0
  6
CONTINUOUS
 10
4.275920
 20
5.290560
  0
VERTEX
  8
0
  6
CONTINUOUS
 10
4.258320
 20
5.288800
  0
SEQEND
  8
0
  0
SOLID
  8
0
 62
    15
 10
4.275920
 20
5.290560
 11
4.274160
 21
6.039000
 12
4.293080
 22
5.289240
 13
4.291760
 23
6.037680
  0
POLYLINE
  8
0
  6
CONTINUOUS
 66
     1
 40
0.000000
 41
0.000000
  0
VERTEX
  8
0
  6
CONTINUOUS
 10
4.275920
 20
5.290560
  0
VERTEX
  8
0
  6
CONTINUOUS
 10
4.274160
 20
6.039000
  0
VERTEX
  8
0
  6
CONTINUOUS
 10
4.291760
 20
6.037680
  0
VERTEX
  8
0
  6
CONTINUOUS
 10
4.293080
 20
5.289240
  0
VERTEX
  8
0
  6
CONTINUOUS
 10
4.275920
 20
5.290560
  0
SEQEND
  8
0
  0
SOLID
  8
0
 62
    15
 10
4.293080
 20
5.289240
 11
4.291760
 21
6.037680
 12
4.310240
 22
5.284840
 13
4.308480
 23
6.033280
  0
POLYLINE
  8
0
  6
CONTINUOUS
 66
     1
 40
0.000000
 41
0.000000
  0
VERTEX
  8
0
  6
CONTINUOUS
 10
4.293080
 20
5.289240
  0
VERTEX
  8
0
  6
CONTINUOUS
 10
4.291760
 20
6.037680
  0
VERTEX
  8
0
  6
CONTINUOUS
 10
4.308480
 20
6.033280
  0
VERTEX
  8
0
  6
CONTINUOUS
 10
4.310240
 20
5.284840
  0
VERTEX
  8
0
  6
CONTINUOUS
 10
4.293080
 20
5.289240
  0
SEQEND
  8
0
  0
SOLID
  8
0
 62
    15
 10
4.310240
 20
5.284840
 11
4.308480
 21
6.033280
 12
4.326080
 22
5.277360
 13
4.324320
 23
6.025800
  0
POLYLINE
  8
0
  6
CONTINUOUS
 66
     1
 40
0.000000
 41
0.000000
  0
VERTEX
  8
0
  6
CONTINUOUS
 10
4.310240
 20
5.284840
  0
VERTEX
  8
0
  6
CONTINUOUS
 10
4.308480
 20
6.033280
  0
VERTEX
  8
0
  6
CONTINUOUS
 10
4.324320
 20
6.025800
  0
VERTEX
  8
0
  6
CONTINUOUS
 10
4.326080
 20
5.277360
  0
VERTEX
  8
0
  6
CONTINUOUS
 10
4.310240
 20
5.284840
  0
SEQEND
  8
0
  0
SOLID
  8
0
 62
    15
 10
4.326080
 20
5.277360
 11
4.324320
 21
6.025800
 12
4.340160
 22
5.266800
 13
4.338400
 23
6.014800
  0
POLYLINE
  8
0
  6
CONTINUOUS
 66
     1
 40
0.000000
 41
0.000000
  0
VERTEX
  8
0
  6
CONTINUOUS
 10
4.326080
 20
5.277360
  0
VERTEX
  8
0
  6
CONTINUOUS
 10
4.324320
 20
6.025800
  0
VERTEX
  8
0
  6
CONTINUOUS
 10
4.338400
 20
6.014800
  0
VERTEX
  8
0
  6
CONTINUOUS
 10
4.340160
 20
5.266800
  0
VERTEX
  8
0
  6
CONTINUOUS
 10
4.326080
 20
5.277360
  0
SEQEND
  8
0
  0
SOLID
  8
0
 62
    15
 10
4.340160
 20
5.266800
 11
4.338400
 21
6.014800
 12
4.352040
 22
5.252280
 13
4.350280
 23
6.000720
  0
POLYLINE
  8
0
  6
CONTINUOUS
 66
     1
 40
0.000000
 41
0.000000
  0
VERTEX
  8
0
  6
CONTINUOUS
 10
4.340160
 20
5.266800
  0
VERTEX
  8
0
  6
CONTINUOUS
 10
4.338400
 20
6.014800
  0
VERTEX
  8
0
  6
CONTINUOUS
 10
4.350280
 20
6.000720
  0
VERTEX
  8
0
  6
CONTINUOUS
 10
4.352040
 20
5.252280
  0
VERTEX
  8
0
  6
CONTINUOUS
 10
4.340160
 20
5.266800
  0
SEQEND
  8
0
  0
SOLID
  8
0
 62
    15
 10
4.352040
 20
5.252280
 11
4.350280
 21
6.000720
 12
4.360840
 22
5.235120
 13
4.359080
 23
5.983120
  0
POLYLINE
  8
0
  6
CONTINUOUS
 66
     1
 40
0.000000
 41
0.000000
  0
VERTEX
  8
0
  6
CONTINUOUS
 10
4.352040
 20
5.252280
  0
VERTEX
  8
0
  6
CONTINUOUS
 10
4.350280
 20
6.000720
  0
VERTEX
  8
0
  6
CONTINUOUS
 10
4.359080
 20
5.983120
  0
VERTEX
  8
0
  6
CONTINUOUS
 10
4.360840
 20
5.235120
  0
VERTEX
  8
0
  6
CONTINUOUS
 10
4.352040
 20
5.252280
  0
SEQEND
  8
0
  0
SOLID
  8
0
 62
    15
 10
4.360840
 20
5.235120
 11
4.359080
 21
5.983120
 12
4.366560
 22
5.214000
 13
4.365240
 23
5.962000
  0
POLYLINE
  8
0
  6
CONTINUOUS
 66
     1
 40
0.000000
 41
0.000000
  0
VERTEX
  8
0
  6
CONTINUOUS
 10
4.360840
 20
5.235120
  0
VERTEX
  8
0
  6
CONTINUOUS
 10
4.359080
 20
5.983120
  0
VERTEX
  8
0
  6
CONTINUOUS
 10
4.365240
 20
5.962000
  0
VERTEX
  8
0
  6
CONTINUOUS
 10
4.366560
 20
5.214000
  0
VERTEX
  8
0
  6
CONTINUOUS
 10
4.360840
 20
5.235120
  0
SEQEND
  8
0
  0
SOLID
  8
0
 62
    15
 10
4.366560
 20
5.214000
 11
4.365240
 21
5.962000
 12
4.368320
 22
5.189800
 13
4.367000
 23
5.937800
  0
POLYLINE
  8
0
  6
CONTINUOUS
 66
     1
 40
0.000000
 41
0.000000
  0
VERTEX
  8
0
  6
CONTINUOUS
 10
4.366560
 20
5.214000
  0
VERTEX
  8
0
  6
CONTINUOUS
 10
4.365240
 20
5.962000
  0
VERTEX
  8
0
  6
CONTINUOUS
 10
4.367000
 20
5.937800
  0
VERTEX
  8
0
  6
CONTINUOUS
 10
4.368320
 20
5.189800
  0
VERTEX
  8
0
  6
CONTINUOUS
 10
4.366560
 20
5.214000
  0
SEQEND
  8
0
  0
SOLID
  8
0
 62
    15
 10
4.368320
 20
5.189800
 11
4.367000
 21
5.937800
 12
4.449720
 22
5.189800
 13
4.448400
 23
5.937800
  0
POLYLINE
  8
0
  6
CONTINUOUS
 66
     1
 40
0.000000
 41
0.000000
  0
VERTEX
  8
0
  6
CONTINUOUS
 10
4.368320
 20
5.189800
  0
VERTEX
  8
0
  6
CONTINUOUS
 10
4.367000
 20
5.937800
  0
VERTEX
  8
0
  6
CONTINUOUS
 10
4.448400
 20
5.937800
  0
VERTEX
  8
0
  6
CONTINUOUS
 10
4.449720
 20
5.189800
  0
VERTEX
  8
0
  6
CONTINUOUS
 10
4.368320
 20
5.189800
  0
SEQEND
  8
0
  0
SOLID
  8
0
 62
    15
 10
4.449720
 20
5.189800
 11
4.448400
 21
5.937800
 12
4.454120
 22
5.171320
 13
4.452800
 23
5.919320
  0
POLYLINE
  8
0
  6
CONTINUOUS
 66
     1
 40
0.000000
 41
0.000000
  0
VERTEX
  8
0
  6
CONTINUOUS
 10
4.449720
 20
5.189800
  0
VERTEX
  8
0
  6
CONTINUOUS
 10
4.448400
 20
5.937800
  0
VERTEX
  8
0
  6
CONTINUOUS
 10
4.452800
 20
5.919320
  0
VERTEX
  8
0
  6
CONTINUOUS
 10
4.454120
 20
5.171320
  0
VERTEX
  8
0
  6
CONTINUOUS
 10
4.449720
 20
5.189800
  0
SEQEND
  8
0
  0
SOLID
  8
0
 62
    15
 10
4.454120
 20
5.171320
 11
4.452800
 21
5.919320
 12
4.460280
 22
5.155480
 13
4.458960
 23
5.903480
  0
POLYLINE
  8
0
  6
CONTINUOUS
 66
     1
 40
0.000000
 41
0.000000
  0
VERTEX
  8
0
  6
CONTINUOUS
 10
4.454120
 20
5.171320
  0
VERTEX
  8
0
  6
CONTINUOUS
 10
4.452800
 20
5.919320
  0
VERTEX
  8
0
  6
CONTINUOUS
 10
4.458960
 20
5.903480
  0
VERTEX
  8
0
  6
CONTINUOUS
 10
4.460280
 20
5.155480
  0
VERTEX
  8
0
  6
CONTINUOUS
 10
4.454120
 20
5.171320
  0
SEQEND
  8
0
  0
SOLID
  8
0
 62
    15
 10
4.460280
 20
5.155480
 11
4.458960
 21
5.903480
 12
4.468200
 22
5.142280
 13
4.466880
 23
5.890280
  0
POLYLINE
  8
0
  6
CONTINUOUS
 66
     1
 40
0.000000
 41
0.000000
  0
VERTEX
  8
0
  6
CONTINUOUS
 10
4.460280
 20
5.155480
  0
VERTEX
  8
0
  6
CONTINUOUS
 10
4.458960
 20
5.903480
  0
VERTEX
  8
0
  6
CONTINUOUS
 10
4.466880
 20
5.890280
  0
VERTEX
  8
0
  6
CONTINUOUS
 10
4.468200
 20
5.142280
  0
VERTEX
  8
0
  6
CONTINUOUS
 10
4.460280
 20
5.155480
  0
SEQEND
  8
0
  0
SOLID
  8
0
 62
    15
 10
4.468200
 20
5.142280
 11
4.466880
 21
5.890280
 12
4.478760
 22
5.131720
 13
4.477000
 23
5.879720
  0
POLYLINE
  8
0
  6
CONTINUOUS
 66
     1
 40
0.000000
 41
0.000000
  0
VERTEX
  8
0
  6
CONTINUOUS
 10
4.468200
 20
5.142280
  0
VERTEX
  8
0
  6
CONTINUOUS
 10
4.466880
 20
5.890280
  0
VERTEX
  8
0
  6
CONTINUOUS
 10
4.477000
 20
5.879720
  0
VERTEX
  8
0
  6
CONTINUOUS
 10
4.478760
 20
5.131720
  0
VERTEX
  8
0
  6
CONTINUOUS
 10
4.468200
 20
5.142280
  0
SEQEND
  8
0
  0
SOLID
  8
0
 62
    15
 10
4.478760
 20
5.131720
 11
4.477000
 21
5.879720
 12
4.491520
 22
5.123360
 13
4.489760
 23
5.871800
  0
POLYLINE
  8
0
  6
CONTINUOUS
 66
     1
 40
0.000000
 41
0.000000
  0
VERTEX
  8
0
  6
CONTINUOUS
 10
4.478760
 20
5.131720
  0
VERTEX
  8
0
  6
CONTINUOUS
 10
4.477000
 20
5.879720
  0
VERTEX
  8
0
  6
CONTINUOUS
 10
4.489760
 20
5.871800
  0
VERTEX
  8
0
  6
CONTINUOUS
 10
4.491520
 20
5.123360
  0
VERTEX
  8
0
  6
CONTINUOUS
 10
4.478760
 20
5.131720
  0
SEQEND
  8
0
  0
SOLID
  8
0
 62
    15
 10
4.491520
 20
5.123360
 11
4.489760
 21
5.871800
 12
4.507360
 22
5.117640
 13
4.505600
 23
5.866080
  0
POLYLINE
  8
0
  6
CONTINUOUS
 66
     1
 40
0.000000
 41
0.000000
  0
VERTEX
  8
0
  6
CONTINUOUS
 10
4.491520
 20
5.123360
  0
VERTEX
  8
0
  6
CONTINUOUS
 10
4.489760
 20
5.871800
  0
VERTEX
  8
0
  6
CONTINUOUS
 10
4.505600
 20
5.866080
  0
VERTEX
  8
0
  6
CONTINUOUS
 10
4.507360
 20
5.117640
  0
VERTEX
  8
0
  6
CONTINUOUS
 10
4.491520
 20
5.123360
  0
SEQEND
  8
0
  0
SOLID
  8
0
 62
    15
 10
4.507360
 20
5.117640
 11
4.505600
 21
5.866080
 12
4.526720
 22
5.114120
 13
4.524960
 23
5.862560
  0
POLYLINE
  8
0
  6
CONTINUOUS
 66
     1
 40
0.000000
 41
0.000000
  0
VERTEX
  8
0
  6
CONTINUOUS
 10
4.507360
 20
5.117640
  0
VERTEX
  8
0
  6
CONTINUOUS
 10
4.505600
 20
5.866080
  0
VERTEX
  8
0
  6
CONTINUOUS
 10
4.524960
 20
5.862560
  0
VERTEX
  8
0
  6
CONTINUOUS
 10
4.526720
 20
5.114120
  0
VERTEX
  8
0
  6
CONTINUOUS
 10
4.507360
 20
5.117640
  0
SEQEND
  8
0
  0
SOLID
  8
0
 62
    15
 10
4.526720
 20
5.114120
 11
4.524960
 21
5.862560
 12
4.549600
 22
5.113240
 13
4.547840
 23
5.861240
  0
POLYLINE
  8
0
  6
CONTINUOUS
 66
     1
 40
0.000000
 41
0.000000
  0
VERTEX
  8
0
  6
CONTINUOUS
 10
4.526720
 20
5.114120
  0
VERTEX
  8
0
  6
CONTINUOUS
 10
4.524960
 20
5.862560
  0
VERTEX
  8
0
  6
CONTINUOUS
 10
4.547840
 20
5.861240
  0
VERTEX
  8
0
  6
CONTINUOUS
 10
4.549600
 20
5.113240
  0
VERTEX
  8
0
  6
CONTINUOUS
 10
4.526720
 20
5.114120
  0
SEQEND
  8
0
  0
SOLID
  8
0
 62
    15
 10
3.087040
 20
5.011600
 11
3.085280
 21
5.760040
 12
3.087040
 22
5.013360
 13
3.085280
 23
5.761800
  0
POLYLINE
  8
0
  6
CONTINUOUS
 66
     1
 40
0.000000
 41
0.000000
  0
VERTEX
  8
0
  6
CONTINUOUS
 10
3.087040
 20
5.011600
  0
VERTEX
  8
0
  6
CONTINUOUS
 10
3.085280
 20
5.760040
  0
VERTEX
  8
0
  6
CONTINUOUS
 10
3.085280
 20
5.761800
  0
VERTEX
  8
0
  6
CONTINUOUS
 10
3.087040
 20
5.013360
  0
VERTEX
  8
0
  6
CONTINUOUS
 10
3.087040
 20
5.011600
  0
SEQEND
  8
0
  0
POLYLINE
  8
0
  6
CONTINUOUS
 66
     1
 40
0.000000
 41
0.000000
  0
VERTEX
  8
0
  6
CONTINUOUS
 10
3.087040
 20
5.013360
  0
VERTEX
  8
0
  6
CONTINUOUS
 10
3.087040
 20
5.152840
  0
VERTEX
  8
0
  6
CONTINUOUS
 10
3.120920
 20
5.160760
  0
VERTEX
  8
0
  6
CONTINUOUS
 10
3.147320
 20
5.172200
  0
VERTEX
  8
0
  6
CONTINUOUS
 10
3.167120
 20
5.188040
  0
VERTEX
  8
0
  6
CONTINUOUS
 10
3.181640
 20
5.207840
  0
VERTEX
  8
0
  6
CONTINUOUS
 10
3.191320
 20
5.232040
  0
VERTEX
  8
0
  6
CONTINUOUS
 10
3.197480
 20
5.260640
  0
VERTEX
  8
0
  6
CONTINUOUS
 10
3.200560
 20
5.293200
  0
VERTEX
  8
0
  6
CONTINUOUS
 10
3.201440
 20
5.330160
  0
VERTEX
  8
0
  6
CONTINUOUS
 10
3.286800
 20
5.330160
  0
VERTEX
  8
0
  6
CONTINUOUS
 10
3.297360
 20
5.357880
  0
VERTEX
  8
0
  6
CONTINUOUS
 10
3.311000
 20
5.381200
  0
VERTEX
  8
0
  6
CONTINUOUS
 10
3.326840
 20
5.400560
  0
VERTEX
  8
0
  6
CONTINUOUS
 10
3.344880
 20
5.415520
  0
VERTEX
  8
0
  6
CONTINUOUS
 10
3.364240
 20
5.426080
  0
VERTEX
  8
0
  6
CONTINUOUS
 10
3.384920
 20
5.433120
  0
VERTEX
  8
0
  6
CONTINUOUS
 10
3.406480
 20
5.436200
  0
VERTEX
  8
0
  6
CONTINUOUS
 10
3.428480
 20
5.435320
  0
VERTEX
  8
0
  6
CONTINUOUS
 10
3.450040
 20
5.430920
  0
VERTEX
  8
0
  6
CONTINUOUS
 10
3.471160
 20
5.422560
  0
VERTEX
  8
0
  6
CONTINUOUS
 10
3.491840
 20
5.410680
  0
VERTEX
  8
0
  6
CONTINUOUS
 10
3.510760
 20
5.395720
  0
VERTEX
  8
0
  6
CONTINUOUS
 10
3.528360
 20
5.377240
  0
VERTEX
  8
0
  6
CONTINUOUS
 10
3.543760
 20
5.355240
  0
VERTEX
  8
0
  6
CONTINUOUS
 10
3.556080
 20
5.330160
  0
VERTEX
  8
0
  6
CONTINUOUS
 10
3.566200
 20
5.302000
  0
VERTEX
  8
0
  6
CONTINUOUS
 10
3.654200
 20
5.302880
  0
VERTEX
  8
0
  6
CONTINUOUS
 10
3.657280
 20
5.284840
  0
VERTEX
  8
0
  6
CONTINUOUS
 10
3.663880
 20
5.267240
  0
VERTEX
  8
0
  6
CONTINUOUS
 10
3.674000
 20
5.250080
  0
VERTEX
  8
0
  6
CONTINUOUS
 10
3.688520
 20
5.233800
  0
VERTEX
  8
0
  6
CONTINUOUS
 10
3.707440
 20
5.219720
  0
VERTEX
  8
0
  6
CONTINUOUS
 10
3.731640
 20
5.208280
  0
VERTEX
  8
0
  6
CONTINUOUS
 10
3.761120
 20
5.199920
  0
VERTEX
  8
0
  6
CONTINUOUS
 10
3.796320
 20
5.195520
  0
VERTEX
  8
0
  6
CONTINUOUS
 10
3.971000
 20
5.190680
  0
VERTEX
  8
0
  6
CONTINUOUS
 10
4.101240
 20
5.189800
  0
VERTEX
  8
0
  6
CONTINUOUS
 10
4.151400
 20
5.191560
  0
VERTEX
  8
0
  6
CONTINUOUS
 10
4.181760
 20
5.194640
  0
VERTEX
  8
0
  6
CONTINUOUS
 10
4.183960
 20
5.216200
  0
VERTEX
  8
0
  6
CONTINUOUS
 10
4.190120
 20
5.235560
  0
VERTEX
  8
0
  6
CONTINUOUS
 10
4.199360
 20
5.251840
  0
VERTEX
  8
0
  6
CONTINUOUS
 10
4.211240
 20
5.265480
  0
VERTEX
  8
0
  6
CONTINUOUS
 10
4.225320
 20
5.276040
  0
VERTEX
  8
0
  6
CONTINUOUS
 10
4.241160
 20
5.283960
  0
VERTEX
  8
0
  6
CONTINUOUS
 10
4.258320
 20
5.288800
  0
VERTEX
  8
0
  6
CONTINUOUS
 10
4.275920
 20
5.290560
  0
VERTEX
  8
0
  6
CONTINUOUS
 10
4.293080
 20
5.289240
  0
VERTEX
  8
0
  6
CONTINUOUS
 10
4.310240
 20
5.284840
  0
VERTEX
  8
0
  6
CONTINUOUS
 10
4.326080
 20
5.277360
  0
VERTEX
  8
0
  6
CONTINUOUS
 10
4.340160
 20
5.266800
  0
VERTEX
  8
0
  6
CONTINUOUS
 10
4.352040
 20
5.252280
  0
VERTEX
  8
0
  6
CONTINUOUS
 10
4.360840
 20
5.235120
  0
VERTEX
  8
0
  6
CONTINUOUS
 10
4.366560
 20
5.214000
  0
VERTEX
  8
0
  6
CONTINUOUS
 10
4.368320
 20
5.189800
  0
VERTEX
  8
0
  6
CONTINUOUS
 10
4.449720
 20
5.189800
  0
VERTEX
  8
0
  6
CONTINUOUS
 10
4.454120
 20
5.171320
  0
VERTEX
  8
0
  6
CONTINUOUS
 10
4.460280
 20
5.155480
  0
VERTEX
  8
0
  6
CONTINUOUS
 10
4.468200
 20
5.142280
  0
VERTEX
  8
0
  6
CONTINUOUS
 10
4.478760
 20
5.131720
  0
VERTEX
  8
0
  6
CONTINUOUS
 10
4.491520
 20
5.123360
  0
VERTEX
  8
0
  6
CONTINUOUS
 10
4.507360
 20
5.117640
  0
VERTEX
  8
0
  6
CONTINUOUS
 10
4.526720
 20
5.114120
  0
VERTEX
  8
0
  6
CONTINUOUS
 10
4.549600
 20
5.113240
  0
VERTEX
  8
0
  6
CONTINUOUS
 10
4.549600
 20
5.011600
  0
VERTEX
  8
0
  6
CONTINUOUS
 10
3.087040
 20
5.011600
  0
VERTEX
  8
0
  6
CONTINUOUS
 10
3.087040
 20
5.013360
  0
SEQEND
  8
0
  0
TEXT
  8
0
 10
3.475560
 20
4.778400
 40
0.115614
  1
BA  1183
 41
1.000000
  7
SN0
 71
     0
 72
     5
 11
4.047931
 21
4.778400
  0
TEXT
  8
0
 10
3.319800
 20
4.587000
 40
0.115614
  1
7/16" x 1-1/2"
 41
1.000000
  7
SN0
 71
     0
 72
     5
 11
4.152766
 21
4.587000
  0
POLYLINE
  8
0
  6
CONTINUOUS
 66
     1
 40
0.014080
 41
0.014080
  0
VERTEX
  8
0
  6
CONTINUOUS
 10
3.086160
 20
7.297400
  0
VERTEX
  8
0
  6
CONTINUOUS
 10
3.086160
 20
7.436880
  0
VERTEX
  8
0
  6
CONTINUOUS
 10
3.120040
 20
7.444360
  0
VERTEX
  8
0
  6
CONTINUOUS
 10
3.146440
 20
7.456240
  0
VERTEX
  8
0
  6
CONTINUOUS
 10
3.166240
 20
7.472080
  0
VERTEX
  8
0
  6
CONTINUOUS
 10
3.180760
 20
7.491880
  0
VERTEX
  8
0
  6
CONTINUOUS
 10
3.190440
 20
7.516080
  0
VERTEX
  8
0
  6
CONTINUOUS
 10
3.196600
 20
7.544680
  0
VERTEX
  8
0
  6
CONTINUOUS
 10
3.200560
 20
7.595280
  0
VERTEX
  8
0
  6
CONTINUOUS
 10
3.201000
 20
7.614200
  0
VERTEX
  8
0
  6
CONTINUOUS
 10
3.285920
 20
7.614200
  0
VERTEX
  8
0
  6
CONTINUOUS
 10
3.296480
 20
7.641920
  0
VERTEX
  8
0
  6
CONTINUOUS
 10
3.310120
 20
7.665240
  0
VERTEX
  8
0
  6
CONTINUOUS
 10
3.325960
 20
7.684600
  0
VERTEX
  8
0
  6
CONTINUOUS
 10
3.344000
 20
7.699560
  0
VERTEX
  8
0
  6
CONTINUOUS
 10
3.363360
 20
7.710560
  0
VERTEX
  8
0
  6
CONTINUOUS
 10
3.394600
 20
7.719360
  0
VERTEX
  8
0
  6
CONTINUOUS
 10
3.416600
 20
7.720240
  0
VERTEX
  8
0
  6
CONTINUOUS
 10
3.438160
 20
7.717600
  0
VERTEX
  8
0
  6
CONTINUOUS
 10
3.460160
 20
7.711000
  0
VERTEX
  8
0
  6
CONTINUOUS
 10
3.480840
 20
7.701320
  0
VERTEX
  8
0
  6
CONTINUOUS
 10
3.509880
 20
7.679760
  0
VERTEX
  8
0
  6
CONTINUOUS
 10
3.527480
 20
7.661280
  0
VERTEX
  8
0
  6
CONTINUOUS
 10
3.542880
 20
7.639280
  0
VERTEX
  8
0
  6
CONTINUOUS
 10
3.555640
 20
7.614200
  0
VERTEX
  8
0
  6
CONTINUOUS
 10
3.565320
 20
7.586040
  0
VERTEX
  8
0
  6
CONTINUOUS
 10
3.653320
 20
7.586920
  0
VERTEX
  8
0
  6
CONTINUOUS
 10
3.656400
 20
7.568880
  0
VERTEX
  8
0
  6
CONTINUOUS
 10
3.663000
 20
7.551280
  0
VERTEX
  8
0
  6
CONTINUOUS
 10
3.673120
 20
7.533680
  0
VERTEX
  8
0
  6
CONTINUOUS
 10
3.687640
 20
7.517840
  0
VERTEX
  8
0
  6
CONTINUOUS
 10
3.706560
 20
7.503760
  0
VERTEX
  8
0
  6
CONTINUOUS
 10
3.730760
 20
7.492320
  0
VERTEX
  8
0
  6
CONTINUOUS
 10
3.760240
 20
7.483960
  0
VERTEX
  8
0
  6
CONTINUOUS
 10
3.795440
 20
7.479560
  0
VERTEX
  8
0
  6
CONTINUOUS
 10
3.970120
 20
7.474720
  0
VERTEX
  8
0
  6
CONTINUOUS
 10
4.100360
 20
7.473840
  0
VERTEX
  8
0
  6
CONTINUOUS
 10
4.160640
 20
7.476040
  0
VERTEX
  8
0
  6
CONTINUOUS
 10
4.181320
 20
7.478680
  0
VERTEX
  8
0
  6
CONTINUOUS
 10
4.183520
 20
7.500240
  0
VERTEX
  8
0
  6
CONTINUOUS
 10
4.189240
 20
7.519600
  0
VERTEX
  8
0
  6
CONTINUOUS
 10
4.198480
 20
7.535880
  0
VERTEX
  8
0
  6
CONTINUOUS
 10
4.217400
 20
7.555240
  0
VERTEX
  8
0
  6
CONTINUOUS
 10
4.240720
 20
7.568000
  0
VERTEX
  8
0
  6
CONTINUOUS
 10
4.266240
 20
7.574160
  0
VERTEX
  8
0
  6
CONTINUOUS
 10
4.283840
 20
7.574160
  0
VERTEX
  8
0
  6
CONTINUOUS
 10
4.301000
 20
7.571520
  0
VERTEX
  8
0
  6
CONTINUOUS
 10
4.317280
 20
7.565800
  0
VERTEX
  8
0
  6
CONTINUOUS
 10
4.332680
 20
7.556560
  0
VERTEX
  8
0
  6
CONTINUOUS
 10
4.351160
 20
7.536760
  0
VERTEX
  8
0
  6
CONTINUOUS
 10
4.360400
 20
7.519160
  0
VERTEX
  8
0
  6
CONTINUOUS
 10
4.366120
 20
7.498040
  0
VERTEX
  8
0
  6
CONTINUOUS
 10
4.367880
 20
7.473840
  0
VERTEX
  8
0
  6
CONTINUOUS
 10
4.449280
 20
7.473840
  0
VERTEX
  8
0
  6
CONTINUOUS
 10
4.456320
 20
7.447000
  0
VERTEX
  8
0
  6
CONTINUOUS
 10
4.467320
 20
7.426320
  0
VERTEX
  8
0
  6
CONTINUOUS
 10
4.477880
 20
7.415760
  0
VERTEX
  8
0
  6
CONTINUOUS
 10
4.490640
 20
7.407400
  0
VERTEX
  8
0
  6
CONTINUOUS
 10
4.506480
 20
7.401680
  0
VERTEX
  8
0
  6
CONTINUOUS
 10
4.536840
 20
7.397720
  0
VERTEX
  8
0
  6
CONTINUOUS
 10
4.548720
 20
7.397280
  0
VERTEX
  8
0
  6
CONTINUOUS
 10
4.548720
 20
7.295640
  0
VERTEX
  8
0
  6
CONTINUOUS
 10
3.086160
 20
7.295640
  0
VERTEX
  8
0
  6
CONTINUOUS
 10
3.086160
 20
7.297400
  0
SEQEND
  8
0
  0
TEXT
  8
0
 10
3.519120
 20
7.004800
 40
0.115614
  1
BA  1183
 41
1.000000
  7
SN0
 71
     0
 72
     5
 11
4.091491
 21
7.004800
  0
TEXT
  8
0
 10
3.363360
 20
6.813400
 40
0.115614
  1
7/16" x 1-1/2"
 41
1.000000
  7
SN0
 71
     0
 72
     5
 11
4.196326
 21
6.813400
  0
ENDSEC
  0
EOF
