  0
SECTION
  2
HEADER
  9
$ACADVER
  1
AC1006
  9
$EXTMIN
 10
1.251800
 20
0.679360
  9
$EXTMAX
 10
7.549960
 20
3.692480
  9
$LTSCALE
 40
0.044000
  9
$PDMODE
 70
    35
  9
$PDSIZE
 40
0.035200
  0
ENDSEC
  0
SECTION
  2
TABLES
  0
TABLE
  2
LTYPE
 70
     9
  0
LTYPE
  2
CONTINUOUS
 70
    64
  3
Solid line
 72
    65
 73
     0
 40
0.000000
  0
LTYPE
  2
DASHED
 70
    64
  3
__ __ __ __ __ __ __ __ __ __ __ __ __ __ __
 72
    65
 73
     2
 40
0.000330
 49
0.000220
 49
-0.000110
  0
LTYPE
  2
HIDDEN
 70
    64
  3
 _ _ _ _ _ _ _ _ _ _ _ _ _ _ _ _ _ _ _ _ _ _
 72
    65
 73
     2
 40
0.000165
 49
0.000110
 49
-0.000055
  0
LTYPE
  2
CENTER
 70
    64
  3
____ _ ____ _ ____ _ ____ _ ____ _ ____ _ ____
 72
    65
 73
     4
 40
0.000880
 49
0.000550
 49
-0.000110
 49
0.000110
 49
-0.000110
  0
LTYPE
  2
PHANTOM
 70
    64
  3
_____ _ _ _____ _ _ _____ _ _ _____ _ _ ____
 72
    65
 73
     6
 40
0.001100
 49
0.000550
 49
-0.000110
 49
0.000110
 49
-0.000110
 49
0.000110
 49
-0.000110
  0
LTYPE
  2
DOT
 70
    64
  3
...............................................
 72
    65
 73
     2
 40
0.000110
 49
0.000000
 49
-0.000110
  0
LTYPE
  2
DASHDOT
 70
    64
  3
__ . __ . __ . __ . __ . __ . __ . __ . __ . __
 72
    65
 73
     4
 40
0.000440
 49
0.000220
 49
-0.000110
 49
0.000000
 49
-0.000110
  0
LTYPE
  2
BORDER
 70
    64
  3
__ __ . __ __ . __ __ . __ __ . __ __ . __ __
 72
    65
 73
     6
 40
0.000770
 49
0.000220
 49
-0.000110
 49
0.000220
 49
-0.000110
 49
0.000000
 49
-0.000110
  0
LTYPE
  2
DIVIDE
 70
    64
  3
__ . . __ . . __ . . __ . . __ . . __ . . __
 72
    65
 73
     6
 40
0.000550
 49
0.000220
 49
-0.000110
 49
0.000000
 49
-0.000110
 49
0.000000
 49
-0.000110
  0
LTYPE
  2
DOTDOT
 70
    64
  3
 . .  . .  . .  . .  . .  . . 
 72
    65
 73
     5
 40
0.000242
 49
-0.000110
 49
0.000000
 49
-0.000110
 49
0.000000
 49
-0.000110
  0
ENDTAB
  0
TABLE
  2
STYLE
 70
     2
  0
STYLE
 70
     0
  2
SN0
 40
0.000000
 41
0.000440
 50
0.000000
 71
     0
 42
0.000000
  3
ROMAND
  0
STYLE
 70
    68
  2
SV0
 40
0.000000
 41
0.000440
 50
0.000000
 71
     0
 42
0.000000
  3
ROMAND
  0
ENDTAB
  0
TABLE
  2
LAYER
 70
     3
  0
LAYER
  2
FOREGROUND
 70
    64
 62
     7
  6
CONTINUOUS
  0
LAYER
  2
BACKGROUND
 70
    65
 62
    -7
  6
CONTINUOUS
  0
LAYER
  2
0
 70
    64
 62
     7
  6
CONTINUOUS
  0
ENDTAB
  0
ENDSEC
  0
SECTION
  2
ENTITIES
  0
POLYLINE
  8
FOREGROUND
  6
CONTINUOUS
 66
     1
 40
0.000000
 41
0.000000
  0
VERTEX
  8
FOREGROUND
  6
CONTINUOUS
 10
0.000000
 20
4.371840
  0
VERTEX
  8
FOREGROUND
  6
CONTINUOUS
 10
8.499920
 20
4.371840
  0
VERTEX
  8
FOREGROUND
  6
CONTINUOUS
 10
8.499920
 20
-6.628160
  0
VERTEX
  8
FOREGROUND
  6
CONTINUOUS
 10
0.000000
 20
-6.628160
  0
VERTEX
  8
FOREGROUND
  6
CONTINUOUS
 10
0.000000
 20
4.371840
  0
SEQEND
  8
0
  0
POLYLINE
  8
FOREGROUND
  6
CONTINUOUS
 66
     1
 40
0.000000
 41
0.000000
  0
VERTEX
  8
FOREGROUND
  6
CONTINUOUS
 10
0.000000
 20
4.371840
  0
VERTEX
  8
FOREGROUND
  6
CONTINUOUS
 10
8.499920
 20
4.371840
  0
VERTEX
  8
FOREGROUND
  6
CONTINUOUS
 10
8.499920
 20
-6.628160
  0
VERTEX
  8
FOREGROUND
  6
CONTINUOUS
 10
0.000000
 20
-6.628160
  0
VERTEX
  8
FOREGROUND
  6
CONTINUOUS
 10
0.000000
 20
4.371840
  0
SEQEND
  8
0
  0
POLYLINE
  8
0
  6
CONTINUOUS
 66
     1
 40
0.014080
 41
0.014080
  0
VERTEX
  8
0
  6
CONTINUOUS
 10
2.037200
 20
3.411320
  0
VERTEX
  8
0
  6
CONTINUOUS
 10
2.038520
 20
3.440800
  0
VERTEX
  8
0
  6
CONTINUOUS
 10
2.045560
 20
3.481720
  0
VERTEX
  8
0
  6
CONTINUOUS
 10
2.058320
 20
3.518240
  0
VERTEX
  8
0
  6
CONTINUOUS
 10
2.075480
 20
3.550800
  0
VERTEX
  8
0
  6
CONTINUOUS
 10
2.097480
 20
3.578960
  0
VERTEX
  8
0
  6
CONTINUOUS
 10
2.113760
 20
3.595240
  0
VERTEX
  8
0
  6
CONTINUOUS
 10
2.131800
 20
3.610200
  0
VERTEX
  8
0
  6
CONTINUOUS
 10
2.150720
 20
3.622960
  0
VERTEX
  8
0
  6
CONTINUOUS
 10
2.170960
 20
3.633520
  0
VERTEX
  8
0
  6
CONTINUOUS
 10
2.214080
 20
3.649800
  0
VERTEX
  8
0
  6
CONTINUOUS
 10
2.259400
 20
3.658160
  0
VERTEX
  8
0
  6
CONTINUOUS
 10
2.282280
 20
3.659480
  0
VERTEX
  8
0
  6
CONTINUOUS
 10
2.305160
 20
3.659040
  0
VERTEX
  8
0
  6
CONTINUOUS
 10
2.328040
 20
3.656400
  0
VERTEX
  8
0
  6
CONTINUOUS
 10
2.350480
 20
3.652000
  0
VERTEX
  8
0
  6
CONTINUOUS
 10
2.372480
 20
3.645840
  0
VERTEX
  8
0
  6
CONTINUOUS
 10
2.393600
 20
3.637480
  0
VERTEX
  8
0
  6
CONTINUOUS
 10
2.413840
 20
3.627360
  0
VERTEX
  8
0
  6
CONTINUOUS
 10
2.432760
 20
3.615480
  0
VERTEX
  8
0
  6
CONTINUOUS
 10
2.450800
 20
3.601400
  0
VERTEX
  8
0
  6
CONTINUOUS
 10
2.475000
 20
3.577200
  0
VERTEX
  8
0
  6
CONTINUOUS
 10
2.495240
 20
3.548160
  0
VERTEX
  8
0
  6
CONTINUOUS
 10
2.511080
 20
3.514720
  0
VERTEX
  8
0
  6
CONTINUOUS
 10
2.519000
 20
3.490080
  0
VERTEX
  8
0
  6
CONTINUOUS
 10
2.526040
 20
3.449600
  0
VERTEX
  8
0
  6
CONTINUOUS
 10
2.527360
 20
3.420120
  0
VERTEX
  8
0
  6
CONTINUOUS
 10
2.654080
 20
3.420120
  0
VERTEX
  8
0
  6
CONTINUOUS
 10
2.654080
 20
3.685000
  0
VERTEX
  8
0
  6
CONTINUOUS
 10
7.542480
 20
3.685000
  0
VERTEX
  8
0
  6
CONTINUOUS
 10
7.542480
 20
2.935680
  0
VERTEX
  8
0
  6
CONTINUOUS
 10
2.037200
 20
2.935680
  0
VERTEX
  8
0
  6
CONTINUOUS
 10
2.037200
 20
3.411320
  0
SEQEND
  8
0
  0
SOLID
  8
0
 62
    15
 10
6.141080
 20
1.949640
 11
6.784800
 21
2.324520
 12
6.141080
 22
1.684760
 13
6.784800
 23
2.059640
  0
POLYLINE
  8
0
  6
CONTINUOUS
 66
     1
 40
0.000000
 41
0.000000
  0
VERTEX
  8
0
  6
CONTINUOUS
 10
6.141080
 20
1.949640
  0
VERTEX
  8
0
  6
CONTINUOUS
 10
6.784800
 20
2.324520
  0
VERTEX
  8
0
  6
CONTINUOUS
 10
6.784800
 20
2.059640
  0
VERTEX
  8
0
  6
CONTINUOUS
 10
6.141080
 20
1.684760
  0
VERTEX
  8
0
  6
CONTINUOUS
 10
6.141080
 20
1.949640
  0
SEQEND
  8
0
  0
SOLID
  8
0
 62
    15
 10
1.252680
 20
1.949640
 11
1.895960
 21
2.324520
 12
6.141080
 22
1.949640
 13
6.784800
 23
2.324520
  0
POLYLINE
  8
0
  6
CONTINUOUS
 66
     1
 40
0.000000
 41
0.000000
  0
VERTEX
  8
0
  6
CONTINUOUS
 10
1.252680
 20
1.949640
  0
VERTEX
  8
0
  6
CONTINUOUS
 10
1.895960
 20
2.324520
  0
VERTEX
  8
0
  6
CONTINUOUS
 10
6.784800
 20
2.324520
  0
VERTEX
  8
0
  6
CONTINUOUS
 10
6.141080
 20
1.949640
  0
VERTEX
  8
0
  6
CONTINUOUS
 10
1.252680
 20
1.949640
  0
SEQEND
  8
0
  0
SOLID
  8
0
 62
    15
 10
6.141080
 20
1.684760
 11
6.784800
 21
2.059640
 12
6.267360
 22
1.684760
 13
6.911080
 23
2.059640
  0
POLYLINE
  8
0
  6
CONTINUOUS
 66
     1
 40
0.000000
 41
0.000000
  0
VERTEX
  8
0
  6
CONTINUOUS
 10
6.141080
 20
1.684760
  0
VERTEX
  8
0
  6
CONTINUOUS
 10
6.784800
 20
2.059640
  0
VERTEX
  8
0
  6
CONTINUOUS
 10
6.911080
 20
2.059640
  0
VERTEX
  8
0
  6
CONTINUOUS
 10
6.267360
 20
1.684760
  0
VERTEX
  8
0
  6
CONTINUOUS
 10
6.141080
 20
1.684760
  0
SEQEND
  8
0
  0
SOLID
  8
0
 62
    15
 10
6.512880
 20
1.924120
 11
7.156160
 21
2.299000
 12
6.558640
 22
1.919720
 13
7.201920
 23
2.294160
  0
POLYLINE
  8
0
  6
CONTINUOUS
 66
     1
 40
0.000000
 41
0.000000
  0
VERTEX
  8
0
  6
CONTINUOUS
 10
6.512880
 20
1.924120
  0
VERTEX
  8
0
  6
CONTINUOUS
 10
7.156160
 20
2.299000
  0
VERTEX
  8
0
  6
CONTINUOUS
 10
7.201920
 20
2.294160
  0
VERTEX
  8
0
  6
CONTINUOUS
 10
6.558640
 20
1.919720
  0
VERTEX
  8
0
  6
CONTINUOUS
 10
6.512880
 20
1.924120
  0
SEQEND
  8
0
  0
SOLID
  8
0
 62
    15
 10
6.381320
 20
1.892440
 11
7.024600
 21
2.267320
 12
6.422680
 22
1.910480
 13
7.065960
 23
2.285360
  0
POLYLINE
  8
0
  6
CONTINUOUS
 66
     1
 40
0.000000
 41
0.000000
  0
VERTEX
  8
0
  6
CONTINUOUS
 10
6.381320
 20
1.892440
  0
VERTEX
  8
0
  6
CONTINUOUS
 10
7.024600
 20
2.267320
  0
VERTEX
  8
0
  6
CONTINUOUS
 10
7.065960
 20
2.285360
  0
VERTEX
  8
0
  6
CONTINUOUS
 10
6.422680
 20
1.910480
  0
VERTEX
  8
0
  6
CONTINUOUS
 10
6.381320
 20
1.892440
  0
SEQEND
  8
0
  0
SOLID
  8
0
 62
    15
 10
6.422680
 20
1.910480
 11
7.065960
 21
2.285360
 12
6.467120
 22
1.921480
 13
7.110400
 23
2.295920
  0
POLYLINE
  8
0
  6
CONTINUOUS
 66
     1
 40
0.000000
 41
0.000000
  0
VERTEX
  8
0
  6
CONTINUOUS
 10
6.422680
 20
1.910480
  0
VERTEX
  8
0
  6
CONTINUOUS
 10
7.065960
 20
2.285360
  0
VERTEX
  8
0
  6
CONTINUOUS
 10
7.110400
 20
2.295920
  0
VERTEX
  8
0
  6
CONTINUOUS
 10
6.467120
 20
1.921480
  0
VERTEX
  8
0
  6
CONTINUOUS
 10
6.422680
 20
1.910480
  0
SEQEND
  8
0
  0
SOLID
  8
0
 62
    15
 10
6.467120
 20
1.921480
 11
7.110400
 21
2.295920
 12
6.512880
 22
1.924120
 13
7.156160
 23
2.299000
  0
POLYLINE
  8
0
  6
CONTINUOUS
 66
     1
 40
0.000000
 41
0.000000
  0
VERTEX
  8
0
  6
CONTINUOUS
 10
6.467120
 20
1.921480
  0
VERTEX
  8
0
  6
CONTINUOUS
 10
7.110400
 20
2.295920
  0
VERTEX
  8
0
  6
CONTINUOUS
 10
7.156160
 20
2.299000
  0
VERTEX
  8
0
  6
CONTINUOUS
 10
6.512880
 20
1.924120
  0
VERTEX
  8
0
  6
CONTINUOUS
 10
6.467120
 20
1.921480
  0
SEQEND
  8
0
  0
SOLID
  8
0
 62
    15
 10
6.757960
 20
1.675960
 11
7.401240
 21
2.050840
 12
6.757960
 22
1.200320
 13
7.401240
 23
1.575200
  0
POLYLINE
  8
0
  6
CONTINUOUS
 66
     1
 40
0.000000
 41
0.000000
  0
VERTEX
  8
0
  6
CONTINUOUS
 10
6.757960
 20
1.675960
  0
VERTEX
  8
0
  6
CONTINUOUS
 10
7.401240
 20
2.050840
  0
VERTEX
  8
0
  6
CONTINUOUS
 10
7.401240
 20
1.575200
  0
VERTEX
  8
0
  6
CONTINUOUS
 10
6.757960
 20
1.200320
  0
VERTEX
  8
0
  6
CONTINUOUS
 10
6.757960
 20
1.675960
  0
SEQEND
  8
0
  0
SOLID
  8
0
 62
    15
 10
6.558640
 20
1.919720
 11
7.201920
 21
2.294160
 12
6.602640
 22
1.907400
 13
7.246360
 23
2.282280
  0
POLYLINE
  8
0
  6
CONTINUOUS
 66
     1
 40
0.000000
 41
0.000000
  0
VERTEX
  8
0
  6
CONTINUOUS
 10
6.558640
 20
1.919720
  0
VERTEX
  8
0
  6
CONTINUOUS
 10
7.201920
 20
2.294160
  0
VERTEX
  8
0
  6
CONTINUOUS
 10
7.246360
 20
2.282280
  0
VERTEX
  8
0
  6
CONTINUOUS
 10
6.602640
 20
1.907400
  0
VERTEX
  8
0
  6
CONTINUOUS
 10
6.558640
 20
1.919720
  0
SEQEND
  8
0
  0
SOLID
  8
0
 62
    15
 10
6.602640
 20
1.907400
 11
7.246360
 21
2.282280
 12
6.644000
 22
1.887600
 13
7.287720
 23
2.262480
  0
POLYLINE
  8
0
  6
CONTINUOUS
 66
     1
 40
0.000000
 41
0.000000
  0
VERTEX
  8
0
  6
CONTINUOUS
 10
6.602640
 20
1.907400
  0
VERTEX
  8
0
  6
CONTINUOUS
 10
7.246360
 20
2.282280
  0
VERTEX
  8
0
  6
CONTINUOUS
 10
7.287720
 20
2.262480
  0
VERTEX
  8
0
  6
CONTINUOUS
 10
6.644000
 20
1.887600
  0
VERTEX
  8
0
  6
CONTINUOUS
 10
6.602640
 20
1.907400
  0
SEQEND
  8
0
  0
SOLID
  8
0
 62
    15
 10
6.644000
 20
1.887600
 11
7.287720
 21
2.262480
 12
6.681400
 22
1.860320
 13
7.324680
 23
2.234760
  0
POLYLINE
  8
0
  6
CONTINUOUS
 66
     1
 40
0.000000
 41
0.000000
  0
VERTEX
  8
0
  6
CONTINUOUS
 10
6.644000
 20
1.887600
  0
VERTEX
  8
0
  6
CONTINUOUS
 10
7.287720
 20
2.262480
  0
VERTEX
  8
0
  6
CONTINUOUS
 10
7.324680
 20
2.234760
  0
VERTEX
  8
0
  6
CONTINUOUS
 10
6.681400
 20
1.860320
  0
VERTEX
  8
0
  6
CONTINUOUS
 10
6.644000
 20
1.887600
  0
SEQEND
  8
0
  0
SOLID
  8
0
 62
    15
 10
6.681400
 20
1.860320
 11
7.324680
 21
2.234760
 12
6.712640
 22
1.825560
 13
7.355920
 23
2.200000
  0
POLYLINE
  8
0
  6
CONTINUOUS
 66
     1
 40
0.000000
 41
0.000000
  0
VERTEX
  8
0
  6
CONTINUOUS
 10
6.681400
 20
1.860320
  0
VERTEX
  8
0
  6
CONTINUOUS
 10
7.324680
 20
2.234760
  0
VERTEX
  8
0
  6
CONTINUOUS
 10
7.355920
 20
2.200000
  0
VERTEX
  8
0
  6
CONTINUOUS
 10
6.712640
 20
1.825560
  0
VERTEX
  8
0
  6
CONTINUOUS
 10
6.681400
 20
1.860320
  0
SEQEND
  8
0
  0
SOLID
  8
0
 62
    15
 10
6.712640
 20
1.825560
 11
7.355920
 21
2.200000
 12
6.736840
 22
1.782880
 13
7.380120
 23
2.157760
  0
POLYLINE
  8
0
  6
CONTINUOUS
 66
     1
 40
0.000000
 41
0.000000
  0
VERTEX
  8
0
  6
CONTINUOUS
 10
6.712640
 20
1.825560
  0
VERTEX
  8
0
  6
CONTINUOUS
 10
7.355920
 20
2.200000
  0
VERTEX
  8
0
  6
CONTINUOUS
 10
7.380120
 20
2.157760
  0
VERTEX
  8
0
  6
CONTINUOUS
 10
6.736840
 20
1.782880
  0
VERTEX
  8
0
  6
CONTINUOUS
 10
6.712640
 20
1.825560
  0
SEQEND
  8
0
  0
SOLID
  8
0
 62
    15
 10
6.736840
 20
1.782880
 11
7.380120
 21
2.157760
 12
6.752240
 22
1.733160
 13
7.395960
 23
2.108040
  0
POLYLINE
  8
0
  6
CONTINUOUS
 66
     1
 40
0.000000
 41
0.000000
  0
VERTEX
  8
0
  6
CONTINUOUS
 10
6.736840
 20
1.782880
  0
VERTEX
  8
0
  6
CONTINUOUS
 10
7.380120
 20
2.157760
  0
VERTEX
  8
0
  6
CONTINUOUS
 10
7.395960
 20
2.108040
  0
VERTEX
  8
0
  6
CONTINUOUS
 10
6.752240
 20
1.733160
  0
VERTEX
  8
0
  6
CONTINUOUS
 10
6.736840
 20
1.782880
  0
SEQEND
  8
0
  0
SOLID
  8
0
 62
    15
 10
6.752240
 20
1.733160
 11
7.395960
 21
2.108040
 12
6.757960
 22
1.675960
 13
7.401240
 23
2.050840
  0
POLYLINE
  8
0
  6
CONTINUOUS
 66
     1
 40
0.000000
 41
0.000000
  0
VERTEX
  8
0
  6
CONTINUOUS
 10
6.752240
 20
1.733160
  0
VERTEX
  8
0
  6
CONTINUOUS
 10
7.395960
 20
2.108040
  0
VERTEX
  8
0
  6
CONTINUOUS
 10
7.401240
 20
2.050840
  0
VERTEX
  8
0
  6
CONTINUOUS
 10
6.757960
 20
1.675960
  0
VERTEX
  8
0
  6
CONTINUOUS
 10
6.752240
 20
1.733160
  0
SEQEND
  8
0
  0
POLYLINE
  8
0
  6
CONTINUOUS
 66
     1
 40
0.000000
 41
0.000000
  0
VERTEX
  8
0
  6
CONTINUOUS
 10
6.757960
 20
1.675960
  0
VERTEX
  8
0
  6
CONTINUOUS
 10
6.757960
 20
1.200320
  0
VERTEX
  8
0
  6
CONTINUOUS
 10
1.252680
 20
1.200320
  0
VERTEX
  8
0
  6
CONTINUOUS
 10
1.252680
 20
1.949640
  0
VERTEX
  8
0
  6
CONTINUOUS
 10
6.141080
 20
1.949640
  0
VERTEX
  8
0
  6
CONTINUOUS
 10
6.141080
 20
1.684760
  0
VERTEX
  8
0
  6
CONTINUOUS
 10
6.267360
 20
1.684760
  0
VERTEX
  8
0
  6
CONTINUOUS
 10
6.273080
 20
1.741960
  0
VERTEX
  8
0
  6
CONTINUOUS
 10
6.288480
 20
1.791240
  0
VERTEX
  8
0
  6
CONTINUOUS
 10
6.312680
 20
1.832600
  0
VERTEX
  8
0
  6
CONTINUOUS
 10
6.344360
 20
1.866480
  0
VERTEX
  8
0
  6
CONTINUOUS
 10
6.381320
 20
1.892440
  0
VERTEX
  8
0
  6
CONTINUOUS
 10
6.422680
 20
1.910480
  0
VERTEX
  8
0
  6
CONTINUOUS
 10
6.467120
 20
1.921480
  0
VERTEX
  8
0
  6
CONTINUOUS
 10
6.512880
 20
1.924120
  0
VERTEX
  8
0
  6
CONTINUOUS
 10
6.558640
 20
1.919720
  0
VERTEX
  8
0
  6
CONTINUOUS
 10
6.602640
 20
1.907400
  0
VERTEX
  8
0
  6
CONTINUOUS
 10
6.644000
 20
1.887600
  0
VERTEX
  8
0
  6
CONTINUOUS
 10
6.681400
 20
1.860320
  0
VERTEX
  8
0
  6
CONTINUOUS
 10
6.712640
 20
1.825560
  0
VERTEX
  8
0
  6
CONTINUOUS
 10
6.736840
 20
1.782880
  0
VERTEX
  8
0
  6
CONTINUOUS
 10
6.752240
 20
1.733160
  0
VERTEX
  8
0
  6
CONTINUOUS
 10
6.757960
 20
1.675960
  0
SEQEND
  8
0
  0
TEXT
  8
0
 10
3.986400
 20
0.922240
 40
0.138276
  1
BA  1182
 41
1.000000
  7
SN0
 71
     0
 72
     5
 11
4.669435
 21
0.922240
  0
TEXT
  8
0
 10
3.876840
 20
0.730400
 40
0.138276
  1
3/4" x 5-1/2"
 41
1.000000
  7
SN0
 71
     0
 72
     5
 11
4.778422
 21
0.730400
  0
TEXT
  8
0
 10
4.449720
 20
3.266560
 40
0.138276
  1
BA  1182
 41
1.000000
  7
SN0
 71
     0
 72
     5
 11
5.132755
 21
3.266560
  0
TEXT
  8
0
 10
4.340160
 20
3.074720
 40
0.138276
  1
3/4" x 5-1/2"
 41
1.000000
  7
SN0
 71
     0
 72
     5
 11
5.241742
 21
3.074720
  0
ENDSEC
  0
EOF
