  0
SECTION
  2
HEADER
  9
$ACADVER
  1
AC1006
  9
$EXTMIN
 10
2.675200
 20
0.876480
  9
$EXTMAX
 10
5.542680
 20
3.629120
  9
$LTSCALE
 40
0.044000
  9
$PDMODE
 70
    35
  9
$PDSIZE
 40
0.035200
  0
ENDSEC
  0
SECTION
  2
TABLES
  0
TABLE
  2
LTYPE
 70
     9
  0
LTYPE
  2
CONTINUOUS
 70
    64
  3
Solid line
 72
    65
 73
     0
 40
0.000000
  0
LTYPE
  2
DASHED
 70
    64
  3
__ __ __ __ __ __ __ __ __ __ __ __ __ __ __
 72
    65
 73
     2
 40
0.000330
 49
0.000220
 49
-0.000110
  0
LTYPE
  2
HIDDEN
 70
    64
  3
 _ _ _ _ _ _ _ _ _ _ _ _ _ _ _ _ _ _ _ _ _ _
 72
    65
 73
     2
 40
0.000165
 49
0.000110
 49
-0.000055
  0
LTYPE
  2
CENTER
 70
    64
  3
____ _ ____ _ ____ _ ____ _ ____ _ ____ _ ____
 72
    65
 73
     4
 40
0.000880
 49
0.000550
 49
-0.000110
 49
0.000110
 49
-0.000110
  0
LTYPE
  2
PHANTOM
 70
    64
  3
_____ _ _ _____ _ _ _____ _ _ _____ _ _ ____
 72
    65
 73
     6
 40
0.001100
 49
0.000550
 49
-0.000110
 49
0.000110
 49
-0.000110
 49
0.000110
 49
-0.000110
  0
LTYPE
  2
DOT
 70
    64
  3
...............................................
 72
    65
 73
     2
 40
0.000110
 49
0.000000
 49
-0.000110
  0
LTYPE
  2
DASHDOT
 70
    64
  3
__ . __ . __ . __ . __ . __ . __ . __ . __ . __
 72
    65
 73
     4
 40
0.000440
 49
0.000220
 49
-0.000110
 49
0.000000
 49
-0.000110
  0
LTYPE
  2
BORDER
 70
    64
  3
__ __ . __ __ . __ __ . __ __ . __ __ . __ __
 72
    65
 73
     6
 40
0.000770
 49
0.000220
 49
-0.000110
 49
0.000220
 49
-0.000110
 49
0.000000
 49
-0.000110
  0
LTYPE
  2
DIVIDE
 70
    64
  3
__ . . __ . . __ . . __ . . __ . . __ . . __
 72
    65
 73
     6
 40
0.000550
 49
0.000220
 49
-0.000110
 49
0.000000
 49
-0.000110
 49
0.000000
 49
-0.000110
  0
LTYPE
  2
DOTDOT
 70
    64
  3
 . .  . .  . .  . .  . .  . . 
 72
    65
 73
     5
 40
0.000242
 49
-0.000110
 49
0.000000
 49
-0.000110
 49
0.000000
 49
-0.000110
  0
ENDTAB
  0
TABLE
  2
STYLE
 70
     2
  0
STYLE
 70
     0
  2
SN0
 40
0.000000
 41
0.000440
 50
0.000000
 71
     0
 42
0.000000
  3
ROMAND
  0
STYLE
 70
    68
  2
SV0
 40
0.000000
 41
0.000440
 50
0.000000
 71
     0
 42
0.000000
  3
ROMAND
  0
ENDTAB
  0
TABLE
  2
LAYER
 70
     3
  0
LAYER
  2
FOREGROUND
 70
    64
 62
     7
  6
CONTINUOUS
  0
LAYER
  2
BACKGROUND
 70
    65
 62
    -7
  6
CONTINUOUS
  0
LAYER
  2
0
 70
    64
 62
     7
  6
CONTINUOUS
  0
ENDTAB
  0
ENDSEC
  0
SECTION
  2
ENTITIES
  0
POLYLINE
  8
FOREGROUND
  6
CONTINUOUS
 66
     1
 40
0.000000
 41
0.000000
  0
VERTEX
  8
FOREGROUND
  6
CONTINUOUS
 10
0.000000
 20
4.505600
  0
VERTEX
  8
FOREGROUND
  6
CONTINUOUS
 10
8.499920
 20
4.505600
  0
VERTEX
  8
FOREGROUND
  6
CONTINUOUS
 10
8.499920
 20
-6.494400
  0
VERTEX
  8
FOREGROUND
  6
CONTINUOUS
 10
0.000000
 20
-6.494400
  0
VERTEX
  8
FOREGROUND
  6
CONTINUOUS
 10
0.000000
 20
4.505600
  0
SEQEND
  8
0
  0
POLYLINE
  8
FOREGROUND
  6
CONTINUOUS
 66
     1
 40
0.000000
 41
0.000000
  0
VERTEX
  8
FOREGROUND
  6
CONTINUOUS
 10
0.000000
 20
4.505600
  0
VERTEX
  8
FOREGROUND
  6
CONTINUOUS
 10
8.499920
 20
4.505600
  0
VERTEX
  8
FOREGROUND
  6
CONTINUOUS
 10
8.499920
 20
-6.494400
  0
VERTEX
  8
FOREGROUND
  6
CONTINUOUS
 10
0.000000
 20
-6.494400
  0
VERTEX
  8
FOREGROUND
  6
CONTINUOUS
 10
0.000000
 20
4.505600
  0
SEQEND
  8
0
  0
POLYLINE
  8
0
  6
CONTINUOUS
 66
     1
 40
0.014080
 41
0.014080
  0
VERTEX
  8
0
  6
CONTINUOUS
 10
3.187360
 20
2.993760
  0
VERTEX
  8
0
  6
CONTINUOUS
 10
2.927320
 20
3.494480
  0
VERTEX
  8
0
  6
CONTINUOUS
 10
3.123120
 20
3.621640
  0
VERTEX
  8
0
  6
CONTINUOUS
 10
3.145560
 20
3.597000
  0
VERTEX
  8
0
  6
CONTINUOUS
 10
3.170200
 20
3.576760
  0
VERTEX
  8
0
  6
CONTINUOUS
 10
3.197480
 20
3.560480
  0
VERTEX
  8
0
  6
CONTINUOUS
 10
3.212440
 20
3.553880
  0
VERTEX
  8
0
  6
CONTINUOUS
 10
3.245000
 20
3.545080
  0
VERTEX
  8
0
  6
CONTINUOUS
 10
3.282400
 20
3.541120
  0
VERTEX
  8
0
  6
CONTINUOUS
 10
3.303080
 20
3.541120
  0
VERTEX
  8
0
  6
CONTINUOUS
 10
3.348400
 20
3.545520
  0
VERTEX
  8
0
  6
CONTINUOUS
 10
3.399880
 20
3.556080
  0
VERTEX
  8
0
  6
CONTINUOUS
 10
3.479520
 20
3.452240
  0
VERTEX
  8
0
  6
CONTINUOUS
 10
3.505920
 20
3.476880
  0
VERTEX
  8
0
  6
CONTINUOUS
 10
3.521320
 20
3.487880
  0
VERTEX
  8
0
  6
CONTINUOUS
 10
3.555640
 20
3.505920
  0
VERTEX
  8
0
  6
CONTINUOUS
 10
3.575000
 20
3.513840
  0
VERTEX
  8
0
  6
CONTINUOUS
 10
3.617240
 20
3.526160
  0
VERTEX
  8
0
  6
CONTINUOUS
 10
3.663880
 20
3.534960
  0
VERTEX
  8
0
  6
CONTINUOUS
 10
3.715360
 20
3.540240
  0
VERTEX
  8
0
  6
CONTINUOUS
 10
3.770360
 20
3.542880
  0
VERTEX
  8
0
  6
CONTINUOUS
 10
3.829320
 20
3.542440
  0
VERTEX
  8
0
  6
CONTINUOUS
 10
3.924360
 20
3.537160
  0
VERTEX
  8
0
  6
CONTINUOUS
 10
4.025560
 20
3.527040
  0
VERTEX
  8
0
  6
CONTINUOUS
 10
4.169440
 20
3.508120
  0
VERTEX
  8
0
  6
CONTINUOUS
 10
4.437840
 20
3.465000
  0
VERTEX
  8
0
  6
CONTINUOUS
 10
4.512640
 20
3.456200
  0
VERTEX
  8
0
  6
CONTINUOUS
 10
4.583920
 20
3.451800
  0
VERTEX
  8
0
  6
CONTINUOUS
 10
4.651680
 20
3.450920
  0
VERTEX
  8
0
  6
CONTINUOUS
 10
4.716360
 20
3.453560
  0
VERTEX
  8
0
  6
CONTINUOUS
 10
4.777960
 20
3.459280
  0
VERTEX
  8
0
  6
CONTINUOUS
 10
4.836040
 20
3.467640
  0
VERTEX
  8
0
  6
CONTINUOUS
 10
4.918320
 20
3.484800
  0
VERTEX
  8
0
  6
CONTINUOUS
 10
4.993560
 20
3.506360
  0
VERTEX
  8
0
  6
CONTINUOUS
 10
5.063520
 20
3.531000
  0
VERTEX
  8
0
  6
CONTINUOUS
 10
5.148000
 20
3.567080
  0
VERTEX
  8
0
  6
CONTINUOUS
 10
5.257560
 20
3.621640
  0
VERTEX
  8
0
  6
CONTINUOUS
 10
5.424320
 20
3.267000
  0
VERTEX
  8
0
  6
CONTINUOUS
 10
4.792040
 20
2.993760
  0
VERTEX
  8
0
  6
CONTINUOUS
 10
3.187360
 20
2.993760
  0
SEQEND
  8
0
  0
TEXT
  8
0
 10
5.219720
 20
2.972640
 40
0.138134
  1
23.3
 41
1.000000
  7
SN0
 71
     0
 72
     5
 11
5.542598
 21
2.972640
  0
TEXT
  8
0
 10
2.676520
 20
3.004760
 40
0.138134
  1
62.6
 41
1.000000
  7
SN0
 71
     0
 72
     5
 11
2.999398
 21
3.004760
  0
SOLID
  8
0
 62
    15
 10
3.542440
 20
1.663640
 11
4.198480
 21
1.295360
 12
3.439920
 22
1.613920
 13
4.095960
 23
1.245640
  0
POLYLINE
  8
0
  6
CONTINUOUS
 66
     1
 40
0.000000
 41
0.000000
  0
VERTEX
  8
0
  6
CONTINUOUS
 10
3.542440
 20
1.663640
  0
VERTEX
  8
0
  6
CONTINUOUS
 10
4.198480
 20
1.295360
  0
VERTEX
  8
0
  6
CONTINUOUS
 10
4.095960
 20
1.245640
  0
VERTEX
  8
0
  6
CONTINUOUS
 10
3.439920
 20
1.613920
  0
VERTEX
  8
0
  6
CONTINUOUS
 10
3.542440
 20
1.663640
  0
SEQEND
  8
0
  0
SOLID
  8
0
 62
    15
 10
4.851000
 20
2.241360
 11
5.507040
 21
1.873080
 12
4.771360
 22
2.241800
 13
5.427400
 23
1.873520
  0
POLYLINE
  8
0
  6
CONTINUOUS
 66
     1
 40
0.000000
 41
0.000000
  0
VERTEX
  8
0
  6
CONTINUOUS
 10
4.851000
 20
2.241360
  0
VERTEX
  8
0
  6
CONTINUOUS
 10
5.507040
 20
1.873080
  0
VERTEX
  8
0
  6
CONTINUOUS
 10
5.427400
 20
1.873520
  0
VERTEX
  8
0
  6
CONTINUOUS
 10
4.771360
 20
2.241800
  0
VERTEX
  8
0
  6
CONTINUOUS
 10
4.851000
 20
2.241360
  0
SEQEND
  8
0
  0
SOLID
  8
0
 62
    15
 10
4.771360
 20
2.241800
 11
5.427400
 21
1.873520
 12
4.683360
 22
2.238280
 13
5.339400
 23
1.870000
  0
POLYLINE
  8
0
  6
CONTINUOUS
 66
     1
 40
0.000000
 41
0.000000
  0
VERTEX
  8
0
  6
CONTINUOUS
 10
4.771360
 20
2.241800
  0
VERTEX
  8
0
  6
CONTINUOUS
 10
5.427400
 20
1.873520
  0
VERTEX
  8
0
  6
CONTINUOUS
 10
5.339400
 20
1.870000
  0
VERTEX
  8
0
  6
CONTINUOUS
 10
4.683360
 20
2.238280
  0
VERTEX
  8
0
  6
CONTINUOUS
 10
4.771360
 20
2.241800
  0
SEQEND
  8
0
  0
SOLID
  8
0
 62
    15
 10
4.683360
 20
2.238280
 11
5.339400
 21
1.870000
 12
4.588320
 22
2.228160
 13
5.244360
 23
1.859880
  0
POLYLINE
  8
0
  6
CONTINUOUS
 66
     1
 40
0.000000
 41
0.000000
  0
VERTEX
  8
0
  6
CONTINUOUS
 10
4.683360
 20
2.238280
  0
VERTEX
  8
0
  6
CONTINUOUS
 10
5.339400
 20
1.870000
  0
VERTEX
  8
0
  6
CONTINUOUS
 10
5.244360
 20
1.859880
  0
VERTEX
  8
0
  6
CONTINUOUS
 10
4.588320
 20
2.228160
  0
VERTEX
  8
0
  6
CONTINUOUS
 10
4.683360
 20
2.238280
  0
SEQEND
  8
0
  0
SOLID
  8
0
 62
    15
 10
4.588320
 20
2.228160
 11
5.244360
 21
1.859880
 12
4.486240
 22
2.209240
 13
5.142280
 23
1.840960
  0
POLYLINE
  8
0
  6
CONTINUOUS
 66
     1
 40
0.000000
 41
0.000000
  0
VERTEX
  8
0
  6
CONTINUOUS
 10
4.588320
 20
2.228160
  0
VERTEX
  8
0
  6
CONTINUOUS
 10
5.244360
 20
1.859880
  0
VERTEX
  8
0
  6
CONTINUOUS
 10
5.142280
 20
1.840960
  0
VERTEX
  8
0
  6
CONTINUOUS
 10
4.486240
 20
2.209240
  0
VERTEX
  8
0
  6
CONTINUOUS
 10
4.588320
 20
2.228160
  0
SEQEND
  8
0
  0
SOLID
  8
0
 62
    15
 10
4.486240
 20
2.209240
 11
5.142280
 21
1.840960
 12
4.378000
 22
2.178440
 13
5.034040
 23
1.810160
  0
POLYLINE
  8
0
  6
CONTINUOUS
 66
     1
 40
0.000000
 41
0.000000
  0
VERTEX
  8
0
  6
CONTINUOUS
 10
4.486240
 20
2.209240
  0
VERTEX
  8
0
  6
CONTINUOUS
 10
5.142280
 20
1.840960
  0
VERTEX
  8
0
  6
CONTINUOUS
 10
5.034040
 20
1.810160
  0
VERTEX
  8
0
  6
CONTINUOUS
 10
4.378000
 20
2.178440
  0
VERTEX
  8
0
  6
CONTINUOUS
 10
4.486240
 20
2.209240
  0
SEQEND
  8
0
  0
SOLID
  8
0
 62
    15
 10
4.378000
 20
2.178440
 11
5.034040
 21
1.810160
 12
4.263160
 22
2.132680
 13
4.919200
 23
1.764400
  0
POLYLINE
  8
0
  6
CONTINUOUS
 66
     1
 40
0.000000
 41
0.000000
  0
VERTEX
  8
0
  6
CONTINUOUS
 10
4.378000
 20
2.178440
  0
VERTEX
  8
0
  6
CONTINUOUS
 10
5.034040
 20
1.810160
  0
VERTEX
  8
0
  6
CONTINUOUS
 10
4.919200
 20
1.764400
  0
VERTEX
  8
0
  6
CONTINUOUS
 10
4.263160
 20
2.132680
  0
VERTEX
  8
0
  6
CONTINUOUS
 10
4.378000
 20
2.178440
  0
SEQEND
  8
0
  0
SOLID
  8
0
 62
    15
 10
4.263160
 20
2.132680
 11
4.919200
 21
1.764400
 12
4.143040
 22
2.069320
 13
4.799080
 23
1.701040
  0
POLYLINE
  8
0
  6
CONTINUOUS
 66
     1
 40
0.000000
 41
0.000000
  0
VERTEX
  8
0
  6
CONTINUOUS
 10
4.263160
 20
2.132680
  0
VERTEX
  8
0
  6
CONTINUOUS
 10
4.919200
 20
1.764400
  0
VERTEX
  8
0
  6
CONTINUOUS
 10
4.799080
 20
1.701040
  0
VERTEX
  8
0
  6
CONTINUOUS
 10
4.143040
 20
2.069320
  0
VERTEX
  8
0
  6
CONTINUOUS
 10
4.263160
 20
2.132680
  0
SEQEND
  8
0
  0
SOLID
  8
0
 62
    15
 10
4.143040
 20
2.069320
 11
4.799080
 21
1.701040
 12
4.017640
 22
1.985720
 13
4.673680
 23
1.617440
  0
POLYLINE
  8
0
  6
CONTINUOUS
 66
     1
 40
0.000000
 41
0.000000
  0
VERTEX
  8
0
  6
CONTINUOUS
 10
4.143040
 20
2.069320
  0
VERTEX
  8
0
  6
CONTINUOUS
 10
4.799080
 20
1.701040
  0
VERTEX
  8
0
  6
CONTINUOUS
 10
4.673680
 20
1.617440
  0
VERTEX
  8
0
  6
CONTINUOUS
 10
4.017640
 20
1.985720
  0
VERTEX
  8
0
  6
CONTINUOUS
 10
4.143040
 20
2.069320
  0
SEQEND
  8
0
  0
SOLID
  8
0
 62
    15
 10
4.017640
 20
1.985720
 11
4.673680
 21
1.617440
 12
3.891800
 22
1.892880
 13
4.547840
 23
1.524600
  0
POLYLINE
  8
0
  6
CONTINUOUS
 66
     1
 40
0.000000
 41
0.000000
  0
VERTEX
  8
0
  6
CONTINUOUS
 10
4.017640
 20
1.985720
  0
VERTEX
  8
0
  6
CONTINUOUS
 10
4.673680
 20
1.617440
  0
VERTEX
  8
0
  6
CONTINUOUS
 10
4.547840
 20
1.524600
  0
VERTEX
  8
0
  6
CONTINUOUS
 10
3.891800
 20
1.892880
  0
VERTEX
  8
0
  6
CONTINUOUS
 10
4.017640
 20
1.985720
  0
SEQEND
  8
0
  0
SOLID
  8
0
 62
    15
 10
3.891800
 20
1.892880
 11
4.547840
 21
1.524600
 12
3.769480
 22
1.806200
 13
4.425520
 23
1.437920
  0
POLYLINE
  8
0
  6
CONTINUOUS
 66
     1
 40
0.000000
 41
0.000000
  0
VERTEX
  8
0
  6
CONTINUOUS
 10
3.891800
 20
1.892880
  0
VERTEX
  8
0
  6
CONTINUOUS
 10
4.547840
 20
1.524600
  0
VERTEX
  8
0
  6
CONTINUOUS
 10
4.425520
 20
1.437920
  0
VERTEX
  8
0
  6
CONTINUOUS
 10
3.769480
 20
1.806200
  0
VERTEX
  8
0
  6
CONTINUOUS
 10
3.891800
 20
1.892880
  0
SEQEND
  8
0
  0
SOLID
  8
0
 62
    15
 10
3.769480
 20
1.806200
 11
4.425520
 21
1.437920
 12
3.652880
 22
1.728760
 13
4.308920
 23
1.360480
  0
POLYLINE
  8
0
  6
CONTINUOUS
 66
     1
 40
0.000000
 41
0.000000
  0
VERTEX
  8
0
  6
CONTINUOUS
 10
3.769480
 20
1.806200
  0
VERTEX
  8
0
  6
CONTINUOUS
 10
4.425520
 20
1.437920
  0
VERTEX
  8
0
  6
CONTINUOUS
 10
4.308920
 20
1.360480
  0
VERTEX
  8
0
  6
CONTINUOUS
 10
3.652880
 20
1.728760
  0
VERTEX
  8
0
  6
CONTINUOUS
 10
3.769480
 20
1.806200
  0
SEQEND
  8
0
  0
SOLID
  8
0
 62
    15
 10
3.652880
 20
1.728760
 11
4.308920
 21
1.360480
 12
3.542440
 22
1.663640
 13
4.198480
 23
1.295360
  0
POLYLINE
  8
0
  6
CONTINUOUS
 66
     1
 40
0.000000
 41
0.000000
  0
VERTEX
  8
0
  6
CONTINUOUS
 10
3.652880
 20
1.728760
  0
VERTEX
  8
0
  6
CONTINUOUS
 10
4.308920
 20
1.360480
  0
VERTEX
  8
0
  6
CONTINUOUS
 10
4.198480
 20
1.295360
  0
VERTEX
  8
0
  6
CONTINUOUS
 10
3.542440
 20
1.663640
  0
VERTEX
  8
0
  6
CONTINUOUS
 10
3.652880
 20
1.728760
  0
SEQEND
  8
0
  0
SOLID
  8
0
 62
    15
 10
4.838680
 20
2.632960
 11
5.494720
 21
2.264680
 12
4.851000
 22
2.241360
 13
5.507040
 23
1.873080
  0
POLYLINE
  8
0
  6
CONTINUOUS
 66
     1
 40
0.000000
 41
0.000000
  0
VERTEX
  8
0
  6
CONTINUOUS
 10
4.838680
 20
2.632960
  0
VERTEX
  8
0
  6
CONTINUOUS
 10
5.494720
 20
2.264680
  0
VERTEX
  8
0
  6
CONTINUOUS
 10
5.507040
 20
1.873080
  0
VERTEX
  8
0
  6
CONTINUOUS
 10
4.851000
 20
2.241360
  0
VERTEX
  8
0
  6
CONTINUOUS
 10
4.838680
 20
2.632960
  0
SEQEND
  8
0
  0
SOLID
  8
0
 62
    15
 10
3.439920
 20
1.613920
 11
4.095960
 21
1.245640
 12
3.346200
 22
1.581800
 13
4.002240
 23
1.213520
  0
POLYLINE
  8
0
  6
CONTINUOUS
 66
     1
 40
0.000000
 41
0.000000
  0
VERTEX
  8
0
  6
CONTINUOUS
 10
3.439920
 20
1.613920
  0
VERTEX
  8
0
  6
CONTINUOUS
 10
4.095960
 20
1.245640
  0
VERTEX
  8
0
  6
CONTINUOUS
 10
4.002240
 20
1.213520
  0
VERTEX
  8
0
  6
CONTINUOUS
 10
3.346200
 20
1.581800
  0
VERTEX
  8
0
  6
CONTINUOUS
 10
3.439920
 20
1.613920
  0
SEQEND
  8
0
  0
SOLID
  8
0
 62
    15
 10
3.346200
 20
1.581800
 11
4.002240
 21
1.213520
 12
3.303080
 22
1.573880
 13
3.959120
 23
1.205600
  0
POLYLINE
  8
0
  6
CONTINUOUS
 66
     1
 40
0.000000
 41
0.000000
  0
VERTEX
  8
0
  6
CONTINUOUS
 10
3.346200
 20
1.581800
  0
VERTEX
  8
0
  6
CONTINUOUS
 10
4.002240
 20
1.213520
  0
VERTEX
  8
0
  6
CONTINUOUS
 10
3.959120
 20
1.205600
  0
VERTEX
  8
0
  6
CONTINUOUS
 10
3.303080
 20
1.573880
  0
VERTEX
  8
0
  6
CONTINUOUS
 10
3.346200
 20
1.581800
  0
SEQEND
  8
0
  0
SOLID
  8
0
 62
    15
 10
3.303080
 20
1.573880
 11
3.959120
 21
1.205600
 12
3.262600
 22
1.571680
 13
3.918640
 23
1.203400
  0
POLYLINE
  8
0
  6
CONTINUOUS
 66
     1
 40
0.000000
 41
0.000000
  0
VERTEX
  8
0
  6
CONTINUOUS
 10
3.303080
 20
1.573880
  0
VERTEX
  8
0
  6
CONTINUOUS
 10
3.959120
 20
1.205600
  0
VERTEX
  8
0
  6
CONTINUOUS
 10
3.918640
 20
1.203400
  0
VERTEX
  8
0
  6
CONTINUOUS
 10
3.262600
 20
1.571680
  0
VERTEX
  8
0
  6
CONTINUOUS
 10
3.303080
 20
1.573880
  0
SEQEND
  8
0
  0
SOLID
  8
0
 62
    15
 10
3.262600
 20
1.571680
 11
3.918640
 21
1.203400
 12
3.224760
 22
1.575200
 13
3.880800
 23
1.206920
  0
POLYLINE
  8
0
  6
CONTINUOUS
 66
     1
 40
0.000000
 41
0.000000
  0
VERTEX
  8
0
  6
CONTINUOUS
 10
3.262600
 20
1.571680
  0
VERTEX
  8
0
  6
CONTINUOUS
 10
3.918640
 20
1.203400
  0
VERTEX
  8
0
  6
CONTINUOUS
 10
3.880800
 20
1.206920
  0
VERTEX
  8
0
  6
CONTINUOUS
 10
3.224760
 20
1.575200
  0
VERTEX
  8
0
  6
CONTINUOUS
 10
3.262600
 20
1.571680
  0
SEQEND
  8
0
  0
SOLID
  8
0
 62
    15
 10
3.224760
 20
1.575200
 11
3.880800
 21
1.206920
 12
3.190000
 22
1.585320
 13
3.846040
 23
1.217040
  0
POLYLINE
  8
0
  6
CONTINUOUS
 66
     1
 40
0.000000
 41
0.000000
  0
VERTEX
  8
0
  6
CONTINUOUS
 10
3.224760
 20
1.575200
  0
VERTEX
  8
0
  6
CONTINUOUS
 10
3.880800
 20
1.206920
  0
VERTEX
  8
0
  6
CONTINUOUS
 10
3.846040
 20
1.217040
  0
VERTEX
  8
0
  6
CONTINUOUS
 10
3.190000
 20
1.585320
  0
VERTEX
  8
0
  6
CONTINUOUS
 10
3.224760
 20
1.575200
  0
SEQEND
  8
0
  0
SOLID
  8
0
 62
    15
 10
3.190000
 20
1.585320
 11
3.846040
 21
1.217040
 12
3.165800
 22
1.456400
 13
3.821840
 23
1.088120
  0
POLYLINE
  8
0
  6
CONTINUOUS
 66
     1
 40
0.000000
 41
0.000000
  0
VERTEX
  8
0
  6
CONTINUOUS
 10
3.190000
 20
1.585320
  0
VERTEX
  8
0
  6
CONTINUOUS
 10
3.846040
 20
1.217040
  0
VERTEX
  8
0
  6
CONTINUOUS
 10
3.821840
 20
1.088120
  0
VERTEX
  8
0
  6
CONTINUOUS
 10
3.165800
 20
1.456400
  0
VERTEX
  8
0
  6
CONTINUOUS
 10
3.190000
 20
1.585320
  0
SEQEND
  8
0
  0
SOLID
  8
0
 62
    15
 10
3.165800
 20
1.456400
 11
3.821840
 21
1.088120
 12
3.115200
 22
1.442320
 13
3.771240
 23
1.074040
  0
POLYLINE
  8
0
  6
CONTINUOUS
 66
     1
 40
0.000000
 41
0.000000
  0
VERTEX
  8
0
  6
CONTINUOUS
 10
3.165800
 20
1.456400
  0
VERTEX
  8
0
  6
CONTINUOUS
 10
3.821840
 20
1.088120
  0
VERTEX
  8
0
  6
CONTINUOUS
 10
3.771240
 20
1.074040
  0
VERTEX
  8
0
  6
CONTINUOUS
 10
3.115200
 20
1.442320
  0
VERTEX
  8
0
  6
CONTINUOUS
 10
3.165800
 20
1.456400
  0
SEQEND
  8
0
  0
SOLID
  8
0
 62
    15
 10
3.115200
 20
1.442320
 11
3.771240
 21
1.074040
 12
3.072960
 22
1.425600
 13
3.729000
 23
1.057320
  0
POLYLINE
  8
0
  6
CONTINUOUS
 66
     1
 40
0.000000
 41
0.000000
  0
VERTEX
  8
0
  6
CONTINUOUS
 10
3.115200
 20
1.442320
  0
VERTEX
  8
0
  6
CONTINUOUS
 10
3.771240
 20
1.074040
  0
VERTEX
  8
0
  6
CONTINUOUS
 10
3.729000
 20
1.057320
  0
VERTEX
  8
0
  6
CONTINUOUS
 10
3.072960
 20
1.425600
  0
VERTEX
  8
0
  6
CONTINUOUS
 10
3.115200
 20
1.442320
  0
SEQEND
  8
0
  0
SOLID
  8
0
 62
    15
 10
3.072960
 20
1.425600
 11
3.729000
 21
1.057320
 12
3.038200
 22
1.406680
 13
3.693800
 23
1.038400
  0
POLYLINE
  8
0
  6
CONTINUOUS
 66
     1
 40
0.000000
 41
0.000000
  0
VERTEX
  8
0
  6
CONTINUOUS
 10
3.072960
 20
1.425600
  0
VERTEX
  8
0
  6
CONTINUOUS
 10
3.729000
 20
1.057320
  0
VERTEX
  8
0
  6
CONTINUOUS
 10
3.693800
 20
1.038400
  0
VERTEX
  8
0
  6
CONTINUOUS
 10
3.038200
 20
1.406680
  0
VERTEX
  8
0
  6
CONTINUOUS
 10
3.072960
 20
1.425600
  0
SEQEND
  8
0
  0
SOLID
  8
0
 62
    15
 10
3.038200
 20
1.406680
 11
3.693800
 21
1.038400
 12
3.009600
 22
1.384680
 13
3.665640
 23
1.016400
  0
POLYLINE
  8
0
  6
CONTINUOUS
 66
     1
 40
0.000000
 41
0.000000
  0
VERTEX
  8
0
  6
CONTINUOUS
 10
3.038200
 20
1.406680
  0
VERTEX
  8
0
  6
CONTINUOUS
 10
3.693800
 20
1.038400
  0
VERTEX
  8
0
  6
CONTINUOUS
 10
3.665640
 20
1.016400
  0
VERTEX
  8
0
  6
CONTINUOUS
 10
3.009600
 20
1.384680
  0
VERTEX
  8
0
  6
CONTINUOUS
 10
3.038200
 20
1.406680
  0
SEQEND
  8
0
  0
SOLID
  8
0
 62
    15
 10
3.009600
 20
1.384680
 11
3.665640
 21
1.016400
 12
2.970440
 22
1.333640
 13
3.626480
 23
0.965360
  0
POLYLINE
  8
0
  6
CONTINUOUS
 66
     1
 40
0.000000
 41
0.000000
  0
VERTEX
  8
0
  6
CONTINUOUS
 10
3.009600
 20
1.384680
  0
VERTEX
  8
0
  6
CONTINUOUS
 10
3.665640
 20
1.016400
  0
VERTEX
  8
0
  6
CONTINUOUS
 10
3.626480
 20
0.965360
  0
VERTEX
  8
0
  6
CONTINUOUS
 10
2.970440
 20
1.333640
  0
VERTEX
  8
0
  6
CONTINUOUS
 10
3.009600
 20
1.384680
  0
SEQEND
  8
0
  0
SOLID
  8
0
 62
    15
 10
2.970440
 20
1.333640
 11
3.626480
 21
0.965360
 12
2.948880
 22
1.272480
 13
3.604920
 23
0.904200
  0
POLYLINE
  8
0
  6
CONTINUOUS
 66
     1
 40
0.000000
 41
0.000000
  0
VERTEX
  8
0
  6
CONTINUOUS
 10
2.970440
 20
1.333640
  0
VERTEX
  8
0
  6
CONTINUOUS
 10
3.626480
 20
0.965360
  0
VERTEX
  8
0
  6
CONTINUOUS
 10
3.604920
 20
0.904200
  0
VERTEX
  8
0
  6
CONTINUOUS
 10
2.948880
 20
1.272480
  0
VERTEX
  8
0
  6
CONTINUOUS
 10
2.970440
 20
1.333640
  0
SEQEND
  8
0
  0
SOLID
  8
0
 62
    15
 10
2.948880
 20
1.272480
 11
3.604920
 21
0.904200
 12
2.717000
 22
1.296680
 13
3.373040
 23
0.928400
  0
POLYLINE
  8
0
  6
CONTINUOUS
 66
     1
 40
0.000000
 41
0.000000
  0
VERTEX
  8
0
  6
CONTINUOUS
 10
2.948880
 20
1.272480
  0
VERTEX
  8
0
  6
CONTINUOUS
 10
3.604920
 20
0.904200
  0
VERTEX
  8
0
  6
CONTINUOUS
 10
3.373040
 20
0.928400
  0
VERTEX
  8
0
  6
CONTINUOUS
 10
2.717000
 20
1.296680
  0
VERTEX
  8
0
  6
CONTINUOUS
 10
2.948880
 20
1.272480
  0
SEQEND
  8
0
  0
POLYLINE
  8
0
  6
CONTINUOUS
 66
     1
 40
0.000000
 41
0.000000
  0
VERTEX
  8
0
  6
CONTINUOUS
 10
4.151400
 20
2.589400
  0
VERTEX
  8
0
  6
CONTINUOUS
 10
4.838680
 20
2.632960
  0
VERTEX
  8
0
  6
CONTINUOUS
 10
4.851000
 20
2.241360
  0
VERTEX
  8
0
  6
CONTINUOUS
 10
4.771360
 20
2.241800
  0
VERTEX
  8
0
  6
CONTINUOUS
 10
4.683360
 20
2.238280
  0
VERTEX
  8
0
  6
CONTINUOUS
 10
4.588320
 20
2.228160
  0
VERTEX
  8
0
  6
CONTINUOUS
 10
4.486240
 20
2.209240
  0
VERTEX
  8
0
  6
CONTINUOUS
 10
4.378000
 20
2.178440
  0
VERTEX
  8
0
  6
CONTINUOUS
 10
4.263160
 20
2.132680
  0
VERTEX
  8
0
  6
CONTINUOUS
 10
4.143040
 20
2.069320
  0
VERTEX
  8
0
  6
CONTINUOUS
 10
4.017640
 20
1.985720
  0
VERTEX
  8
0
  6
CONTINUOUS
 10
3.891800
 20
1.892880
  0
VERTEX
  8
0
  6
CONTINUOUS
 10
3.769480
 20
1.806200
  0
VERTEX
  8
0
  6
CONTINUOUS
 10
3.652880
 20
1.728760
  0
VERTEX
  8
0
  6
CONTINUOUS
 10
3.542440
 20
1.663640
  0
VERTEX
  8
0
  6
CONTINUOUS
 10
3.439920
 20
1.613920
  0
VERTEX
  8
0
  6
CONTINUOUS
 10
3.346200
 20
1.581800
  0
VERTEX
  8
0
  6
CONTINUOUS
 10
3.303080
 20
1.573880
  0
VERTEX
  8
0
  6
CONTINUOUS
 10
3.262600
 20
1.571680
  0
VERTEX
  8
0
  6
CONTINUOUS
 10
3.224760
 20
1.575200
  0
VERTEX
  8
0
  6
CONTINUOUS
 10
3.190000
 20
1.585320
  0
VERTEX
  8
0
  6
CONTINUOUS
 10
3.165800
 20
1.456400
  0
VERTEX
  8
0
  6
CONTINUOUS
 10
3.115200
 20
1.442320
  0
VERTEX
  8
0
  6
CONTINUOUS
 10
3.072960
 20
1.425600
  0
VERTEX
  8
0
  6
CONTINUOUS
 10
3.038200
 20
1.406680
  0
VERTEX
  8
0
  6
CONTINUOUS
 10
3.009600
 20
1.384680
  0
VERTEX
  8
0
  6
CONTINUOUS
 10
2.970440
 20
1.333640
  0
VERTEX
  8
0
  6
CONTINUOUS
 10
2.948880
 20
1.272480
  0
VERTEX
  8
0
  6
CONTINUOUS
 10
2.717000
 20
1.296680
  0
VERTEX
  8
0
  6
CONTINUOUS
 10
2.721400
 20
1.860760
  0
VERTEX
  8
0
  6
CONTINUOUS
 10
4.151400
 20
2.589400
  0
SEQEND
  8
0
  0
TEXT
  8
0
 10
4.300560
 20
1.114520
 40
0.138134
  1
BA  1181
 41
1.000000
  7
SN0
 71
     0
 72
     5
 11
4.982590
 21
1.114520
  0
TEXT
  8
0
 10
4.191000
 20
0.922680
 40
0.138134
  1
5/8" x 2-1/2"
 41
1.000000
  7
SN0
 71
     0
 72
     5
 11
5.091102
 21
0.922680
  0
TEXT
  8
0
 10
3.749680
 20
3.254680
 40
0.138134
  1
BA  1181
 41
1.000000
  7
SN0
 71
     0
 72
     5
 11
4.431710
 21
3.254680
  0
TEXT
  8
0
 10
3.640120
 20
3.063280
 40
0.138134
  1
5/8" x 2-1/2"
 41
1.000000
  7
SN0
 71
     0
 72
     5
 11
4.540222
 21
3.063280
  0
ENDSEC
  0
EOF
